  0
SECTION
  2
HEADER
  9
$ACADVER
  1
AC1018
  9
$ACADMAINTVER
 70
     0
  9
$DWGCODEPAGE
  3
ANSI_1252
  9
$INSBASE
 10
0.0
 20
0.0
 30
0.0
  9
$EXTMIN
 10
-31.50002715402979
 20
-0.000008993385773
 30
0.0
  9
$EXTMAX
 10
77.35200305346552
 20
94.65909437381266
 30
0.0
  9
$LIMMIN
 10
0.0
 20
0.0
  9
$LIMMAX
 10
12.0
 20
9.0
  9
$ORTHOMODE
 70
     0
  9
$REGENMODE
 70
     1
  9
$FILLMODE
 70
     1
  9
$QTEXTMODE
 70
     0
  9
$MIRRTEXT
 70
     1
  9
$LTSCALE
 40
0.0393700787401575
  9
$ATTMODE
 70
     1
  9
$TEXTSIZE
 40
0.2
  9
$TRACEWID
 40
0.05
  9
$TEXTSTYLE
  7
Standard
  9
$CLAYER
  8
Default
  9
$CELTYPE
  6
ByLayer
  9
$CECOLOR
 62
   256
  9
$CELTSCALE
 40
1.0
  9
$DISPSILH
 70
     0
  9
$DIMSCALE
 40
1.0
  9
$DIMASZ
 40
0.18
  9
$DIMEXO
 40
0.0625
  9
$DIMDLI
 40
0.38
  9
$DIMRND
 40
0.0
  9
$DIMDLE
 40
0.0
  9
$DIMEXE
 40
0.18
  9
$DIMTP
 40
0.0
  9
$DIMTM
 40
0.0
  9
$DIMTXT
 40
0.18
  9
$DIMCEN
 40
0.09
  9
$DIMTSZ
 40
0.0
  9
$DIMTOL
 70
     0
  9
$DIMLIM
 70
     0
  9
$DIMTIH
 70
     1
  9
$DIMTOH
 70
     1
  9
$DIMSE1
 70
     0
  9
$DIMSE2
 70
     0
  9
$DIMTAD
 70
     0
  9
$DIMZIN
 70
     0
  9
$DIMBLK
  1

  9
$DIMASO
 70
     1
  9
$DIMSHO
 70
     1
  9
$DIMPOST
  1

  9
$DIMAPOST
  1

  9
$DIMALT
 70
     0
  9
$DIMALTD
 70
     2
  9
$DIMALTF
 40
25.4
  9
$DIMLFAC
 40
1.0
  9
$DIMTOFL
 70
     0
  9
$DIMTVP
 40
0.0
  9
$DIMTIX
 70
     0
  9
$DIMSOXD
 70
     0
  9
$DIMSAH
 70
     0
  9
$DIMBLK1
  1

  9
$DIMBLK2
  1

  9
$DIMSTYLE
  2
Standard
  9
$DIMCLRD
 70
     0
  9
$DIMCLRE
 70
     0
  9
$DIMCLRT
 70
     0
  9
$DIMTFAC
 40
1.0
  9
$DIMGAP
 40
0.09
  9
$DIMJUST
 70
     0
  9
$DIMSD1
 70
     0
  9
$DIMSD2
 70
     0
  9
$DIMTOLJ
 70
     1
  9
$DIMTZIN
 70
     0
  9
$DIMALTZ
 70
     0
  9
$DIMALTTZ
 70
     0
  9
$DIMUPT
 70
     0
  9
$DIMDEC
 70
     4
  9
$DIMTDEC
 70
     4
  9
$DIMALTU
 70
     2
  9
$DIMALTTD
 70
     2
  9
$DIMTXSTY
  7
Standard
  9
$DIMAUNIT
 70
     0
  9
$DIMADEC
 70
     0
  9
$DIMALTRND
 40
0.0
  9
$DIMAZIN
 70
     0
  9
$DIMDSEP
 70
    46
  9
$DIMATFIT
 70
     3
  9
$DIMFRAC
 70
     0
  9
$DIMLDRBLK
  1

  9
$DIMLUNIT
 70
     2
  9
$DIMLWD
 70
    -2
  9
$DIMLWE
 70
    -2
  9
$DIMTMOVE
 70
     2
  9
$LUNITS
 70
     2
  9
$LUPREC
 70
     3
  9
$SKETCHINC
 40
0.1
  9
$FILLETRAD
 40
0.5
  9
$AUNITS
 70
     0
  9
$AUPREC
 70
     0
  9
$MENU
  1
.
  9
$ELEVATION
 40
0.0
  9
$PELEVATION
 40
0.0
  9
$THICKNESS
 40
0.0
  9
$LIMCHECK
 70
     0
  9
$CHAMFERA
 40
0.5
  9
$CHAMFERB
 40
0.5
  9
$CHAMFERC
 40
1.0
  9
$CHAMFERD
 40
0.0
  9
$SKPOLY
 70
     0
  9
$TDCREATE
 40
2457322.400566597
  9
$TDUCREATE
 40
2457322.567233264
  9
$TDUPDATE
 40
2457322.400566609
  9
$TDUUPDATE
 40
2457322.567233276
  9
$TDINDWG
 40
0.0000000116
  9
$TDUSRTIMER
 40
0.0000000116
  9
$USRTIMER
 70
     1
  9
$ANGBASE
 50
0.0
  9
$ANGDIR
 70
     0
  9
$PDMODE
 70
     0
  9
$PDSIZE
 40
0.0
  9
$PLINEWID
 40
0.0
  9
$SPLFRAME
 70
     0
  9
$SPLINETYPE
 70
     6
  9
$SPLINESEGS
 70
     8
  9
$HANDSEED
  5
B2
  9
$SURFTAB1
 70
     6
  9
$SURFTAB2
 70
     6
  9
$SURFTYPE
 70
     6
  9
$SURFU
 70
     6
  9
$SURFV
 70
     6
  9
$UCSBASE
  2

  9
$UCSNAME
  2

  9
$UCSORG
 10
0.0
 20
0.0
 30
0.0
  9
$UCSXDIR
 10
1.0
 20
0.0
 30
0.0
  9
$UCSYDIR
 10
0.0
 20
1.0
 30
0.0
  9
$UCSORTHOREF
  2

  9
$UCSORTHOVIEW
 70
     0
  9
$UCSORGTOP
 10
0.0
 20
0.0
 30
0.0
  9
$UCSORGBOTTOM
 10
0.0
 20
0.0
 30
0.0
  9
$UCSORGLEFT
 10
0.0
 20
0.0
 30
0.0
  9
$UCSORGRIGHT
 10
0.0
 20
0.0
 30
0.0
  9
$UCSORGFRONT
 10
0.0
 20
0.0
 30
0.0
  9
$UCSORGBACK
 10
0.0
 20
0.0
 30
0.0
  9
$PUCSBASE
  2

  9
$PUCSNAME
  2

  9
$PUCSORG
 10
0.0
 20
0.0
 30
0.0
  9
$PUCSXDIR
 10
1.0
 20
0.0
 30
0.0
  9
$PUCSYDIR
 10
0.0
 20
1.0
 30
0.0
  9
$PUCSORTHOREF
  2

  9
$PUCSORTHOVIEW
 70
     0
  9
$PUCSORGTOP
 10
0.0
 20
0.0
 30
0.0
  9
$PUCSORGBOTTOM
 10
0.0
 20
0.0
 30
0.0
  9
$PUCSORGLEFT
 10
0.0
 20
0.0
 30
0.0
  9
$PUCSORGRIGHT
 10
0.0
 20
0.0
 30
0.0
  9
$PUCSORGFRONT
 10
0.0
 20
0.0
 30
0.0
  9
$PUCSORGBACK
 10
0.0
 20
0.0
 30
0.0
  9
$USERI1
 70
     0
  9
$USERI2
 70
     0
  9
$USERI3
 70
     0
  9
$USERI4
 70
     0
  9
$USERI5
 70
     0
  9
$USERR1
 40
0.0
  9
$USERR2
 40
0.0
  9
$USERR3
 40
0.0
  9
$USERR4
 40
0.0
  9
$USERR5
 40
0.0
  9
$WORLDVIEW
 70
     1
  9
$SHADEDGE
 70
     3
  9
$SHADEDIF
 70
    70
  9
$TILEMODE
 70
     1
  9
$MAXACTVP
 70
    64
  9
$PINSBASE
 10
0.0
 20
0.0
 30
0.0
  9
$PLIMCHECK
 70
     0
  9
$PEXTMIN
 10
1.000000000000000E+20
 20
1.000000000000000E+20
 30
1.000000000000000E+20
  9
$PEXTMAX
 10
-1.000000000000000E+20
 20
-1.000000000000000E+20
 30
-1.000000000000000E+20
  9
$PLIMMIN
 10
0.0
 20
0.0
  9
$PLIMMAX
 10
12.0
 20
9.0
  9
$UNITMODE
 70
     0
  9
$VISRETAIN
 70
     1
  9
$PLINEGEN
 70
     0
  9
$PSLTSCALE
 70
     1
  9
$TREEDEPTH
 70
  3020
  9
$CMLSTYLE
  2
Standard
  9
$CMLJUST
 70
     0
  9
$CMLSCALE
 40
1.0
  9
$PROXYGRAPHICS
 70
     1
  9
$MEASUREMENT
 70
     0
  9
$CELWEIGHT
370
    -1
  9
$ENDCAPS
280
     0
  9
$JOINSTYLE
280
     0
  9
$LWDISPLAY
290
     0
  9
$INSUNITS
 70
     1
  9
$HYPERLINKBASE
  1

  9
$STYLESHEET
  1

  9
$XEDIT
290
     1
  9
$CEPSNTYPE
380
     0
  9
$PSTYLEMODE
290
     1
  9
$FINGERPRINTGUID
  2
{A1C65D8C-D085-49B7-8312-2A6B36075434}
  9
$VERSIONGUID
  2
{FAEB1C32-E019-11D5-929B-00C0DF256EC4}
  9
$EXTNAMES
290
     1
  9
$PSVPSCALE
 40
0.0
  9
$OLESTARTUP
290
     0
  9
$SORTENTS
280
   127
  9
$INDEXCTL
280
     0
  9
$HIDETEXT
280
     1
  9
$XCLIPFRAME
290
     0
  9
$HALOGAP
280
     0
  9
$OBSCOLOR
 70
   257
  9
$OBSLTYPE
280
     0
  9
$INTERSECTIONDISPLAY
280
     0
  9
$INTERSECTIONCOLOR
 70
   257
  9
$DIMASSOC
280
     2
  9
$PROJECTNAME
  1

  0
ENDSEC
  0
SECTION
  2
CLASSES
  0
CLASS
  1
ACDBDICTIONARYWDFLT
  2
AcDbDictionaryWithDefault
  3
ObjectDBX Classes
 90
        0
 91
        4
280
     0
281
     0
  0
CLASS
  1
VISUALSTYLE
  2
AcDbVisualStyle
  3
ObjectDBX Classes
 90
     4095
 91
        4
280
     0
281
     0
  0
ENDSEC
  0
SECTION
  2
TABLES
  0
TABLE
  2
VPORT
  5
8
330
0
100
AcDbSymbolTable
 70
     1
  0
VPORT
  5
29
330
8
100
AcDbSymbolTableRecord
100
AcDbViewportTableRecord
  2
*Active
 70
     0
 10
0.0
 20
0.0
 11
1.0
 21
1.0
 12
22.92598794971786
 22
47.32954269021344
 13
0.0
 23
0.0
 14
0.5
 24
0.5
 15
0.5
 25
0.5
 16
0.0
 26
0.0
 36
1.0
 17
0.0
 27
0.0
 37
0.0
 40
96.55228543454241
 41
1.149937262613192
 42
50.0
 43
0.0
 44
0.0
 50
0.0
 51
0.0
 71
     0
 72
   100
 73
     1
 74
     3
 75
     0
 76
     0
 77
     0
 78
     0
281
     0
 65
     1
110
0.0
120
0.0
130
0.0
111
1.0
121
0.0
131
0.0
112
0.0
122
1.0
132
0.0
 79
     0
146
0.0
  0
ENDTAB
  0
TABLE
  2
LTYPE
  5
5
330
0
100
AcDbSymbolTable
 70
     1
  0
LTYPE
  5
14
330
5
100
AcDbSymbolTableRecord
100
AcDbLinetypeTableRecord
  2
ByBlock
 70
     0
  3

 72
    65
 73
     0
 40
0.0
  0
LTYPE
  5
15
330
5
100
AcDbSymbolTableRecord
100
AcDbLinetypeTableRecord
  2
ByLayer
 70
     0
  3

 72
    65
 73
     0
 40
0.0
  0
LTYPE
  5
16
330
5
100
AcDbSymbolTableRecord
100
AcDbLinetypeTableRecord
  2
Continuous
 70
     0
  3
Solid line
 72
    65
 73
     0
 40
0.0
  0
ENDTAB
  0
TABLE
  2
LAYER
  5
2
330
0
100
AcDbSymbolTable
 70
     2
  0
LAYER
  5
10
330
2
100
AcDbSymbolTableRecord
100
AcDbLayerTableRecord
  2
0
 70
     0
 62
     7
  6
Continuous
370
    -3
390
F
  0
LAYER
  5
3B
330
2
100
AcDbSymbolTableRecord
100
AcDbLayerTableRecord
  2
Default
 70
     0
 62
     7
  6
Continuous
370
    -3
390
F
  0
ENDTAB
  0
TABLE
  2
STYLE
  5
3
330
0
100
AcDbSymbolTable
 70
     1
  0
STYLE
  5
11
330
3
100
AcDbSymbolTableRecord
100
AcDbTextStyleTableRecord
  2
Standard
 70
     0
 40
0.0
 41
1.0
 50
0.0
 71
     0
 42
0.2
  3
txt
  4

  0
ENDTAB
  0
TABLE
  2
VIEW
  5
6
330
0
100
AcDbSymbolTable
 70
     0
  0
ENDTAB
  0
TABLE
  2
UCS
  5
7
330
0
100
AcDbSymbolTable
 70
     0
  0
ENDTAB
  0
TABLE
  2
APPID
  5
9
330
0
100
AcDbSymbolTable
 70
     1
  0
APPID
  5
12
330
9
100
AcDbSymbolTableRecord
100
AcDbRegAppTableRecord
  2
ACAD
 70
     0
  0
ENDTAB
  0
TABLE
  2
DIMSTYLE
  5
A
330
0
100
AcDbSymbolTable
 70
     1
100
AcDbDimStyleTable
  0
DIMSTYLE
105
27
330
A
100
AcDbSymbolTableRecord
100
AcDbDimStyleTableRecord
  2
Standard
 70
     0
340
11
  0
ENDTAB
  0
TABLE
  2
BLOCK_RECORD
  5
1
330
0
100
AcDbSymbolTable
 70
     1
  0
BLOCK_RECORD
  5
1F
330
1
100
AcDbSymbolTableRecord
100
AcDbBlockTableRecord
  2
*Model_Space
340
22
  0
BLOCK_RECORD
  5
1B
330
1
100
AcDbSymbolTableRecord
100
AcDbBlockTableRecord
  2
*Paper_Space
340
1E
  0
BLOCK_RECORD
  5
23
330
1
100
AcDbSymbolTableRecord
100
AcDbBlockTableRecord
  2
*Paper_Space0
340
26
  0
ENDTAB
  0
ENDSEC
  0
SECTION
  2
BLOCKS
  0
BLOCK
  5
20
330
1F
100
AcDbEntity
  8
0
100
AcDbBlockBegin
  2
*Model_Space
 70
     0
 10
0.0
 20
0.0
 30
0.0
  3
*Model_Space
  1

  0
ENDBLK
  5
21
330
1F
100
AcDbEntity
  8
0
100
AcDbBlockEnd
  0
BLOCK
  5
1C
330
1B
100
AcDbEntity
 67
     1
  8
0
100
AcDbBlockBegin
  2
*Paper_Space
 70
     0
 10
0.0
 20
0.0
 30
0.0
  3
*Paper_Space
  1

  0
ENDBLK
  5
1D
330
1B
100
AcDbEntity
 67
     1
  8
0
100
AcDbBlockEnd
  0
BLOCK
  5
24
330
23
100
AcDbEntity
  8
0
100
AcDbBlockBegin
  2
*Paper_Space0
 70
     0
 10
0.0
 20
0.0
 30
0.0
  3
*Paper_Space0
  1

  0
ENDBLK
  5
25
330
23
100
AcDbEntity
  8
0
100
AcDbBlockEnd
  0
ENDSEC
  0
SECTION
  2
ENTITIES
  0
SPLINE
  5
3C
330
1F
100
AcDbEntity
  8
Default
100
AcDbSpline
210
0.0
220
0.0
230
1.0
 70
    24
 71
     2
 72
     6
 73
     3
 74
     0
 42
0.0000000001
 43
0.0000000001
 40
0.0
 40
0.0
 40
0.0
 40
1.00005370652903
 40
1.00005370652903
 40
1.00005370652903
 10
21.6535546625787
 20
82.80317027280473
 30
0.0
 10
21.6535546625787
 20
83.30319712606924
 30
0.0
 10
21.6535546625787
 20
83.80322397933374
 30
0.0
  0
SPLINE
  5
3D
330
1F
100
AcDbEntity
  8
Default
100
AcDbSpline
210
0.0
220
0.0
230
1.0
 70
    24
 71
     2
 72
     6
 73
     3
 74
     0
 42
0.0000000001
 43
0.0000000001
 40
0.0
 40
0.0
 40
0.0
 40
0.8558703944789209
 40
0.8558703944789209
 40
0.8558703944789209
 10
21.6535546625787
 20
90.55322397933374
 30
0.0
 10
21.6535546625787
 20
90.9811591765732
 30
0.0
 10
21.6535546625787
 20
91.40909437381266
 30
0.0
  0
SPLINE
  5
3E
330
1F
100
AcDbEntity
  8
Default
100
AcDbSpline
210
0.0
220
0.0
230
1.0
 70
    24
 71
     2
 72
     6
 73
     3
 74
     0
 42
0.0000000001
 43
0.0000000001
 40
-10.03937007878633
 40
-10.03937007878633
 40
-10.03937007878633
 40
0.0
 40
0.0
 40
0.0
 10
49.1053263273061
 20
11.02364565633674
 30
0.0
 10
49.1053263273061
 20
6.00396016798938
 30
0.0
 10
49.1053263273061
 20
0.9842746796420165
 30
0.0
  0
SPLINE
  5
3F
330
1F
100
AcDbEntity
  8
Default
100
AcDbSpline
210
0.0
220
0.0
230
1.0
 70
    12
 71
     2
 72
    12
 73
     9
 74
     0
 42
0.0000000001
 43
0.0000000001
 40
0.0
 40
0.0
 40
0.0
 40
0.7730450936832355
 40
0.7730450936832355
 40
1.546090187366471
 40
1.546090187366471
 40
2.319135281049706
 40
2.319135281049706
 40
3.092180374732942
 40
3.092180374732942
 40
3.092180374732942
 10
49.1053263273061
 20
0.9842746796420165
 30
0.0
 41
1.0
 10
49.1053390879074
 20
0.5765742435635955
 30
0.0
 41
0.9238765377170371
 10
48.81705649068499
 20
0.2882826243205905
 30
0.0
 41
1.0
 10
48.52877389346326
 20
-0.0000089949225021
 30
0.0
 41
0.9238765377170371
 10
48.12107435509324
 20
-0.0000089933857161
 30
0.0
 41
1.0
 10
47.71337481672378
 20
-0.0000089918489787
 30
0.0
 41
0.9238765377170371
 10
47.42509222167473
 20
0.2882826295674654
 30
0.0
 41
1.0
 10
47.13680962662664
 20
0.576574250983822
 30
0.0
 41
0.9238765377170371
 10
47.13682239029959
 20
0.984274683352357
 30
0.0
 41
1.0
  0
SPLINE
  5
40
330
1F
100
AcDbEntity
  8
Default
100
AcDbSpline
210
0.0
220
0.0
230
1.0
 70
    24
 71
     2
 72
     6
 73
     3
 74
     0
 42
0.0000000001
 43
0.0000000001
 40
0.0
 40
0.0
 40
0.0
 40
10.03937007878576
 40
10.03937007878576
 40
10.03937007878576
 10
47.13682239029959
 20
0.984274683352357
 30
0.0
 10
47.1368223902989
 20
6.00396016984455
 30
0.0
 10
47.13682239029822
 20
11.02364565633674
 30
0.0
  0
SPLINE
  5
41
330
1F
100
AcDbEntity
  8
Default
100
AcDbSpline
210
0.0
220
0.0
230
1.0
 70
    24
 71
     2
 72
     6
 73
     3
 74
     0
 42
0.0000000001
 43
0.0000000001
 40
-10.03937007878633
 40
-10.03937007878633
 40
-10.03937007878633
 40
0.0
 40
0.0
 40
0.0
 10
74.70530361600959
 20
11.02364565633674
 30
0.0
 10
74.70530361600959
 20
6.00396016798938
 30
0.0
 10
74.70530361600959
 20
0.9842746796420165
 30
0.0
  0
SPLINE
  5
42
330
1F
100
AcDbEntity
  8
Default
100
AcDbSpline
210
0.0
220
0.0
230
1.0
 70
    12
 71
     2
 72
    12
 73
     9
 74
     0
 42
0.0000000001
 43
0.0000000001
 40
0.0
 40
0.0
 40
0.0
 40
0.7730450936832355
 40
0.7730450936832355
 40
1.546090187366471
 40
1.546090187366471
 40
2.319135281049706
 40
2.319135281049706
 40
3.092180374732942
 40
3.092180374732942
 40
3.092180374732942
 10
74.70530361600959
 20
0.9842746796420165
 30
0.0
 41
1.0
 10
74.7053163766111
 20
0.5765742435635955
 30
0.0
 41
0.9238765377170371
 10
74.41703377938848
 20
0.2882826243205905
 30
0.0
 41
1.0
 10
74.12875118216695
 20
-0.0000089949225021
 30
0.0
 41
0.9238765377170371
 10
73.72105164379673
 20
-0.0000089933857161
 30
0.0
 41
1.0
 10
73.31335210542747
 20
-0.0000089918489787
 30
0.0
 41
0.9238765377170371
 10
73.02506951037867
 20
0.2882826295674654
 30
0.0
 41
1.0
 10
72.73678691533009
 20
0.576574250983822
 30
0.0
 41
0.9238765377170371
 10
72.73679967900307
 20
0.984274683352357
 30
0.0
 41
1.0
  0
SPLINE
  5
43
330
1F
100
AcDbEntity
  8
Default
100
AcDbSpline
210
0.0
220
0.0
230
1.0
 70
    24
 71
     2
 72
     6
 73
     3
 74
     0
 42
0.0000000001
 43
0.0000000001
 40
0.0
 40
0.0
 40
0.0
 40
10.03937007878576
 40
10.03937007878576
 40
10.03937007878576
 10
72.73679967900307
 20
0.984274683352357
 30
0.0
 10
72.73679967900239
 20
6.00396016984455
 30
0.0
 10
72.7367996790017
 20
11.02364565633674
 30
0.0
  0
ARC
  5
44
330
1F
100
AcDbEntity
  8
Default
100
AcDbCircle
 10
48.99605164804552
 20
25.55314296839284
 30
0.0
 40
0.75
100
AcDbArc
 50
270.0
 51
0.0
  0
SPLINE
  5
45
330
1F
100
AcDbEntity
  8
Default
100
AcDbSpline
210
0.0
220
0.0
230
1.0
 70
    24
 71
     2
 72
     6
 73
     3
 74
     0
 42
0.0000000001
 43
0.0000000001
 40
0.75
 40
0.75
 40
0.75
 40
2.500000000000028
 40
2.500000000000028
 40
2.500000000000028
 10
48.99605164804552
 20
24.80314296839284
 30
0.0
 10
48.12105164804552
 20
24.80314296839284
 30
0.0
 10
47.24605164804552
 20
24.80314296839284
 30
0.0
  0
ARC
  5
46
330
1F
100
AcDbEntity
  8
Default
100
AcDbCircle
 10
47.24605164804552
 20
25.55314296839284
 30
0.0
 40
0.75
100
AcDbArc
 50
180.0
 51
270.0
  0
SPLINE
  5
47
330
1F
100
AcDbEntity
  8
Default
100
AcDbSpline
210
0.0
220
0.0
230
1.0
 70
    24
 71
     2
 72
     6
 73
     3
 74
     0
 42
0.0000000001
 43
0.0000000001
 40
4.000000000000028
 40
4.000000000000028
 40
4.000000000000028
 40
26.50005400729268
 40
26.50005400729268
 40
26.50005400729268
 10
46.49605164804552
 20
25.55314296839284
 30
0.0
 10
46.49605164804552
 20
36.80316997203916
 30
0.0
 10
46.49605164804552
 20
48.05319697568548
 30
0.0
  0
ARC
  5
48
330
1F
100
AcDbEntity
  8
Default
100
AcDbCircle
 10
47.24605164804552
 20
48.05319697568548
 30
0.0
 40
0.75
100
AcDbArc
 50
90.0
 51
180.0
  0
SPLINE
  5
49
330
1F
100
AcDbEntity
  8
Default
100
AcDbSpline
210
0.0
220
0.0
230
1.0
 70
    24
 71
     2
 72
     6
 73
     3
 74
     0
 42
0.0000000001
 43
0.0000000001
 40
28.00005400729268
 40
28.00005400729268
 40
28.00005400729268
 40
29.7500540072927
 40
29.7500540072927
 40
29.7500540072927
 10
47.24605164804552
 20
48.80319697568548
 30
0.0
 10
48.12105164804552
 20
48.80319697568548
 30
0.0
 10
48.99605164804552
 20
48.80319697568548
 30
0.0
  0
ARC
  5
4A
330
1F
100
AcDbEntity
  8
Default
100
AcDbCircle
 10
48.99605164804552
 20
48.05319697568548
 30
0.0
 40
0.75
100
AcDbArc
 50
0.0
 51
90.0
  0
SPLINE
  5
4B
330
1F
100
AcDbEntity
  8
Default
100
AcDbSpline
210
0.0
220
0.0
230
1.0
 70
    24
 71
     2
 72
     6
 73
     3
 74
     0
 42
0.0000000001
 43
0.0000000001
 40
31.2500540072927
 40
31.2500540072927
 40
31.2500540072927
 40
53.75010801458535
 40
53.75010801458535
 40
53.75010801458535
 10
49.74605164804552
 20
48.05319697568548
 30
0.0
 10
49.74605164804552
 20
36.80316997203916
 30
0.0
 10
49.74605164804552
 20
25.55314296839284
 30
0.0
  0
POLYLINE
  5
4C
330
1F
100
AcDbEntity
  8
Default
100
AcDb2dPolyline
 66
     1
 10
0.0
 20
0.0
 30
0.0
  0
VERTEX
  5
4D
330
4C
100
AcDbEntity
  8
Default
100
AcDbVertex
100
AcDb2dVertex
 10
74.70530361600959
 20
11.02364565633674
 30
0.0
  0
VERTEX
  5
4E
330
4C
100
AcDbEntity
  8
Default
100
AcDbVertex
100
AcDb2dVertex
 10
47.1367996790018
 20
11.02364565633674
 30
0.0
  0
SEQEND
  5
4F
330
4C
100
AcDbEntity
  8
Default
  0
SPLINE
  5
50
330
1F
100
AcDbEntity
  8
Default
100
AcDbSpline
210
0.0
220
0.0
230
1.0
 70
    24
 71
     2
 72
     6
 73
     3
 74
     0
 42
0.0000000001
 43
0.0000000001
 40
0.0
 40
0.0
 40
0.0
 40
2.50005370652903
 40
2.50005370652903
 40
2.50005370652903
 10
59.10197574905351
 20
13.38585038074617
 30
0.0
 10
57.85194889578906
 20
13.38585038074617
 30
0.0
 10
56.60192204252462
 20
13.38585038074617
 30
0.0
  0
ARC
  5
51
330
1F
100
AcDbEntity
  8
Default
100
AcDbCircle
 10
56.60192204254145
 20
14.13582337709984
 30
0.0
 40
0.75
100
AcDbArc
 50
270.0
 51
0.0
  0
SPLINE
  5
52
330
1F
100
AcDbEntity
  8
Default
100
AcDbSpline
210
0.0
220
0.0
230
1.0
 70
    24
 71
     2
 72
     6
 73
     3
 74
     0
 42
0.0000000001
 43
0.0000000001
 40
0.7499999999999999
 40
0.7499999999999999
 40
0.7499999999999999
 40
6.000000000034055
 40
6.000000000034055
 40
6.000000000034055
 10
56.60192204254145
 20
13.38582337709984
 30
0.0
 10
53.97692204252439
 20
13.38582337709984
 30
0.0
 10
51.35192204250734
 20
13.38582337709984
 30
0.0
  0
ARC
  5
53
330
1F
100
AcDbEntity
  8
Default
100
AcDbCircle
 10
51.35192204250734
 20
14.13582337709984
 30
0.0
 40
0.75
100
AcDbArc
 50
180.0
 51
270.0
  0
SPLINE
  5
54
330
1F
100
AcDbEntity
  8
Default
100
AcDbSpline
210
0.0
220
0.0
230
1.0
 70
    24
 71
     2
 72
     6
 73
     3
 74
     0
 42
0.0000000001
 43
0.0000000001
 40
7.500000000034056
 40
7.500000000034056
 40
7.500000000034056
 40
24.2500540073267
 40
24.2500540073267
 40
24.2500540073267
 10
50.60192204250734
 20
14.13582337709984
 30
0.0
 10
50.60192204250734
 20
22.51085038074617
 30
0.0
 10
50.60192204250734
 20
30.88587738439249
 30
0.0
  0
ARC
  5
55
330
1F
100
AcDbEntity
  8
Default
100
AcDbCircle
 10
51.35192204250734
 20
30.88587738439249
 30
0.0
 40
0.75
100
AcDbArc
 50
90.0
 51
180.0
  0
SPLINE
  5
56
330
1F
100
AcDbEntity
  8
Default
100
AcDbSpline
210
0.0
220
0.0
230
1.0
 70
    24
 71
     2
 72
     6
 73
     3
 74
     0
 42
0.0000000001
 43
0.0000000001
 40
25.7500540073267
 40
25.7500540073267
 40
25.7500540073267
 40
31.00005400736076
 40
31.00005400736076
 40
31.00005400736076
 10
51.35192204250734
 20
31.63587738439249
 30
0.0
 10
53.97692204252439
 20
31.63587738439249
 30
0.0
 10
56.60192204254145
 20
31.63587738439249
 30
0.0
  0
ARC
  5
57
330
1F
100
AcDbEntity
  8
Default
100
AcDbCircle
 10
56.60192204254145
 20
30.88587738439249
 30
0.0
 40
0.75
100
AcDbArc
 50
0.0
 51
90.0
  0
SPLINE
  5
58
330
1F
100
AcDbEntity
  8
Default
100
AcDbSpline
210
0.0
220
0.0
230
1.0
 70
    24
 71
     2
 72
     6
 73
     3
 74
     0
 42
0.0000000001
 43
0.0000000001
 40
32.50005400736076
 40
32.50005400736076
 40
32.50005400736076
 40
49.25010801465341
 40
49.25010801465341
 40
49.25010801465341
 10
57.35192204254145
 20
30.88587738439249
 30
0.0
 10
57.35192204254145
 20
22.51085038074617
 30
0.0
 10
57.35192204254145
 20
14.13582337709984
 30
0.0
  0
SPLINE
  5
59
330
1F
100
AcDbEntity
  8
Default
100
AcDbSpline
210
0.0
220
0.0
230
1.0
 70
    24
 71
     2
 72
     6
 73
     3
 74
     0
 42
0.0000000001
 43
0.0000000001
 40
0.0
 40
0.0
 40
0.0
 40
2.362204724409445
 40
2.362204724409445
 40
2.362204724409445
 10
-23.03150741848413
 20
13.38585038074617
 30
0.0
 10
-23.03150741848413
 20
12.20474801854143
 30
0.0
 10
-23.03150741848413
 20
11.02364565633669
 30
0.0
  0
ARC
  5
5A
330
1F
100
AcDbEntity
  8
Default
100
AcDbCircle
 10
76.60200305346552
 20
14.13585038074617
 30
0.0
 40
0.75
100
AcDbArc
 50
270.0
 51
0.0
  0
SPLINE
  5
5B
330
1F
100
AcDbEntity
  8
Default
100
AcDbSpline
210
0.0
220
0.0
230
1.0
 70
    24
 71
     2
 72
     6
 73
     3
 74
     0
 42
0.0000000001
 43
0.0000000001
 40
0.75
 40
0.75
 40
0.75
 40
18.25005430805825
 40
18.25005430805825
 40
18.25005430805825
 10
76.60200305346552
 20
13.38585038074617
 30
0.0
 10
67.85197589943641
 20
13.38585038074617
 30
0.0
 10
59.1019487454073
 20
13.38585038074617
 30
0.0
  0
ARC
  5
5C
330
1F
100
AcDbEntity
  8
Default
100
AcDbCircle
 10
59.1019487454073
 20
14.13585038074617
 30
0.0
 40
0.75
100
AcDbArc
 50
180.0
 51
270.0
  0
SPLINE
  5
5D
330
1F
100
AcDbEntity
  8
Default
100
AcDbSpline
210
0.0
220
0.0
230
1.0
 70
    24
 71
     2
 72
     6
 73
     3
 74
     0
 42
0.0000000001
 43
0.0000000001
 40
19.75005430805825
 40
19.75005430805825
 40
19.75005430805825
 40
22.75005430805825
 40
22.75005430805825
 40
22.75005430805825
 10
58.3519487454073
 20
14.13585038074617
 30
0.0
 10
58.3519487454073
 20
15.63585038074617
 30
0.0
 10
58.3519487454073
 20
17.13585038074617
 30
0.0
  0
ARC
  5
5E
330
1F
100
AcDbEntity
  8
Default
100
AcDbCircle
 10
59.1019487454073
 20
17.13585038074617
 30
0.0
 40
0.75
100
AcDbArc
 50
90.0
 51
180.0
  0
SPLINE
  5
5F
330
1F
100
AcDbEntity
  8
Default
100
AcDbSpline
210
0.0
220
0.0
230
1.0
 70
    24
 71
     2
 72
     6
 73
     3
 74
     0
 42
0.0000000001
 43
0.0000000001
 40
24.25005430805825
 40
24.25005430805825
 40
24.25005430805825
 40
41.75010861611651
 40
41.75010861611651
 40
41.75010861611651
 10
59.1019487454073
 20
17.88585038074617
 30
0.0
 10
67.85197589943641
 20
17.88585038074617
 30
0.0
 10
76.60200305346552
 20
17.88585038074617
 30
0.0
  0
ARC
  5
60
330
1F
100
AcDbEntity
  8
Default
100
AcDbCircle
 10
76.60200305346552
 20
17.13585038074617
 30
0.0
 40
0.75
100
AcDbArc
 50
0.0
 51
90.0
  0
SPLINE
  5
61
330
1F
100
AcDbEntity
  8
Default
100
AcDbSpline
210
0.0
220
0.0
230
1.0
 70
    24
 71
     2
 72
     6
 73
     3
 74
     0
 42
0.0000000001
 43
0.0000000001
 40
43.25010861611651
 40
43.25010861611651
 40
43.25010861611651
 40
46.25010861611651
 40
46.25010861611651
 40
46.25010861611651
 10
77.35200305346552
 20
17.13585038074617
 30
0.0
 10
77.35200305346552
 20
15.63585038074617
 30
0.0
 10
77.35200305346552
 20
14.13585038074617
 30
0.0
  0
SPLINE
  5
62
330
1F
100
AcDbEntity
  8
Default
100
AcDbSpline
210
0.0
220
0.0
230
1.0
 70
    24
 71
     2
 72
     6
 73
     3
 74
     0
 42
0.0000000001
 43
0.0000000001
 40
0.0
 40
0.0
 40
0.0
 40
5.30765151536454
 40
5.30765151536454
 40
5.30765151536454
 10
51.28903604984589
 20
13.38585038074617
 30
0.0
 10
50.15608476354055
 20
13.38585038074617
 30
0.0
 10
49.02313347723521
 20
13.38585038074617
 30
0.0
  0
SPLINE
  5
63
330
1F
100
AcDbEntity
  8
Default
100
AcDbSpline
210
0.0
220
0.0
230
1.0
 70
    24
 71
     2
 72
     6
 73
     3
 74
     0
 42
0.0000000001
 43
0.0000000001
 40
0.0
 40
0.0
 40
0.0
 40
9.055111678859245
 40
9.055111678859245
 40
9.055111678859245
 10
47.13679967901271
 20
22.44096527529389
 30
0.0
 10
47.13679967901271
 20
17.91340943586427
 30
0.0
 10
47.13679967901271
 20
13.38585359643465
 30
0.0
  0
SPLINE
  5
64
330
1F
100
AcDbEntity
  8
Default
100
AcDbSpline
210
0.0
220
0.0
230
1.0
 70
    24
 71
     2
 72
     6
 73
     3
 74
     0
 42
0.0000000001
 43
0.0000000001
 40
0.0
 40
0.0
 40
0.0
 40
2.362204724409445
 40
2.362204724409445
 40
2.362204724409445
 10
47.1367996790018
 20
13.38585038074617
 30
0.0
 10
47.1367996790018
 20
12.20474801854145
 30
0.0
 10
47.1367996790018
 20
11.02364565633674
 30
0.0
  0
LINE
  5
65
330
1F
100
AcDbEntity
  8
Default
100
AcDbLine
 10
31.50000015038222
 20
17.19873683181506
 30
0.0
 11
31.50000015038222
 21
30.63585059622155
 31
0.0
  0
ARC
  5
66
330
1F
100
AcDbEntity
  8
Default
100
AcDbCircle
 10
30.50000015038222
 20
30.63585059622155
 30
0.0
 40
1.0
100
AcDbArc
 50
0.0
 51
89.9999999999998
  0
LINE
  5
67
330
1F
100
AcDbEntity
  8
Default
100
AcDbLine
 10
30.50000015038222
 20
31.63585059622155
 30
0.0
 11
-30.5000003658588
 21
31.63585059622149
 31
0.0
  0
ARC
  5
68
330
1F
100
AcDbEntity
  8
Default
100
AcDbCircle
 10
-30.5000003658588
 20
30.63585059622149
 30
0.0
 40
1.0
100
AcDbArc
 50
90.0
 51
179.9999999999994
  0
LINE
  5
69
330
1F
100
AcDbEntity
  8
Default
100
AcDbLine
 10
-31.5000003658588
 20
30.63585059622149
 30
0.0
 11
-31.5000003658588
 21
17.19873683181506
 31
0.0
  0
SPLINE
  5
6A
330
1F
100
AcDbEntity
  8
Default
100
AcDbSpline
210
0.0
220
0.0
230
1.0
 70
    24
 71
     2
 72
     6
 73
     3
 74
     0
 42
0.0000000001
 43
0.0000000001
 40
0.0
 40
0.0
 40
0.0
 40
2.362204724409445
 40
2.362204724409445
 40
2.362204724409445
 10
72.81896981778937
 20
13.38585038074617
 30
0.0
 10
72.81896981778937
 20
12.20474801854145
 30
0.0
 10
72.81896981778937
 20
11.02364565633674
 30
0.0
  0
SPLINE
  5
6B
330
1F
100
AcDbEntity
  8
Default
100
AcDbSpline
210
0.0
220
0.0
230
1.0
 70
    24
 71
     2
 72
     6
 73
     3
 74
     0
 42
0.0000000001
 43
0.0000000001
 40
0.0
 40
0.0
 40
0.0
 40
2.362204724409445
 40
2.362204724409445
 40
2.362204724409445
 10
74.70530361600959
 20
11.02364565633674
 30
0.0
 10
74.70530361600959
 20
12.20474801854145
 30
0.0
 10
74.70530361600959
 20
13.38585038074617
 30
0.0
  0
LINE
  5
6C
330
1F
100
AcDbEntity
  8
Default
100
AcDbLine
 10
31.49605164804552
 20
30.63585038074554
 30
0.0
 11
31.49605164804552
 21
47.80316997203916
 31
0.0
  0
ARC
  5
6D
330
1F
100
AcDbEntity
  8
Default
100
AcDbCircle
 10
30.49605164804552
 20
47.80316997203916
 30
0.0
 40
1.0
100
AcDbArc
 50
0.0
 51
89.99999999999959
  0
LINE
  5
6E
330
1F
100
AcDbEntity
  8
Default
100
AcDbLine
 10
30.49605164804552
 20
48.80316997203916
 30
0.0
 11
-30.49607436087535
 21
48.80316997203916
 31
0.0
  0
ARC
  5
6F
330
1F
100
AcDbEntity
  8
Default
100
AcDbCircle
 10
-30.49607436087535
 20
47.80316997203916
 30
0.0
 40
1.0
100
AcDbArc
 50
90.0
 51
180.0000000000004
  0
LINE
  5
70
330
1F
100
AcDbEntity
  8
Default
100
AcDbLine
 10
-31.49607436087535
 20
47.80316997203916
 30
0.0
 11
-31.49607436087535
 21
30.63585038074554
 31
0.0
  0
SPLINE
  5
71
330
1F
100
AcDbEntity
  8
Default
100
AcDbSpline
210
0.0
220
0.0
230
1.0
 70
    24
 71
     2
 72
     6
 73
     3
 74
     0
 42
0.0000000001
 43
0.0000000001
 40
-10.03937007878633
 40
-10.03937007878633
 40
-10.03937007878633
 40
0.0
 40
0.0
 40
0.0
 10
21.06300348147624
 20
11.02364565633669
 30
0.0
 10
21.06300348147602
 20
6.003960167989323
 30
0.0
 10
21.06300348147579
 20
0.9842746796419597
 30
0.0
  0
SPLINE
  5
72
330
1F
100
AcDbEntity
  8
Default
100
AcDbSpline
210
0.0
220
0.0
230
1.0
 70
    12
 71
     2
 72
    12
 73
     9
 74
     0
 42
0.0000000001
 43
0.0000000001
 40
0.0
 40
0.0
 40
0.0
 40
0.7730450936832355
 40
0.7730450936832355
 40
1.546090187366471
 40
1.546090187366471
 40
2.319135281049706
 40
2.319135281049706
 40
3.092180374732942
 40
3.092180374732942
 40
3.092180374732942
 10
21.06300348147579
 20
0.9842746796419597
 30
0.0
 41
1.0
 10
21.06299072087532
 20
0.576574243563534
 30
0.0
 41
0.9238765377170371
 10
21.35127331809736
 20
0.2882826243205336
 30
0.0
 41
1.0
 10
21.63955591531946
 20
-0.0000089949225636
 30
0.0
 41
0.9238765377170371
 10
22.0472554536891
 20
-0.000008993385773
 30
0.0
 41
1.0
 10
22.45495499205895
 20
-0.0000089918490402
 30
0.0
 41
0.9238765377170371
 10
22.74323758710716
 20
0.2882826295674086
 30
0.0
 41
1.0
 10
23.03152018215633
 20
0.5765742509837605
 30
0.0
 41
0.9238765377170371
 10
23.03150741848276
 20
0.9842746833523002
 30
0.0
 41
1.0
  0
SPLINE
  5
73
330
1F
100
AcDbEntity
  8
Default
100
AcDbSpline
210
0.0
220
0.0
230
1.0
 70
    24
 71
     2
 72
     6
 73
     3
 74
     0
 42
0.0000000001
 43
0.0000000001
 40
0.0
 40
0.0
 40
0.0
 40
10.03937007878576
 40
10.03937007878576
 40
10.03937007878576
 10
23.03150741848276
 20
0.9842746833523002
 30
0.0
 10
23.03150741848344
 20
6.003960169844493
 30
0.0
 10
23.03150741848413
 20
11.02364565633669
 30
0.0
  0
SPLINE
  5
74
330
1F
100
AcDbEntity
  8
Default
100
AcDbSpline
210
0.0
220
0.0
230
1.0
 70
    24
 71
     2
 72
     6
 73
     3
 74
     0
 42
0.0000000001
 43
0.0000000001
 40
-10.03937007878633
 40
-10.03937007878633
 40
-10.03937007878633
 40
0.0
 40
0.0
 40
0.0
 10
-21.06300348147624
 20
11.02364565633669
 30
0.0
 10
-21.06300348147624
 20
6.003960167989323
 30
0.0
 10
-21.06300348147624
 20
0.9842746796419597
 30
0.0
  0
SPLINE
  5
75
330
1F
100
AcDbEntity
  8
Default
100
AcDbSpline
210
0.0
220
0.0
230
1.0
 70
    12
 71
     2
 72
    12
 73
     9
 74
     0
 42
0.0000000001
 43
0.0000000001
 40
0.0
 40
0.0
 40
0.0
 40
0.7730450936832355
 40
0.7730450936832355
 40
1.546090187366471
 40
1.546090187366471
 40
2.319135281049706
 40
2.319135281049706
 40
3.092180374732942
 40
3.092180374732942
 40
3.092180374732942
 10
-21.06300348147624
 20
0.9842746796419597
 30
0.0
 41
1.0
 10
-21.06299072087499
 20
0.576574243563534
 30
0.0
 41
0.9238765377170371
 10
-21.35127331809736
 20
0.2882826243205336
 30
0.0
 41
1.0
 10
-21.63955591531889
 20
-0.0000089949225636
 30
0.0
 41
0.9238765377170371
 10
-22.0472554536891
 20
-0.000008993385773
 30
0.0
 41
1.0
 10
-22.45495499205837
 20
-0.0000089918490402
 30
0.0
 41
0.9238765377170371
 10
-22.74323758710761
 20
0.2882826295674086
 30
0.0
 41
1.0
 10
-23.03152018215577
 20
0.5765742509837605
 30
0.0
 41
0.9238765377170371
 10
-23.03150741848276
 20
0.9842746833523002
 30
0.0
 41
1.0
  0
SPLINE
  5
76
330
1F
100
AcDbEntity
  8
Default
100
AcDbSpline
210
0.0
220
0.0
230
1.0
 70
    24
 71
     2
 72
     6
 73
     3
 74
     0
 42
0.0000000001
 43
0.0000000001
 40
0.0
 40
0.0
 40
0.0
 40
10.03937007878576
 40
10.03937007878576
 40
10.03937007878576
 10
-23.03150741848276
 20
0.9842746833523002
 30
0.0
 10
-23.03150741848344
 20
6.003960169844493
 30
0.0
 10
-23.03150741848413
 20
11.02364565633669
 30
0.0
  0
SPLINE
  5
77
330
1F
100
AcDbEntity
  8
Default
100
AcDbSpline
210
0.0
220
0.0
230
1.0
 70
    24
 71
     2
 72
     6
 73
     3
 74
     0
 42
0.0000000001
 43
0.0000000001
 40
0.0
 40
0.0
 40
0.0
 40
1.968503937007881
 40
1.968503937007881
 40
1.968503937007881
 10
-23.03150741848413
 20
11.02364565633669
 30
0.0
 10
-22.04725544998018
 20
11.02364565633669
 30
0.0
 10
-21.06300348147624
 20
11.02364565633669
 30
0.0
  0
SPLINE
  5
78
330
1F
100
AcDbEntity
  8
Default
100
AcDbSpline
210
0.0
220
0.0
230
1.0
 70
    24
 71
     2
 72
     6
 73
     3
 74
     0
 42
0.0000000001
 43
0.0000000001
 40
0.0
 40
0.0
 40
0.0
 40
2.362204724409448
 40
2.362204724409448
 40
2.362204724409448
 10
47.13679967901271
 20
24.80316999970337
 30
0.0
 10
47.13679967901271
 20
23.62206763749863
 30
0.0
 10
47.13679967901271
 20
22.44096527529389
 30
0.0
  0
ARC
  5
79
330
1F
100
AcDbEntity
  8
Default
100
AcDbCircle
 10
-30.75002700401274
 20
14.13585038074611
 30
0.0
 40
0.75
100
AcDbArc
 50
180.0
 51
270.0
  0
SPLINE
  5
7A
330
1F
100
AcDbEntity
  8
Default
100
AcDbSpline
210
0.0
220
0.0
230
1.0
 70
    24
 71
     2
 72
     6
 73
     3
 74
     0
 42
0.0000000001
 43
0.0000000001
 40
0.7500000000000001
 40
0.7500000000000001
 40
0.7500000000000001
 40
62.25005415800515
 40
62.25005415800515
 40
62.25005415800515
 10
-30.75002700401274
 20
13.38585038074611
 30
0.0
 10
0.0000000749896572
 20
13.38585038074611
 30
0.0
 10
30.75002715399205
 20
13.38585038074611
 30
0.0
  0
ARC
  5
7B
330
1F
100
AcDbEntity
  8
Default
100
AcDbCircle
 10
30.75002715399205
 20
14.13585038074611
 30
0.0
 40
0.75
100
AcDbArc
 50
270.0000000000002
 51
0.0
  0
SPLINE
  5
7C
330
1F
100
AcDbEntity
  8
Default
100
AcDbSpline
210
0.0
220
0.0
230
1.0
 70
    24
 71
     2
 72
     6
 73
     3
 74
     0
 42
0.0000000001
 43
0.0000000001
 40
63.75005415800514
 40
63.75005415800514
 40
63.75005415800514
 40
66.7500541580052
 40
66.7500541580052
 40
66.7500541580052
 10
31.50002715399205
 20
14.13585038074611
 30
0.0
 10
31.50002715399205
 20
15.63585038074614
 30
0.0
 10
31.50002715399205
 20
17.13585038074617
 30
0.0
  0
ARC
  5
7D
330
1F
100
AcDbEntity
  8
Default
100
AcDbCircle
 10
30.75002715399205
 20
17.13585038074617
 30
0.0
 40
0.75
100
AcDbArc
 50
0.0
 51
90.0
  0
SPLINE
  5
7E
330
1F
100
AcDbEntity
  8
Default
100
AcDbSpline
210
0.0
220
0.0
230
1.0
 70
    24
 71
     2
 72
     6
 73
     3
 74
     0
 42
0.0000000001
 43
0.0000000001
 40
68.2500541580052
 40
68.2500541580052
 40
68.2500541580052
 40
129.7501083160103
 40
129.7501083160103
 40
129.7501083160103
 10
30.75002715399205
 20
17.88585038074617
 30
0.0
 10
0.0000000749896572
 20
17.88585038074617
 30
0.0
 10
-30.75002700401274
 20
17.88585038074617
 30
0.0
  0
ARC
  5
7F
330
1F
100
AcDbEntity
  8
Default
100
AcDbCircle
 10
-30.75002700401274
 20
17.13585038074617
 30
0.0
 40
0.75
100
AcDbArc
 50
90.0
 51
180.0
  0
SPLINE
  5
80
330
1F
100
AcDbEntity
  8
Default
100
AcDbSpline
210
0.0
220
0.0
230
1.0
 70
    24
 71
     2
 72
     6
 73
     3
 74
     0
 42
0.0000000001
 43
0.0000000001
 40
131.2501083160103
 40
131.2501083160103
 40
131.2501083160103
 40
134.2501083160104
 40
134.2501083160104
 40
134.2501083160104
 10
-31.50002700401274
 20
17.13585038074617
 30
0.0
 10
-31.50002700401274
 20
15.63585038074614
 30
0.0
 10
-31.50002700401274
 20
14.13585038074611
 30
0.0
  0
SPLINE
  5
81
330
1F
100
AcDbEntity
  8
Default
100
AcDbSpline
210
0.0
220
0.0
230
1.0
 70
    24
 71
     2
 72
     6
 73
     3
 74
     0
 42
0.0000000001
 43
0.0000000001
 40
0.0
 40
0.0
 40
0.0
 40
2.362204724409445
 40
2.362204724409445
 40
2.362204724409445
 10
23.03153012978055
 20
13.38585038074617
 30
0.0
 10
23.03153012978055
 20
12.20474801854143
 30
0.0
 10
23.03153012978055
 20
11.02364565633669
 30
0.0
  0
SPLINE
  5
82
330
1F
100
AcDbEntity
  8
Default
100
AcDbSpline
210
0.0
220
0.0
230
1.0
 70
    24
 71
     2
 72
     6
 73
     3
 74
     0
 42
0.0000000001
 43
0.0000000001
 40
0.0
 40
0.0
 40
0.0
 40
2.362204724409445
 40
2.362204724409445
 40
2.362204724409445
 10
49.02313347723521
 20
11.02364565633674
 30
0.0
 10
49.02313347723521
 20
12.20474801854145
 30
0.0
 10
49.02313347723521
 20
13.38585038074617
 30
0.0
  0
ARC
  5
83
330
1F
100
AcDbEntity
  8
Default
100
AcDbCircle
 10
-30.50000000036653
 20
64.80316997203916
 30
0.0
 40
1.0
100
AcDbArc
 50
180.0
 51
269.9999999999992
  0
SPLINE
  5
84
330
1F
100
AcDbEntity
  8
Default
100
AcDbSpline
210
0.0
220
0.0
230
1.0
 70
    24
 71
     2
 72
     6
 73
     3
 74
     0
 42
0.0000000001
 43
0.0000000001
 40
0.9999999999999994
 40
0.9999999999999994
 40
0.9999999999999994
 40
62.00000021620733
 40
62.00000021620733
 40
62.00000021620733
 10
-30.50000000036653
 20
63.80316997203916
 30
0.0
 10
0.0000001077371508
 20
63.80316997203916
 30
0.0
 10
30.50000021584083
 20
63.80316997203916
 30
0.0
  0
ARC
  5
85
330
1F
100
AcDbEntity
  8
Default
100
AcDbCircle
 10
30.50000021584083
 20
64.80316997203916
 30
0.0
 40
1.0
100
AcDbArc
 50
270.0
 51
0.0
  0
SPLINE
  5
86
330
1F
100
AcDbEntity
  8
Default
100
AcDbSpline
210
0.0
220
0.0
230
1.0
 70
    24
 71
     2
 72
     6
 73
     3
 74
     0
 42
0.0000000001
 43
0.0000000001
 40
64.00000021620734
 40
64.00000021620734
 40
64.00000021620734
 40
81.00000073244827
 40
81.00000073244827
 40
81.00000073244827
 10
31.50000021584083
 20
64.80316997203916
 30
0.0
 10
31.50000021584083
 20
73.30317023015961
 30
0.0
 10
31.50000021584083
 20
81.80317048828006
 30
0.0
  0
ARC
  5
87
330
1F
100
AcDbEntity
  8
Default
100
AcDbCircle
 10
30.50000021584083
 20
81.80317048828006
 30
0.0
 40
1.0
100
AcDbArc
 50
0.0
 51
90.0
  0
SPLINE
  5
88
330
1F
100
AcDbEntity
  8
Default
100
AcDbSpline
210
0.0
220
0.0
230
1.0
 70
    24
 71
     2
 72
     6
 73
     3
 74
     0
 42
0.0000000001
 43
0.0000000001
 40
83.00000073244827
 40
83.00000073244827
 40
83.00000073244827
 40
144.0000009486556
 40
144.0000009486556
 40
144.0000009486556
 10
30.50000021584083
 20
82.80317048828006
 30
0.0
 10
0.0000001077371508
 20
82.80317048828006
 30
0.0
 10
-30.50000000036653
 20
82.80317048828006
 30
0.0
  0
ARC
  5
89
330
1F
100
AcDbEntity
  8
Default
100
AcDbCircle
 10
-30.50000000036653
 20
81.80317048828006
 30
0.0
 40
1.0
100
AcDbArc
 50
90.0
 51
180.0
  0
SPLINE
  5
8A
330
1F
100
AcDbEntity
  8
Default
100
AcDbSpline
210
0.0
220
0.0
230
1.0
 70
    24
 71
     2
 72
     6
 73
     3
 74
     0
 42
0.0000000001
 43
0.0000000001
 40
146.0000009486556
 40
146.0000009486556
 40
146.0000009486556
 40
163.0000014648966
 40
163.0000014648966
 40
163.0000014648966
 10
-31.50000000036653
 20
81.80317048828006
 30
0.0
 10
-31.50000000036653
 20
73.30317023015961
 30
0.0
 10
-31.50000000036653
 20
64.80316997203916
 30
0.0
  0
SPLINE
  5
8B
330
1F
100
AcDbEntity
  8
Default
100
AcDbSpline
210
0.0
220
0.0
230
1.0
 70
    24
 71
     2
 72
     6
 73
     3
 74
     0
 42
0.0000000001
 43
0.0000000001
 40
0.0
 40
0.0
 40
0.0
 40
9.055111678859245
 40
9.055111678859245
 40
9.055111678859245
 10
49.10530361602059
 20
13.38585359643465
 30
0.0
 10
49.10530361602059
 20
17.91340943586427
 30
0.0
 10
49.10530361602059
 20
22.44096527529389
 30
0.0
  0
SPLINE
  5
8C
330
1F
100
AcDbEntity
  8
Default
100
AcDbSpline
210
0.0
220
0.0
230
1.0
 70
    24
 71
     2
 72
     6
 73
     3
 74
     0
 42
0.0000000001
 43
0.0000000001
 40
0.0
 40
0.0
 40
0.0
 40
0.9842519685040543
 40
0.9842519685040543
 40
0.9842519685040543
 10
22.04725544998018
 20
11.02364565633669
 30
0.0
 10
22.53938143423215
 20
11.02364565633669
 30
0.0
 10
23.03150741848413
 20
11.02364565633669
 30
0.0
  0
SPLINE
  5
8D
330
1F
100
AcDbEntity
  8
Default
100
AcDbSpline
210
0.0
220
0.0
230
1.0
 70
    24
 71
     2
 72
     6
 73
     3
 74
     0
 42
0.0000000001
 43
0.0000000001
 40
0.0
 40
0.0
 40
0.0
 40
0.9842519685038269
 40
0.9842519685038269
 40
0.9842519685038269
 10
21.06300348147624
 20
11.02364565633669
 30
0.0
 10
21.55512946572821
 20
11.02364565633669
 30
0.0
 10
22.04725544998018
 20
11.02364565633669
 30
0.0
  0
SPLINE
  5
8E
330
1F
100
AcDbEntity
  8
Default
100
AcDbSpline
210
0.0
220
0.0
230
1.0
 70
    24
 71
     2
 72
     6
 73
     3
 74
     0
 42
0.0000000001
 43
0.0000000001
 40
0.0
 40
0.0
 40
0.0
 40
42.12600696295254
 40
42.12600696295254
 40
42.12600696295254
 10
21.06300348147624
 20
11.02364565633669
 30
0.0
 10
0.0
 20
11.02364565633669
 30
0.0
 10
-21.06300348147624
 20
11.02364565633669
 30
0.0
  0
SPLINE
  5
8F
330
1F
100
AcDbEntity
  8
Default
100
AcDbSpline
210
0.0
220
0.0
230
1.0
 70
    24
 71
     2
 72
     6
 73
     3
 74
     0
 42
0.0000000001
 43
0.0000000001
 40
0.0
 40
0.0
 40
0.0
 40
2.362204724409445
 40
2.362204724409445
 40
2.362204724409445
 10
-21.06300348147624
 20
13.38585038074617
 30
0.0
 10
-21.06300348147624
 20
12.20474801854143
 30
0.0
 10
-21.06300348147624
 20
11.02364565633669
 30
0.0
  0
SPLINE
  5
90
330
1F
100
AcDbEntity
  8
Default
100
AcDbSpline
210
0.0
220
0.0
230
1.0
 70
    24
 71
     2
 72
     6
 73
     3
 74
     0
 42
0.0000000001
 43
0.0000000001
 40
0.0
 40
0.0
 40
0.0
 40
2.362204724409445
 40
2.362204724409445
 40
2.362204724409445
 10
21.06302619277267
 20
11.02364565633669
 30
0.0
 10
21.06302619277267
 20
12.20474801854143
 30
0.0
 10
21.06302619277267
 20
13.38585038074617
 30
0.0
  0
ARC
  5
91
330
1F
100
AcDbEntity
  8
Default
100
AcDbCircle
 10
-30.75002715402979
 20
84.55322397931674
 30
0.0
 40
0.75
100
AcDbArc
 50
180.0
 51
270.0
  0
SPLINE
  5
92
330
1F
100
AcDbEntity
  8
Default
100
AcDbSpline
210
0.0
220
0.0
230
1.0
 70
    24
 71
     2
 72
     6
 73
     3
 74
     0
 42
0.0000000001
 43
0.0000000001
 40
0.7499999999999999
 40
0.7499999999999999
 40
0.7499999999999999
 40
62.25005430805822
 40
62.25005430805822
 40
62.25005430805822
 10
-30.75002715402979
 20
83.80322397931674
 30
0.0
 10
-0.0000000000006821
 20
83.80322397931674
 30
0.0
 10
30.75002715402843
 20
83.80322397931674
 30
0.0
  0
ARC
  5
93
330
1F
100
AcDbEntity
  8
Default
100
AcDbCircle
 10
30.75002715402843
 20
84.55322397931674
 30
0.0
 40
0.75
100
AcDbArc
 50
270.0
 51
0.0
  0
SPLINE
  5
94
330
1F
100
AcDbEntity
  8
Default
100
AcDbSpline
210
0.0
220
0.0
230
1.0
 70
    24
 71
     2
 72
     6
 73
     3
 74
     0
 42
0.0000000001
 43
0.0000000001
 40
63.75005430805822
 40
63.75005430805822
 40
63.75005430805822
 40
69.00005430809216
 40
69.00005430809216
 40
69.00005430809216
 10
31.50002715402843
 20
84.55322397931674
 30
0.0
 10
31.50002715402843
 20
87.17822397933371
 30
0.0
 10
31.50002715402843
 20
89.80322397935068
 30
0.0
  0
ARC
  5
95
330
1F
100
AcDbEntity
  8
Default
100
AcDbCircle
 10
30.75002715402843
 20
89.80322397935068
 30
0.0
 40
0.75
100
AcDbArc
 50
0.0
 51
90.0
  0
SPLINE
  5
96
330
1F
100
AcDbEntity
  8
Default
100
AcDbSpline
210
0.0
220
0.0
230
1.0
 70
    24
 71
     2
 72
     6
 73
     3
 74
     0
 42
0.0000000001
 43
0.0000000001
 40
70.50005430809216
 40
70.50005430809216
 40
70.50005430809216
 40
132.0001086161504
 40
132.0001086161504
 40
132.0001086161504
 10
30.75002715402843
 20
90.55322397935068
 30
0.0
 10
-0.0000000000006821
 20
90.55322397935068
 30
0.0
 10
-30.75002715402979
 20
90.55322397935068
 30
0.0
  0
ARC
  5
97
330
1F
100
AcDbEntity
  8
Default
100
AcDbCircle
 10
-30.75002715402979
 20
89.80322397935068
 30
0.0
 40
0.75
100
AcDbArc
 50
90.0
 51
180.0
  0
SPLINE
  5
98
330
1F
100
AcDbEntity
  8
Default
100
AcDbSpline
210
0.0
220
0.0
230
1.0
 70
    24
 71
     2
 72
     6
 73
     3
 74
     0
 42
0.0000000001
 43
0.0000000001
 40
133.5001086161504
 40
133.5001086161504
 40
133.5001086161504
 40
138.7501086161843
 40
138.7501086161843
 40
138.7501086161843
 10
-31.50002715402979
 20
89.80322397935068
 30
0.0
 10
-31.50002715402979
 20
87.17822397933371
 30
0.0
 10
-31.50002715402979
 20
84.55322397931674
 30
0.0
  0
ARC
  5
99
330
1F
100
AcDbEntity
  8
Default
100
AcDbCircle
 10
-30.74610136452156
 20
92.15909437381266
 30
0.0
 40
0.75
100
AcDbArc
 50
180.0
 51
270.0
  0
SPLINE
  5
9A
330
1F
100
AcDbEntity
  8
Default
100
AcDbSpline
210
0.0
220
0.0
230
1.0
 70
    24
 71
     2
 72
     6
 73
     3
 74
     0
 42
0.0000000001
 43
0.0000000001
 40
0.7500000000000007
 40
0.7500000000000007
 40
0.7500000000000007
 40
62.24218001621346
 40
62.24218001621346
 40
62.24218001621346
 10
-30.74610136452156
 20
91.40909437381266
 30
0.0
 10
-0.000011356414916
 20
91.40909437381266
 30
0.0
 10
30.74607865169173
 20
91.40909437381266
 30
0.0
  0
ARC
  5
9B
330
1F
100
AcDbEntity
  8
Default
100
AcDbCircle
 10
30.74607865169173
 20
92.15909437381266
 30
0.0
 40
0.75
100
AcDbArc
 50
270.0
 51
0.0
  0
SPLINE
  5
9C
330
1F
100
AcDbEntity
  8
Default
100
AcDbSpline
210
0.0
220
0.0
230
1.0
 70
    24
 71
     2
 72
     6
 73
     3
 74
     0
 42
0.0000000001
 43
0.0000000001
 40
63.74218001621347
 40
63.74218001621347
 40
63.74218001621347
 40
65.49218001621347
 40
65.49218001621347
 40
65.49218001621347
 10
31.49607865169173
 20
92.15909437381266
 30
0.0
 10
31.49607865169173
 20
93.03409437381266
 30
0.0
 10
31.49607865169173
 20
93.90909437381266
 30
0.0
  0
ARC
  5
9D
330
1F
100
AcDbEntity
  8
Default
100
AcDbCircle
 10
30.74607865169173
 20
93.90909437381266
 30
0.0
 40
0.75
100
AcDbArc
 50
0.0
 51
90.0
  0
SPLINE
  5
9E
330
1F
100
AcDbEntity
  8
Default
100
AcDbSpline
210
0.0
220
0.0
230
1.0
 70
    24
 71
     2
 72
     6
 73
     3
 74
     0
 42
0.0000000001
 43
0.0000000001
 40
66.99218001621347
 40
66.99218001621347
 40
66.99218001621347
 40
128.4843600324269
 40
128.4843600324269
 40
128.4843600324269
 10
30.74607865169173
 20
94.65909437381266
 30
0.0
 10
-0.000011356414916
 20
94.65909437381266
 30
0.0
 10
-30.74610136452156
 20
94.65909437381266
 30
0.0
  0
ARC
  5
9F
330
1F
100
AcDbEntity
  8
Default
100
AcDbCircle
 10
-30.74610136452156
 20
93.90909437381266
 30
0.0
 40
0.75
100
AcDbArc
 50
90.0
 51
180.0
  0
SPLINE
  5
A0
330
1F
100
AcDbEntity
  8
Default
100
AcDbSpline
210
0.0
220
0.0
230
1.0
 70
    24
 71
     2
 72
     6
 73
     3
 74
     0
 42
0.0000000001
 43
0.0000000001
 40
129.9843600324269
 40
129.9843600324269
 40
129.9843600324269
 40
131.7343600324269
 40
131.7343600324269
 40
131.7343600324269
 10
-31.49610136452156
 20
93.90909437381266
 30
0.0
 10
-31.49610136452156
 20
93.03409437381266
 30
0.0
 10
-31.49610136452156
 20
92.15909437381266
 30
0.0
  0
SPLINE
  5
A1
330
1F
100
AcDbEntity
  8
Default
100
AcDbSpline
210
0.0
220
0.0
230
1.0
 70
    24
 71
     2
 72
     6
 73
     3
 74
     0
 42
0.0000000001
 43
0.0000000001
 40
0.0
 40
0.0
 40
0.0
 40
0.8558703944789209
 40
0.8558703944789209
 40
0.8558703944789209
 10
22.44095623738167
 20
90.55322397933374
 30
0.0
 10
22.44095623738167
 20
90.9811591765732
 30
0.0
 10
22.44095623738167
 20
91.40909437381266
 30
0.0
  0
SPLINE
  5
A2
330
1F
100
AcDbEntity
  8
Default
100
AcDbSpline
210
0.0
220
0.0
230
1.0
 70
    24
 71
     2
 72
     6
 73
     3
 74
     0
 42
0.0000000001
 43
0.0000000001
 40
0.0
 40
0.0
 40
0.0
 40
2.362204724409448
 40
2.362204724409448
 40
2.362204724409448
 10
49.10530361602059
 20
22.44096527529389
 30
0.0
 10
49.10530361602059
 20
23.62206763749863
 30
0.0
 10
49.10530361602059
 20
24.80316999970337
 30
0.0
  0
POLYLINE
  5
A3
330
1F
100
AcDbEntity
  8
Default
100
AcDb2dPolyline
 66
     1
 10
0.0
 20
0.0
 30
0.0
  0
VERTEX
  5
A4
330
A3
100
AcDbEntity
  8
Default
100
AcDbVertex
100
AcDb2dVertex
 10
49.10530361602059
 20
22.44096527529389
 30
0.0
  0
VERTEX
  5
A5
330
A3
100
AcDbEntity
  8
Default
100
AcDbVertex
100
AcDb2dVertex
 10
47.13679967901271
 20
22.44096527529389
 30
0.0
  0
SEQEND
  5
A6
330
A3
100
AcDbEntity
  8
Default
  0
SPLINE
  5
A7
330
1F
100
AcDbEntity
  8
Default
100
AcDbSpline
210
0.0
220
0.0
230
1.0
 70
    24
 71
     2
 72
     6
 73
     3
 74
     0
 42
0.0000000001
 43
0.0000000001
 40
0.0
 40
0.0
 40
0.0
 40
0.8558703944789241
 40
0.8558703944789241
 40
0.8558703944789241
 10
-21.65353195128273
 20
90.55322397933374
 30
0.0
 10
-21.65353195128273
 20
90.9811591765732
 30
0.0
 10
-21.65353195128273
 20
91.40909437381266
 30
0.0
  0
SPLINE
  5
A8
330
1F
100
AcDbEntity
  8
Default
100
AcDbSpline
210
0.0
220
0.0
230
1.0
 70
    24
 71
     2
 72
     6
 73
     3
 74
     0
 42
0.0000000001
 43
0.0000000001
 40
0.0
 40
0.0
 40
0.0
 40
0.8558703944789209
 40
0.8558703944789209
 40
0.8558703944789209
 10
-22.4409335260857
 20
90.55322397933374
 30
0.0
 10
-22.4409335260857
 20
90.9811591765732
 30
0.0
 10
-22.4409335260857
 20
91.40909437381266
 30
0.0
  0
SPLINE
  5
A9
330
1F
100
AcDbEntity
  8
Default
100
AcDbSpline
210
0.0
220
0.0
230
1.0
 70
    24
 71
     2
 72
     6
 73
     3
 74
     0
 42
0.0000000001
 43
0.0000000001
 40
0.0
 40
0.0
 40
0.0
 40
1.00005370652903
 40
1.00005370652903
 40
1.00005370652903
 10
22.44095623738167
 20
82.80317027280473
 30
0.0
 10
22.44095623738167
 20
83.30319712606924
 30
0.0
 10
22.44095623738167
 20
83.80322397933374
 30
0.0
  0
SPLINE
  5
AA
330
1F
100
AcDbEntity
  8
Default
100
AcDbSpline
210
0.0
220
0.0
230
1.0
 70
    24
 71
     2
 72
     6
 73
     3
 74
     0
 42
0.0000000001
 43
0.0000000001
 40
0.0
 40
0.0
 40
0.0
 40
1.00005370652903
 40
1.00005370652903
 40
1.00005370652903
 10
-22.44093352608525
 20
82.80317027280473
 30
0.0
 10
-22.44093352608525
 20
83.30319712606924
 30
0.0
 10
-22.44093352608525
 20
83.80322397933374
 30
0.0
  0
SPLINE
  5
AB
330
1F
100
AcDbEntity
  8
Default
100
AcDbSpline
210
0.0
220
0.0
230
1.0
 70
    24
 71
     2
 72
     6
 73
     3
 74
     0
 42
0.0000000001
 43
0.0000000001
 40
0.0
 40
0.0
 40
0.0
 40
1.00005370652903
 40
1.00005370652903
 40
1.00005370652903
 10
-21.65353195128273
 20
82.80317027280473
 30
0.0
 10
-21.65353195128273
 20
83.30319712606924
 30
0.0
 10
-21.65353195128273
 20
83.80322397933374
 30
0.0
  0
POLYLINE
  5
AC
330
1F
100
AcDbEntity
  8
Default
100
AcDb2dPolyline
 66
     1
 10
0.0
 20
0.0
 30
0.0
  0
VERTEX
  5
AD
330
AC
100
AcDbEntity
  8
Default
100
AcDbVertex
100
AcDb2dVertex
 10
49.02313347723521
 20
13.38585038074617
 30
0.0
  0
VERTEX
  5
AE
330
AC
100
AcDbEntity
  8
Default
100
AcDbVertex
100
AcDb2dVertex
 10
47.13679967901271
 20
13.38585359643465
 30
0.0
  0
SEQEND
  5
AF
330
AC
100
AcDbEntity
  8
Default
  0
ENDSEC
  0
SECTION
  2
OBJECTS
  0
DICTIONARY
  5
C
330
0
100
AcDbDictionary
281
     1
  3
ACAD_GROUP
350
D
  3
ACAD_LAYOUT
350
1A
  3
ACAD_MLEADERSTYLE
350
B1
  3
ACAD_MLINESTYLE
350
17
  3
ACAD_PLOTSETTINGS
350
19
  3
ACAD_PLOTSTYLENAME
350
E
  3
ACAD_TABLESTYLE
350
B0
  3
ACAD_VISUALSTYLE
350
2A
  0
DICTIONARY
  5
D
102
{ACAD_REACTORS
330
C
102
}
330
C
100
AcDbDictionary
281
     1
  0
DICTIONARY
  5
1A
102
{ACAD_REACTORS
330
C
102
}
330
C
100
AcDbDictionary
281
     1
  3
Layout1
350
1E
  3
Layout2
350
26
  3
Model
350
22
  0
DICTIONARY
  5
B1
102
{ACAD_REACTORS
330
C
102
}
330
C
100
AcDbDictionary
281
     1
  0
DICTIONARY
  5
17
102
{ACAD_REACTORS
330
C
102
}
330
C
100
AcDbDictionary
281
     1
  3
Standard
350
18
  0
DICTIONARY
  5
19
102
{ACAD_REACTORS
330
C
102
}
330
C
100
AcDbDictionary
281
     1
  0
ACDBDICTIONARYWDFLT
  5
E
102
{ACAD_REACTORS
330
C
102
}
330
C
100
AcDbDictionary
281
     1
  3
Normal
350
F
100
AcDbDictionaryWithDefault
340
F
  0
DICTIONARY
  5
B0
102
{ACAD_REACTORS
330
C
102
}
330
C
100
AcDbDictionary
281
     1
  0
DICTIONARY
  5
2A
102
{ACAD_REACTORS
330
C
102
}
330
C
100
AcDbDictionary
281
     1
  3
2dWireframe
350
2F
  3
3D Hidden
350
31
  3
3dWireframe
350
30
  3
Basic
350
32
  3
Brighten
350
36
  3
ColorChange
350
3A
  3
Conceptual
350
34
  3
Dim
350
35
  3
Facepattern
350
39
  3
Flat
350
2B
  3
FlatWithEdges
350
2C
  3
Gouraud
350
2D
  3
GouraudWithEdges
350
2E
  3
Linepattern
350
38
  3
Realistic
350
33
  3
Thicken
350
37
  0
LAYOUT
  5
1E
102
{ACAD_REACTORS
330
1A
102
}
330
1A
100
AcDbPlotSettings
  1

  2
none_device
  4

  6

 40
0.0
 41
0.0
 42
0.0
 43
0.0
 44
0.0
 45
0.0
 46
0.0
 47
0.0
 48
0.0
 49
0.0
140
0.0
141
0.0
142
1.0
143
1.0
 70
   688
 72
     0
 73
     0
 74
     5
  7

 75
    16
 76
     0
 77
     2
 78
   300
147
1.0
148
0.0
149
0.0
100
AcDbLayout
  1
Layout1
 70
     1
 71
     1
 10
0.0
 20
0.0
 11
12.0
 21
9.0
 12
0.0
 22
0.0
 32
0.0
 14
1.000000000000000E+20
 24
1.000000000000000E+20
 34
1.000000000000000E+20
 15
-1.000000000000000E+20
 25
-1.000000000000000E+20
 35
-1.000000000000000E+20
146
0.0
 13
0.0
 23
0.0
 33
0.0
 16
1.0
 26
0.0
 36
0.0
 17
0.0
 27
1.0
 37
0.0
 76
     0
330
1B
  0
LAYOUT
  5
26
102
{ACAD_REACTORS
330
1A
102
}
330
1A
100
AcDbPlotSettings
  1

  2
none_device
  4

  6

 40
0.0
 41
0.0
 42
0.0
 43
0.0
 44
0.0
 45
0.0
 46
0.0
 47
0.0
 48
0.0
 49
0.0
140
0.0
141
0.0
142
1.0
143
1.0
 70
   688
 72
     0
 73
     0
 74
     5
  7

 75
    16
 76
     0
 77
     2
 78
   300
147
1.0
148
0.0
149
0.0
100
AcDbLayout
  1
Layout2
 70
     1
 71
     2
 10
0.0
 20
0.0
 11
0.0
 21
0.0
 12
0.0
 22
0.0
 32
0.0
 14
0.0
 24
0.0
 34
0.0
 15
0.0
 25
0.0
 35
0.0
146
0.0
 13
0.0
 23
0.0
 33
0.0
 16
1.0
 26
0.0
 36
0.0
 17
0.0
 27
1.0
 37
0.0
 76
     0
330
23
  0
LAYOUT
  5
22
102
{ACAD_REACTORS
330
1A
102
}
330
1A
100
AcDbPlotSettings
  1

  2
none_device
  4

  6

 40
0.0
 41
0.0
 42
0.0
 43
0.0
 44
0.0
 45
0.0
 46
0.0
 47
0.0
 48
0.0
 49
0.0
140
0.0
141
0.0
142
1.0
143
1.0
 70
  1712
 72
     0
 73
     0
 74
     0
  7

 75
     0
 76
     0
 77
     2
 78
   300
147
1.0
148
0.0
149
0.0
100
AcDbLayout
  1
Model
 70
     1
 71
     0
 10
0.0
 20
0.0
 11
12.0
 21
9.0
 12
0.0
 22
0.0
 32
0.0
 14
-31.50002715402979
 24
-0.000008993385773
 34
0.0
 15
77.35200305346552
 25
94.65909437381266
 35
0.0
146
0.0
 13
0.0
 23
0.0
 33
0.0
 16
1.0
 26
0.0
 36
0.0
 17
0.0
 27
1.0
 37
0.0
 76
     0
330
1F
331
29
  0
MLINESTYLE
  5
18
102
{ACAD_REACTORS
330
17
102
}
330
17
100
AcDbMlineStyle
  2
Standard
 70
     0
  3

 62
   256
 51
90.0
 52
90.0
 71
     2
 49
0.5
 62
   256
  6
BYLAYER
 49
-0.5
 62
   256
  6
BYLAYER
  0
ACDBPLACEHOLDER
  5
F
102
{ACAD_REACTORS
330
E
102
}
330
E
  0
VISUALSTYLE
  5
2F
102
{ACAD_REACTORS
330
2A
102
}
330
2A
100
AcDbVisualStyle
  2
2dWireframe
 70
     4
 71
     0
 72
     2
 73
     0
 90
        0
 40
-0.6
 41
-30.0
 62
     5
 63
     7
421
 16777215
 74
     1
 91
        4
 64
     7
 65
   257
 75
     1
175
     1
 42
1.0
 92
        0
 66
   257
 43
1.0
 76
     1
 77
     6
 78
     2
 67
     7
 79
     5
170
     0
171
     0
290
     0
174
     0
 93
        1
 44
0.0
173
     0
291
     0
 45
0.0
1001
ACAD
1000
AcDbSavedByObjectVersion
1070
     0
  0
VISUALSTYLE
  5
31
102
{ACAD_REACTORS
330
2A
102
}
330
2A
100
AcDbVisualStyle
  2
3D Hidden
 70
     6
 71
     1
 72
     2
 73
     2
 90
        0
 40
-0.6
 41
-30.0
 62
     5
 63
     7
421
 16777215
 74
     2
 91
        2
 64
     7
 65
   257
 75
     2
175
     1
 42
40.0
 92
        0
 66
   257
 43
1.0
 76
     1
 77
     6
 78
     2
 67
     7
 79
     3
170
     0
171
     0
290
     0
174
     0
 93
        1
 44
0.0
173
     0
291
     0
 45
0.0
1001
ACAD
1000
AcDbSavedByObjectVersion
1070
     0
  0
VISUALSTYLE
  5
30
102
{ACAD_REACTORS
330
2A
102
}
330
2A
100
AcDbVisualStyle
  2
3dWireframe
 70
     5
 71
     0
 72
     2
 73
     0
 90
        0
 40
-0.6
 41
-30.0
 62
     5
 63
     7
421
 16777215
 74
     1
 91
        4
 64
     7
 65
   257
 75
     1
175
     1
 42
1.0
 92
        0
 66
   257
 43
1.0
 76
     1
 77
     6
 78
     2
 67
     7
 79
     5
170
     0
171
     0
290
     0
174
     0
 93
        1
 44
0.0
173
     0
291
     0
 45
0.0
1001
ACAD
1000
AcDbSavedByObjectVersion
1070
     0
  0
VISUALSTYLE
  5
32
102
{ACAD_REACTORS
330
2A
102
}
330
2A
100
AcDbVisualStyle
  2
Basic
 70
     7
 71
     1
 72
     0
 73
     1
 90
        0
 40
-0.6
 41
-30.0
 62
     5
 63
     7
421
 16777215
 74
     0
 91
        4
 64
     7
 65
   257
 75
     1
175
     1
 42
1.0
 92
        8
 66
     7
 43
1.0
 76
     1
 77
     6
 78
     2
 67
     7
 79
     5
170
     0
171
     0
290
     0
174
     0
 93
        1
 44
0.0
173
     0
291
     1
 45
0.0
1001
ACAD
1000
AcDbSavedByObjectVersion
1070
     0
  0
VISUALSTYLE
  5
36
102
{ACAD_REACTORS
330
2A
102
}
330
2A
100
AcDbVisualStyle
  2
Brighten
 70
    12
 71
     2
 72
     2
 73
     0
 90
        0
 40
-0.6
 41
-30.0
 62
     5
 63
     7
421
 16777215
 74
     1
 91
        4
 64
     7
 65
   257
 75
     1
175
     1
 42
1.0
 92
        8
 66
     7
 43
1.0
 76
     1
 77
     6
 78
     2
 67
     7
 79
     5
170
     0
171
     0
290
     0
174
     0
 93
        1
 44
50.0
173
     0
291
     1
 45
0.0
1001
ACAD
1000
AcDbSavedByObjectVersion
1070
     0
  0
VISUALSTYLE
  5
3A
102
{ACAD_REACTORS
330
2A
102
}
330
2A
100
AcDbVisualStyle
  2
ColorChange
 70
    16
 71
     2
 72
     2
 73
     3
 90
        0
 40
-0.6
 41
-30.0
 62
     5
 63
     8
421
  8421504
 74
     1
 91
        4
 64
     7
 65
   257
 75
     1
175
     1
 42
1.0
 92
        8
 66
     8
424
  8421504
 43
1.0
 76
     1
 77
     6
 78
     2
 67
     7
 79
     5
170
     0
171
     0
290
     0
174
     0
 93
        1
 44
0.0
173
     0
291
     1
 45
0.0
1001
ACAD
1000
AcDbSavedByObjectVersion
1070
     0
  0
VISUALSTYLE
  5
34
102
{ACAD_REACTORS
330
2A
102
}
330
2A
100
AcDbVisualStyle
  2
Conceptual
 70
     9
 71
     3
 72
     2
 73
     0
 90
        0
 40
-0.6
 41
-30.0
 62
     5
 63
     7
421
 16777215
 74
     2
 91
        2
 64
     7
 65
   257
 75
     1
175
     1
 42
40.0
 92
        8
 66
     7
 43
1.0
 76
     1
 77
     6
 78
     2
 67
     7
 79
     3
170
     0
171
     0
290
     0
174
     0
 93
        1
 44
0.0
173
     0
291
     0
 45
0.0
1001
ACAD
1000
AcDbSavedByObjectVersion
1070
     0
  0
VISUALSTYLE
  5
35
102
{ACAD_REACTORS
330
2A
102
}
330
2A
100
AcDbVisualStyle
  2
Dim
 70
    11
 71
     2
 72
     2
 73
     0
 90
        0
 40
-0.6
 41
-30.0
 62
     5
 63
     7
421
 16777215
 74
     1
 91
        4
 64
     7
 65
   257
 75
     1
175
     1
 42
1.0
 92
        8
 66
     7
 43
1.0
 76
     1
 77
     6
 78
     2
 67
     7
 79
     5
170
     0
171
     0
290
     0
174
     0
 93
        1
 44
-50.0
173
     0
291
     1
 45
0.0
1001
ACAD
1000
AcDbSavedByObjectVersion
1070
     0
  0
VISUALSTYLE
  5
39
102
{ACAD_REACTORS
330
2A
102
}
330
2A
100
AcDbVisualStyle
  2
Facepattern
 70
    15
 71
     2
 72
     2
 73
     0
 90
        0
 40
-0.6
 41
-30.0
 62
     5
 63
     7
421
 16777215
 74
     1
 91
        4
 64
     7
 65
   257
 75
     1
175
     1
 42
1.0
 92
        8
 66
     7
 43
1.0
 76
     1
 77
     6
 78
     2
 67
     7
 79
     5
170
     0
171
     0
290
     0
174
     0
 93
        1
 44
0.0
173
     0
291
     1
 45
0.0
1001
ACAD
1000
AcDbSavedByObjectVersion
1070
     0
  0
VISUALSTYLE
  5
2B
102
{ACAD_REACTORS
330
2A
102
}
330
2A
100
AcDbVisualStyle
  2
Flat
 70
     0
 71
     2
 72
     1
 73
     1
 90
        2
 40
-0.6
 41
30.0
 62
     5
 63
     7
421
 16777215
 74
     0
 91
        4
 64
     7
 65
   257
 75
     1
175
     1
 42
1.0
 92
        8
 66
     7
 43
1.0
 76
     1
 77
     6
 78
     2
 67
     7
 79
     5
170
     0
171
     0
290
     0
174
     0
 93
       13
 44
0.0
173
     0
291
     1
 45
0.0
1001
ACAD
1000
AcDbSavedByObjectVersion
1070
     0
  0
VISUALSTYLE
  5
2C
102
{ACAD_REACTORS
330
2A
102
}
330
2A
100
AcDbVisualStyle
  2
FlatWithEdges
 70
     1
 71
     2
 72
     1
 73
     1
 90
        2
 40
-0.6
 41
30.0
 62
     5
 63
     7
421
 16777215
 74
     1
 91
        4
 64
     7
 65
   257
 75
     1
175
     1
 42
1.0
 92
        0
 66
   257
 43
1.0
 76
     1
 77
     6
 78
     2
 67
     7
 79
     5
170
     0
171
     0
290
     0
174
     0
 93
       13
 44
0.0
173
     0
291
     1
 45
0.0
1001
ACAD
1000
AcDbSavedByObjectVersion
1070
     0
  0
VISUALSTYLE
  5
2D
102
{ACAD_REACTORS
330
2A
102
}
330
2A
100
AcDbVisualStyle
  2
Gouraud
 70
     2
 71
     2
 72
     2
 73
     1
 90
        2
 40
-0.6
 41
30.0
 62
     5
 63
     7
421
 16777215
 74
     0
 91
        4
 64
     7
 65
   257
 75
     1
175
     1
 42
1.0
 92
        0
 66
     7
 43
1.0
 76
     1
 77
     6
 78
     2
 67
     7
 79
     5
170
     0
171
     0
290
     0
174
     0
 93
       13
 44
0.0
173
     0
291
     1
 45
0.0
1001
ACAD
1000
AcDbSavedByObjectVersion
1070
     0
  0
VISUALSTYLE
  5
2E
102
{ACAD_REACTORS
330
2A
102
}
330
2A
100
AcDbVisualStyle
  2
GouraudWithEdges
 70
     3
 71
     2
 72
     2
 73
     1
 90
        2
 40
-0.6
 41
30.0
 62
     5
 63
     7
421
 16777215
 74
     1
 91
        4
 64
     7
 65
   257
 75
     1
175
     1
 42
1.0
 92
        0
 66
   257
 43
1.0
 76
     1
 77
     6
 78
     2
 67
     7
 79
     5
170
     0
171
     0
290
     0
174
     0
 93
       13
 44
0.0
173
     0
291
     1
 45
0.0
1001
ACAD
1000
AcDbSavedByObjectVersion
1070
     0
  0
VISUALSTYLE
  5
38
102
{ACAD_REACTORS
330
2A
102
}
330
2A
100
AcDbVisualStyle
  2
Linepattern
 70
    14
 71
     2
 72
     2
 73
     0
 90
        0
 40
-0.6
 41
-30.0
 62
     5
 63
     7
421
 16777215
 74
     1
 91
        4
 64
     7
 65
   257
 75
     7
175
     7
 42
1.0
 92
        8
 66
     7
 43
1.0
 76
     1
 77
     6
 78
     2
 67
     7
 79
     5
170
     0
171
     0
290
     0
174
     0
 93
        1
 44
0.0
173
     0
291
     1
 45
0.0
1001
ACAD
1000
AcDbSavedByObjectVersion
1070
     0
  0
VISUALSTYLE
  5
33
102
{ACAD_REACTORS
330
2A
102
}
330
2A
100
AcDbVisualStyle
  2
Realistic
 70
     8
 71
     2
 72
     2
 73
     0
 90
        0
 40
-0.6
 41
-30.0
 62
     5
 63
     7
421
 16777215
 74
     1
 91
        0
 64
     7
 65
   257
 75
     1
175
     1
 42
1.0
 92
        8
 66
     8
424
  7895160
 43
1.0
 76
     1
 77
     6
 78
     2
 67
     7
 79
     5
170
     0
171
     0
290
     0
174
     0
 93
       13
 44
0.0
173
     0
291
     0
 45
0.0
1001
ACAD
1000
AcDbSavedByObjectVersion
1070
     0
  0
VISUALSTYLE
  5
37
102
{ACAD_REACTORS
330
2A
102
}
330
2A
100
AcDbVisualStyle
  2
Thicken
 70
    13
 71
     2
 72
     2
 73
     0
 90
        0
 40
-0.6
 41
-30.0
 62
     5
 63
     7
421
 16777215
 74
     1
 91
        4
 64
     7
 65
   257
 75
     1
175
     1
 42
1.0
 92
       12
 66
     7
 43
1.0
 76
     1
 77
     6
 78
     2
 67
     7
 79
     5
170
     0
171
     0
290
     0
174
     0
 93
        1
 44
0.0
173
     0
291
     1
 45
0.0
1001
ACAD
1000
AcDbSavedByObjectVersion
1070
     0
  0
ENDSEC
  0
EOF
