  0
SECTION
  2
HEADER
  9
$ACADVER
  1
AC1018
  9
$ACADMAINTVER
 70
     0
  9
$DWGCODEPAGE
  3
ANSI_1252
  9
$INSBASE
 10
0.0
 20
0.0
 30
0.0
  9
$EXTMIN
 10
-44.87112836359418
 20
-0.0000526687905271
 30
0.0
  9
$EXTMAX
 10
86.1289698803229
 20
72.88583370898762
 30
0.0
  9
$LIMMIN
 10
0.0
 20
0.0
  9
$LIMMAX
 10
12.0
 20
9.0
  9
$ORTHOMODE
 70
     0
  9
$REGENMODE
 70
     1
  9
$FILLMODE
 70
     1
  9
$QTEXTMODE
 70
     0
  9
$MIRRTEXT
 70
     1
  9
$LTSCALE
 40
0.0393700787401575
  9
$ATTMODE
 70
     1
  9
$TEXTSIZE
 40
0.2
  9
$TRACEWID
 40
0.05
  9
$TEXTSTYLE
  7
Standard
  9
$CLAYER
  8
Default
  9
$CELTYPE
  6
ByLayer
  9
$CECOLOR
 62
   256
  9
$CELTSCALE
 40
1.0
  9
$DISPSILH
 70
     0
  9
$DIMSCALE
 40
1.0
  9
$DIMASZ
 40
0.18
  9
$DIMEXO
 40
0.0625
  9
$DIMDLI
 40
0.38
  9
$DIMRND
 40
0.0
  9
$DIMDLE
 40
0.0
  9
$DIMEXE
 40
0.18
  9
$DIMTP
 40
0.0
  9
$DIMTM
 40
0.0
  9
$DIMTXT
 40
0.18
  9
$DIMCEN
 40
0.09
  9
$DIMTSZ
 40
0.0
  9
$DIMTOL
 70
     0
  9
$DIMLIM
 70
     0
  9
$DIMTIH
 70
     1
  9
$DIMTOH
 70
     1
  9
$DIMSE1
 70
     0
  9
$DIMSE2
 70
     0
  9
$DIMTAD
 70
     0
  9
$DIMZIN
 70
     0
  9
$DIMBLK
  1

  9
$DIMASO
 70
     1
  9
$DIMSHO
 70
     1
  9
$DIMPOST
  1

  9
$DIMAPOST
  1

  9
$DIMALT
 70
     0
  9
$DIMALTD
 70
     2
  9
$DIMALTF
 40
25.4
  9
$DIMLFAC
 40
1.0
  9
$DIMTOFL
 70
     0
  9
$DIMTVP
 40
0.0
  9
$DIMTIX
 70
     0
  9
$DIMSOXD
 70
     0
  9
$DIMSAH
 70
     0
  9
$DIMBLK1
  1

  9
$DIMBLK2
  1

  9
$DIMSTYLE
  2
Standard
  9
$DIMCLRD
 70
     0
  9
$DIMCLRE
 70
     0
  9
$DIMCLRT
 70
     0
  9
$DIMTFAC
 40
1.0
  9
$DIMGAP
 40
0.09
  9
$DIMJUST
 70
     0
  9
$DIMSD1
 70
     0
  9
$DIMSD2
 70
     0
  9
$DIMTOLJ
 70
     1
  9
$DIMTZIN
 70
     0
  9
$DIMALTZ
 70
     0
  9
$DIMALTTZ
 70
     0
  9
$DIMUPT
 70
     0
  9
$DIMDEC
 70
     4
  9
$DIMTDEC
 70
     4
  9
$DIMALTU
 70
     2
  9
$DIMALTTD
 70
     2
  9
$DIMTXSTY
  7
Standard
  9
$DIMAUNIT
 70
     0
  9
$DIMADEC
 70
     0
  9
$DIMALTRND
 40
0.0
  9
$DIMAZIN
 70
     0
  9
$DIMDSEP
 70
    46
  9
$DIMATFIT
 70
     3
  9
$DIMFRAC
 70
     0
  9
$DIMLDRBLK
  1

  9
$DIMLUNIT
 70
     2
  9
$DIMLWD
 70
    -2
  9
$DIMLWE
 70
    -2
  9
$DIMTMOVE
 70
     2
  9
$LUNITS
 70
     2
  9
$LUPREC
 70
     3
  9
$SKETCHINC
 40
0.1
  9
$FILLETRAD
 40
0.5
  9
$AUNITS
 70
     0
  9
$AUPREC
 70
     0
  9
$MENU
  1
.
  9
$ELEVATION
 40
0.0
  9
$PELEVATION
 40
0.0
  9
$THICKNESS
 40
0.0
  9
$LIMCHECK
 70
     0
  9
$CHAMFERA
 40
0.5
  9
$CHAMFERB
 40
0.5
  9
$CHAMFERC
 40
1.0
  9
$CHAMFERD
 40
0.0
  9
$SKPOLY
 70
     0
  9
$TDCREATE
 40
2457322.400055139
  9
$TDUCREATE
 40
2457322.566721805
  9
$TDUPDATE
 40
2457322.400055151
  9
$TDUUPDATE
 40
2457322.566721817
  9
$TDINDWG
 40
0.0000000116
  9
$TDUSRTIMER
 40
0.0000000116
  9
$USRTIMER
 70
     1
  9
$ANGBASE
 50
0.0
  9
$ANGDIR
 70
     0
  9
$PDMODE
 70
     0
  9
$PDSIZE
 40
0.0
  9
$PLINEWID
 40
0.0
  9
$SPLFRAME
 70
     0
  9
$SPLINETYPE
 70
     6
  9
$SPLINESEGS
 70
     8
  9
$HANDSEED
  5
84
  9
$SURFTAB1
 70
     6
  9
$SURFTAB2
 70
     6
  9
$SURFTYPE
 70
     6
  9
$SURFU
 70
     6
  9
$SURFV
 70
     6
  9
$UCSBASE
  2

  9
$UCSNAME
  2

  9
$UCSORG
 10
0.0
 20
0.0
 30
0.0
  9
$UCSXDIR
 10
1.0
 20
0.0
 30
0.0
  9
$UCSYDIR
 10
0.0
 20
1.0
 30
0.0
  9
$UCSORTHOREF
  2

  9
$UCSORTHOVIEW
 70
     0
  9
$UCSORGTOP
 10
0.0
 20
0.0
 30
0.0
  9
$UCSORGBOTTOM
 10
0.0
 20
0.0
 30
0.0
  9
$UCSORGLEFT
 10
0.0
 20
0.0
 30
0.0
  9
$UCSORGRIGHT
 10
0.0
 20
0.0
 30
0.0
  9
$UCSORGFRONT
 10
0.0
 20
0.0
 30
0.0
  9
$UCSORGBACK
 10
0.0
 20
0.0
 30
0.0
  9
$PUCSBASE
  2

  9
$PUCSNAME
  2

  9
$PUCSORG
 10
0.0
 20
0.0
 30
0.0
  9
$PUCSXDIR
 10
1.0
 20
0.0
 30
0.0
  9
$PUCSYDIR
 10
0.0
 20
1.0
 30
0.0
  9
$PUCSORTHOREF
  2

  9
$PUCSORTHOVIEW
 70
     0
  9
$PUCSORGTOP
 10
0.0
 20
0.0
 30
0.0
  9
$PUCSORGBOTTOM
 10
0.0
 20
0.0
 30
0.0
  9
$PUCSORGLEFT
 10
0.0
 20
0.0
 30
0.0
  9
$PUCSORGRIGHT
 10
0.0
 20
0.0
 30
0.0
  9
$PUCSORGFRONT
 10
0.0
 20
0.0
 30
0.0
  9
$PUCSORGBACK
 10
0.0
 20
0.0
 30
0.0
  9
$USERI1
 70
     0
  9
$USERI2
 70
     0
  9
$USERI3
 70
     0
  9
$USERI4
 70
     0
  9
$USERI5
 70
     0
  9
$USERR1
 40
0.0
  9
$USERR2
 40
0.0
  9
$USERR3
 40
0.0
  9
$USERR4
 40
0.0
  9
$USERR5
 40
0.0
  9
$WORLDVIEW
 70
     1
  9
$SHADEDGE
 70
     3
  9
$SHADEDIF
 70
    70
  9
$TILEMODE
 70
     1
  9
$MAXACTVP
 70
    64
  9
$PINSBASE
 10
0.0
 20
0.0
 30
0.0
  9
$PLIMCHECK
 70
     0
  9
$PEXTMIN
 10
1.000000000000000E+20
 20
1.000000000000000E+20
 30
1.000000000000000E+20
  9
$PEXTMAX
 10
-1.000000000000000E+20
 20
-1.000000000000000E+20
 30
-1.000000000000000E+20
  9
$PLIMMIN
 10
0.0
 20
0.0
  9
$PLIMMAX
 10
12.0
 20
9.0
  9
$UNITMODE
 70
     0
  9
$VISRETAIN
 70
     1
  9
$PLINEGEN
 70
     0
  9
$PSLTSCALE
 70
     1
  9
$TREEDEPTH
 70
  3020
  9
$CMLSTYLE
  2
Standard
  9
$CMLJUST
 70
     0
  9
$CMLSCALE
 40
1.0
  9
$PROXYGRAPHICS
 70
     1
  9
$MEASUREMENT
 70
     0
  9
$CELWEIGHT
370
    -1
  9
$ENDCAPS
280
     0
  9
$JOINSTYLE
280
     0
  9
$LWDISPLAY
290
     0
  9
$INSUNITS
 70
     1
  9
$HYPERLINKBASE
  1

  9
$STYLESHEET
  1

  9
$XEDIT
290
     1
  9
$CEPSNTYPE
380
     0
  9
$PSTYLEMODE
290
     1
  9
$FINGERPRINTGUID
  2
{13798CD8-285D-4882-B1F7-FB63006AA75E}
  9
$VERSIONGUID
  2
{FAEB1C32-E019-11D5-929B-00C0DF256EC4}
  9
$EXTNAMES
290
     1
  9
$PSVPSCALE
 40
0.0
  9
$OLESTARTUP
290
     0
  9
$SORTENTS
280
   127
  9
$INDEXCTL
280
     0
  9
$HIDETEXT
280
     1
  9
$XCLIPFRAME
290
     0
  9
$HALOGAP
280
     0
  9
$OBSCOLOR
 70
   257
  9
$OBSLTYPE
280
     0
  9
$INTERSECTIONDISPLAY
280
     0
  9
$INTERSECTIONCOLOR
 70
   257
  9
$DIMASSOC
280
     2
  9
$PROJECTNAME
  1

  0
ENDSEC
  0
SECTION
  2
CLASSES
  0
CLASS
  1
ACDBDICTIONARYWDFLT
  2
AcDbDictionaryWithDefault
  3
ObjectDBX Classes
 90
        0
 91
        4
280
     0
281
     0
  0
CLASS
  1
VISUALSTYLE
  2
AcDbVisualStyle
  3
ObjectDBX Classes
 90
     4095
 91
        4
280
     0
281
     0
  0
ENDSEC
  0
SECTION
  2
TABLES
  0
TABLE
  2
VPORT
  5
8
330
0
100
AcDbSymbolTable
 70
     1
  0
VPORT
  5
29
330
8
100
AcDbSymbolTableRecord
100
AcDbViewportTableRecord
  2
*Active
 70
     0
 10
0.0
 20
0.0
 11
1.0
 21
1.0
 12
20.62892075836436
 22
36.44289052009854
 13
0.0
 23
0.0
 14
0.5
 24
0.5
 15
0.5
 25
0.5
 16
0.0
 26
0.0
 36
1.0
 17
0.0
 27
0.0
 37
0.0
 40
74.34360410533371
 41
1.797331482873441
 42
50.0
 43
0.0
 44
0.0
 50
0.0
 51
0.0
 71
     0
 72
   100
 73
     1
 74
     3
 75
     0
 76
     0
 77
     0
 78
     0
281
     0
 65
     1
110
0.0
120
0.0
130
0.0
111
1.0
121
0.0
131
0.0
112
0.0
122
1.0
132
0.0
 79
     0
146
0.0
  0
ENDTAB
  0
TABLE
  2
LTYPE
  5
5
330
0
100
AcDbSymbolTable
 70
     1
  0
LTYPE
  5
14
330
5
100
AcDbSymbolTableRecord
100
AcDbLinetypeTableRecord
  2
ByBlock
 70
     0
  3

 72
    65
 73
     0
 40
0.0
  0
LTYPE
  5
15
330
5
100
AcDbSymbolTableRecord
100
AcDbLinetypeTableRecord
  2
ByLayer
 70
     0
  3

 72
    65
 73
     0
 40
0.0
  0
LTYPE
  5
16
330
5
100
AcDbSymbolTableRecord
100
AcDbLinetypeTableRecord
  2
Continuous
 70
     0
  3
Solid line
 72
    65
 73
     0
 40
0.0
  0
ENDTAB
  0
TABLE
  2
LAYER
  5
2
330
0
100
AcDbSymbolTable
 70
     2
  0
LAYER
  5
10
330
2
100
AcDbSymbolTableRecord
100
AcDbLayerTableRecord
  2
0
 70
     0
 62
     7
  6
Continuous
370
    -3
390
F
  0
LAYER
  5
3B
330
2
100
AcDbSymbolTableRecord
100
AcDbLayerTableRecord
  2
Default
 70
     0
 62
     7
  6
Continuous
370
    -3
390
F
  0
ENDTAB
  0
TABLE
  2
STYLE
  5
3
330
0
100
AcDbSymbolTable
 70
     1
  0
STYLE
  5
11
330
3
100
AcDbSymbolTableRecord
100
AcDbTextStyleTableRecord
  2
Standard
 70
     0
 40
0.0
 41
1.0
 50
0.0
 71
     0
 42
0.2
  3
txt
  4

  0
ENDTAB
  0
TABLE
  2
VIEW
  5
6
330
0
100
AcDbSymbolTable
 70
     0
  0
ENDTAB
  0
TABLE
  2
UCS
  5
7
330
0
100
AcDbSymbolTable
 70
     0
  0
ENDTAB
  0
TABLE
  2
APPID
  5
9
330
0
100
AcDbSymbolTable
 70
     1
  0
APPID
  5
12
330
9
100
AcDbSymbolTableRecord
100
AcDbRegAppTableRecord
  2
ACAD
 70
     0
  0
ENDTAB
  0
TABLE
  2
DIMSTYLE
  5
A
330
0
100
AcDbSymbolTable
 70
     1
100
AcDbDimStyleTable
  0
DIMSTYLE
105
27
330
A
100
AcDbSymbolTableRecord
100
AcDbDimStyleTableRecord
  2
Standard
 70
     0
340
11
  0
ENDTAB
  0
TABLE
  2
BLOCK_RECORD
  5
1
330
0
100
AcDbSymbolTable
 70
     1
  0
BLOCK_RECORD
  5
1F
330
1
100
AcDbSymbolTableRecord
100
AcDbBlockTableRecord
  2
*Model_Space
340
22
  0
BLOCK_RECORD
  5
1B
330
1
100
AcDbSymbolTableRecord
100
AcDbBlockTableRecord
  2
*Paper_Space
340
1E
  0
BLOCK_RECORD
  5
23
330
1
100
AcDbSymbolTableRecord
100
AcDbBlockTableRecord
  2
*Paper_Space0
340
26
  0
ENDTAB
  0
ENDSEC
  0
SECTION
  2
BLOCKS
  0
BLOCK
  5
20
330
1F
100
AcDbEntity
  8
0
100
AcDbBlockBegin
  2
*Model_Space
 70
     0
 10
0.0
 20
0.0
 30
0.0
  3
*Model_Space
  1

  0
ENDBLK
  5
21
330
1F
100
AcDbEntity
  8
0
100
AcDbBlockEnd
  0
BLOCK
  5
1C
330
1B
100
AcDbEntity
 67
     1
  8
0
100
AcDbBlockBegin
  2
*Paper_Space
 70
     0
 10
0.0
 20
0.0
 30
0.0
  3
*Paper_Space
  1

  0
ENDBLK
  5
1D
330
1B
100
AcDbEntity
 67
     1
  8
0
100
AcDbBlockEnd
  0
BLOCK
  5
24
330
23
100
AcDbEntity
  8
0
100
AcDbBlockBegin
  2
*Paper_Space0
 70
     0
 10
0.0
 20
0.0
 30
0.0
  3
*Paper_Space0
  1

  0
ENDBLK
  5
25
330
23
100
AcDbEntity
  8
0
100
AcDbBlockEnd
  0
ENDSEC
  0
SECTION
  2
ENTITIES
  0
ARC
  5
3C
330
1F
100
AcDbEntity
  8
Default
100
AcDbCircle
 10
67.87896966484752
 20
14.13583597868514
 30
0.0
 40
0.75
100
AcDbArc
 50
180.0
 51
270.0
  0
SPLINE
  5
3D
330
1F
100
AcDbEntity
  8
Default
100
AcDbSpline
210
0.0
220
0.0
230
1.0
 70
    24
 71
     2
 72
     6
 73
     3
 74
     0
 42
0.0000000001
 43
0.0000000001
 40
0.75
 40
0.75
 40
0.75
 40
18.25000021547537
 40
18.25000021547537
 40
18.25000021547537
 10
67.87896966484752
 20
13.38583597868514
 30
0.0
 10
76.62896977258521
 20
13.38583597868514
 30
0.0
 10
85.3789698803229
 20
13.38583597868514
 30
0.0
  0
ARC
  5
3E
330
1F
100
AcDbEntity
  8
Default
100
AcDbCircle
 10
85.3789698803229
 20
14.13583597868514
 30
0.0
 40
0.75
100
AcDbArc
 50
270.0
 51
0.0
  0
SPLINE
  5
3F
330
1F
100
AcDbEntity
  8
Default
100
AcDbSpline
210
0.0
220
0.0
230
1.0
 70
    24
 71
     2
 72
     6
 73
     3
 74
     0
 42
0.0000000001
 43
0.0000000001
 40
19.75000021547537
 40
19.75000021547537
 40
19.75000021547537
 40
22.75000021547537
 40
22.75000021547537
 40
22.75000021547537
 10
86.1289698803229
 20
14.13583597868514
 30
0.0
 10
86.1289698803229
 20
15.63583597868514
 30
0.0
 10
86.1289698803229
 20
17.13583597868514
 30
0.0
  0
ARC
  5
40
330
1F
100
AcDbEntity
  8
Default
100
AcDbCircle
 10
85.3789698803229
 20
17.13583597868514
 30
0.0
 40
0.75
100
AcDbArc
 50
0.0
 51
90.0
  0
SPLINE
  5
41
330
1F
100
AcDbEntity
  8
Default
100
AcDbSpline
210
0.0
220
0.0
230
1.0
 70
    24
 71
     2
 72
     6
 73
     3
 74
     0
 42
0.0000000001
 43
0.0000000001
 40
24.25000021547537
 40
24.25000021547537
 40
24.25000021547537
 40
41.75000043095073
 40
41.75000043095073
 40
41.75000043095073
 10
85.3789698803229
 20
17.88583597868514
 30
0.0
 10
76.62896977258521
 20
17.88583597868514
 30
0.0
 10
67.87896966484752
 20
17.88583597868514
 30
0.0
  0
ARC
  5
42
330
1F
100
AcDbEntity
  8
Default
100
AcDbCircle
 10
67.87896966484752
 20
17.13583597868514
 30
0.0
 40
0.75
100
AcDbArc
 50
90.0
 51
180.0
  0
SPLINE
  5
43
330
1F
100
AcDbEntity
  8
Default
100
AcDbSpline
210
0.0
220
0.0
230
1.0
 70
    24
 71
     2
 72
     6
 73
     3
 74
     0
 42
0.0000000001
 43
0.0000000001
 40
43.25000043095073
 40
43.25000043095073
 40
43.25000043095073
 40
46.25000043095073
 40
46.25000043095073
 40
46.25000043095073
 10
67.12896966484752
 20
17.13583597868514
 30
0.0
 10
67.12896966484752
 20
15.63583597868514
 30
0.0
 10
67.12896966484752
 20
14.13583597868514
 30
0.0
  0
SPLINE
  5
44
330
1F
100
AcDbEntity
  8
Default
100
AcDbSpline
210
0.0
220
0.0
230
1.0
 70
    24
 71
     2
 72
     6
 73
     3
 74
     0
 42
0.0000000001
 43
0.0000000001
 40
-10.03937007878633
 40
-10.03937007878633
 40
-10.03937007878633
 40
0.0
 40
0.0
 40
0.0
 10
64.50495462773571
 20
11.02363125427577
 30
0.0
 10
64.50495462773583
 20
6.00394576592841
 30
0.0
 10
64.50495462773594
 20
0.984260277581047
 30
0.0
  0
SPLINE
  5
45
330
1F
100
AcDbEntity
  8
Default
100
AcDbSpline
210
0.0
220
0.0
230
1.0
 70
    12
 71
     2
 72
    12
 73
     9
 74
     0
 42
0.0000000001
 43
0.0000000001
 40
0.0
 40
0.0
 40
0.0
 40
0.7730450936832355
 40
0.7730450936832355
 40
1.546090187366471
 40
1.546090187366471
 40
2.319135281049706
 40
2.319135281049706
 40
3.092180374732942
 40
3.092180374732942
 40
3.092180374732942
 10
64.50495462773594
 20
0.984260277581047
 30
0.0
 41
1.0
 10
64.504967388337
 20
0.5765598415026997
 30
0.0
 41
0.9238765377170371
 10
64.21668479111483
 20
0.2882682222596209
 30
0.0
 41
1.0
 10
63.92840219389284
 20
-0.0000233969833979
 30
0.0
 41
0.9238765377170371
 10
63.52070265552308
 20
-0.0000233954466857
 30
0.0
 41
1.0
 10
63.11300311715336
 20
-0.0000233939098745
 30
0.0
 41
0.9238765377170371
 10
62.82472052210457
 20
0.2882682275064958
 30
0.0
 41
1.0
 10
62.53643792705598
 20
0.5765598489229262
 30
0.0
 41
0.9238765377170371
 10
62.53645069072942
 20
0.9842602812913874
 30
0.0
 41
1.0
  0
SPLINE
  5
46
330
1F
100
AcDbEntity
  8
Default
100
AcDbSpline
210
0.0
220
0.0
230
1.0
 70
    24
 71
     2
 72
     6
 73
     3
 74
     0
 42
0.0000000001
 43
0.0000000001
 40
0.0
 40
0.0
 40
0.0
 40
10.03937007878576
 40
10.03937007878576
 40
10.03937007878576
 10
62.53645069072942
 20
0.9842602812913874
 30
0.0
 10
62.53645069072863
 20
6.003945767783581
 30
0.0
 10
62.53645069072783
 20
11.02363125427577
 30
0.0
  0
SPLINE
  5
47
330
1F
100
AcDbEntity
  8
Default
100
AcDbSpline
210
0.0
220
0.0
230
1.0
 70
    24
 71
     2
 72
     6
 73
     3
 74
     0
 42
0.0000000001
 43
0.0000000001
 40
-10.03937007878633
 40
-10.03937007878633
 40
-10.03937007878633
 40
0.0
 40
0.0
 40
0.0
 10
83.99315983040506
 20
11.02363125427577
 30
0.0
 10
83.99315983040518
 20
6.00394576592841
 30
0.0
 10
83.99315983040529
 20
0.984260277581047
 30
0.0
  0
SPLINE
  5
48
330
1F
100
AcDbEntity
  8
Default
100
AcDbSpline
210
0.0
220
0.0
230
1.0
 70
    12
 71
     2
 72
    12
 73
     9
 74
     0
 42
0.0000000001
 43
0.0000000001
 40
0.0
 40
0.0
 40
0.0
 40
0.7730450936832355
 40
0.7730450936832355
 40
1.546090187366471
 40
1.546090187366471
 40
2.319135281049706
 40
2.319135281049706
 40
3.092180374732942
 40
3.092180374732942
 40
3.092180374732942
 10
83.99315983040529
 20
0.984260277581047
 30
0.0
 41
1.0
 10
83.99317259100636
 20
0.5765598415026997
 30
0.0
 41
0.9238765377170371
 10
83.70488999378418
 20
0.2882682222596209
 30
0.0
 41
1.0
 10
83.4166073965622
 20
-0.0000233969833979
 30
0.0
 41
0.9238765377170371
 10
83.0089078581922
 20
-0.0000233954466857
 30
0.0
 41
1.0
 10
82.60120831982272
 20
-0.0000233939098745
 30
0.0
 41
0.9238765377170371
 10
82.31292572477392
 20
0.2882682275064958
 30
0.0
 41
1.0
 10
82.02464312972533
 20
0.5765598489229262
 30
0.0
 41
0.9238765377170371
 10
82.02465589339855
 20
0.9842602812913874
 30
0.0
 41
1.0
  0
SPLINE
  5
49
330
1F
100
AcDbEntity
  8
Default
100
AcDbSpline
210
0.0
220
0.0
230
1.0
 70
    24
 71
     2
 72
     6
 73
     3
 74
     0
 42
0.0000000001
 43
0.0000000001
 40
0.0
 40
0.0
 40
0.0
 40
10.03937007878576
 40
10.03937007878576
 40
10.03937007878576
 10
82.02465589339855
 20
0.9842602812913874
 30
0.0
 10
82.02465589339786
 20
6.003945767783581
 30
0.0
 10
82.02465589339718
 20
11.02363125427577
 30
0.0
  0
SPLINE
  5
4A
330
1F
100
AcDbEntity
  8
Default
100
AcDbSpline
210
0.0
220
0.0
230
1.0
 70
    24
 71
     2
 72
     6
 73
     3
 74
     0
 42
0.0000000001
 43
0.0000000001
 40
0.0
 40
0.0
 40
0.0
 40
2.362204724409445
 40
2.362204724409445
 40
2.362204724409445
 10
83.99315983040506
 20
13.3858359786852
 30
0.0
 10
83.99315983040506
 20
12.20473361648049
 30
0.0
 10
83.99315983040506
 20
11.02363125427577
 30
0.0
  0
SPLINE
  5
4B
330
1F
100
AcDbEntity
  8
Default
100
AcDbSpline
210
0.0
220
0.0
230
1.0
 70
    24
 71
     2
 72
     6
 73
     3
 74
     0
 42
0.0000000001
 43
0.0000000001
 40
0.0
 40
0.0
 40
0.0
 40
2.362204724409445
 40
2.362204724409445
 40
2.362204724409445
 10
64.42278448894805
 20
13.3858359786852
 30
0.0
 10
64.42278448894805
 20
12.20473361648049
 30
0.0
 10
64.42278448894805
 20
11.02363125427577
 30
0.0
  0
LINE
  5
4C
330
1F
100
AcDbEntity
  8
Default
100
AcDbLine
 10
86.1289698803229
 20
17.13583597868514
 30
0.0
 11
86.1289698803229
 21
30.63583597868514
 31
0.0
  0
ARC
  5
4D
330
1F
100
AcDbEntity
  8
Default
100
AcDbCircle
 10
85.1289698803229
 20
30.63583597868514
 30
0.0
 40
1.0
100
AcDbArc
 50
0.0
 51
90.0
  0
LINE
  5
4E
330
1F
100
AcDbEntity
  8
Default
100
AcDbLine
 10
85.1289698803229
 20
31.63583597868514
 30
0.0
 11
65.87895264732785
 21
31.63583597868514
 31
0.0
  0
ARC
  5
4F
330
1F
100
AcDbEntity
  8
Default
100
AcDbCircle
 10
65.87895264732785
 20
30.88583597868514
 30
0.0
 40
0.75
100
AcDbArc
 50
0.0
 51
90.0
  0
SPLINE
  5
50
330
1F
100
AcDbEntity
  8
Default
100
AcDbSpline
210
0.0
220
0.0
230
1.0
 70
    24
 71
     2
 72
     6
 73
     3
 74
     0
 42
0.0000000001
 43
0.0000000001
 40
64.75003446599018
 40
64.75003446599018
 40
64.75003446599018
 40
70.00003446599018
 40
70.00003446599018
 40
70.00003446599018
 10
65.87895264732785
 20
31.63583597868514
 30
0.0
 10
63.25395264732785
 20
31.63583597868514
 30
0.0
 10
60.62895264732785
 20
31.63583597868514
 30
0.0
  0
ARC
  5
51
330
1F
100
AcDbEntity
  8
Default
100
AcDbCircle
 10
60.62895264732785
 20
30.88583597868514
 30
0.0
 40
0.75
100
AcDbArc
 50
90.0
 51
180.0
  0
SPLINE
  5
52
330
1F
100
AcDbEntity
  8
Default
100
AcDbSpline
210
0.0
220
0.0
230
1.0
 70
    24
 71
     2
 72
     6
 73
     3
 74
     0
 42
0.0000000001
 43
0.0000000001
 40
71.50003446599018
 40
71.50003446599018
 40
71.50003446599018
 40
88.25003446599018
 40
88.25003446599018
 40
88.25003446599018
 10
59.87895264732785
 20
30.88583597868514
 30
0.0
 10
59.87895264732785
 20
22.51083597868514
 30
0.0
 10
59.87895264732785
 20
14.13583597868514
 30
0.0
  0
ARC
  5
53
330
1F
100
AcDbEntity
  8
Default
100
AcDbCircle
 10
60.62895264732785
 20
14.13583597868514
 30
0.0
 40
0.75
100
AcDbArc
 50
180.0
 51
270.0
  0
SPLINE
  5
54
330
1F
100
AcDbEntity
  8
Default
100
AcDbSpline
210
0.0
220
0.0
230
1.0
 70
    24
 71
     2
 72
     6
 73
     3
 74
     0
 42
0.0000000001
 43
0.0000000001
 40
89.75003446599018
 40
89.75003446599018
 40
89.75003446599018
 40
95.00003446599018
 40
95.00003446599018
 40
95.00003446599018
 10
60.62895264732785
 20
13.38583597868514
 30
0.0
 10
63.25395264732785
 20
13.38583597868514
 30
0.0
 10
65.87895264732785
 20
13.38583597868514
 30
0.0
  0
ARC
  5
55
330
1F
100
AcDbEntity
  8
Default
100
AcDbCircle
 10
65.87895264732785
 20
14.13583597868514
 30
0.0
 40
0.75
100
AcDbArc
 50
270.0
 51
0.0
  0
SPLINE
  5
56
330
1F
100
AcDbEntity
  8
Default
100
AcDbSpline
210
0.0
220
0.0
230
1.0
 70
    24
 71
     2
 72
     6
 73
     3
 74
     0
 42
0.0000000001
 43
0.0000000001
 40
96.50003446599018
 40
96.50003446599018
 40
96.50003446599018
 40
113.2500344659902
 40
113.2500344659902
 40
113.2500344659902
 10
66.62895264732785
 20
14.13583597868514
 30
0.0
 10
66.62895264732785
 20
22.51083597868514
 30
0.0
 10
66.62895264732785
 20
30.88583597868514
 30
0.0
  0
POLYLINE
  5
57
330
1F
100
AcDbEntity
  8
Default
100
AcDb2dPolyline
 66
     1
 10
0.0
 20
0.0
 30
0.0
  0
VERTEX
  5
58
330
57
100
AcDbEntity
  8
Default
100
AcDbVertex
100
AcDb2dVertex
 10
62.53645069072783
 20
11.02363125427577
 30
0.0
  0
VERTEX
  5
59
330
57
100
AcDbEntity
  8
Default
100
AcDbVertex
100
AcDb2dVertex
 10
83.99315983040506
 20
11.02363125427577
 30
0.0
  0
SEQEND
  5
5A
330
57
100
AcDbEntity
  8
Default
  0
SPLINE
  5
5B
330
1F
100
AcDbEntity
  8
Default
100
AcDbSpline
210
0.0
220
0.0
230
1.0
 70
    24
 71
     2
 72
     6
 73
     3
 74
     0
 42
0.0000000001
 43
0.0000000001
 40
0.0
 40
0.0
 40
0.0
 40
2.362204724409445
 40
2.362204724409445
 40
2.362204724409445
 10
82.10682635181061
 20
11.02363125427577
 30
0.0
 10
82.10682635181061
 20
12.20473361648049
 30
0.0
 10
82.10682635181061
 20
13.3858359786852
 30
0.0
  0
LINE
  5
5C
330
1F
100
AcDbEntity
  8
Default
100
AcDbLine
 10
65.87895264732785
 20
13.38583597868514
 30
0.0
 11
67.87896966484752
 21
13.38583597868514
 31
0.0
  0
SPLINE
  5
5D
330
1F
100
AcDbEntity
  8
Default
100
AcDbSpline
210
0.0
220
0.0
230
1.0
 70
    24
 71
     2
 72
     6
 73
     3
 74
     0
 42
0.0000000001
 43
0.0000000001
 40
0.0
 40
0.0
 40
0.0
 40
2.362204724409445
 40
2.362204724409445
 40
2.362204724409445
 10
62.53645069072783
 20
11.02363125427577
 30
0.0
 10
62.53645069072783
 20
12.20473361648049
 30
0.0
 10
62.53645069072783
 20
13.3858359786852
 30
0.0
  0
SPLINE
  5
5E
330
1F
100
AcDbEntity
  8
Default
100
AcDbSpline
210
0.0
220
0.0
230
1.0
 70
    24
 71
     2
 72
     6
 73
     3
 74
     0
 42
0.0000000001
 43
0.0000000001
 40
0.0
 40
0.0
 40
0.0
 40
2.362204724409445
 40
2.362204724409445
 40
2.362204724409445
 10
36.40655713341832
 20
13.38580670534136
 30
0.0
 10
36.40655713341832
 20
12.20470434313664
 30
0.0
 10
36.40655713341832
 20
11.02360198093193
 30
0.0
  0
ARC
  5
5F
330
1F
100
AcDbEntity
  8
Default
100
AcDbCircle
 10
38.8789526473108
 20
14.13577970169498
 30
0.0
 40
0.75
100
AcDbArc
 50
180.0
 51
270.0
  0
SPLINE
  5
60
330
1F
100
AcDbEntity
  8
Default
100
AcDbSpline
210
0.0
220
0.0
230
1.0
 70
    24
 71
     2
 72
     6
 73
     3
 74
     0
 42
0.0000000001
 43
0.0000000001
 40
0.75
 40
0.75
 40
0.75
 40
6.000000000016986
 40
6.000000000016986
 40
6.000000000016986
 10
38.8789526473108
 20
13.38577970169498
 30
0.0
 10
41.50395264731932
 20
13.38577970169498
 30
0.0
 10
44.12895264732785
 20
13.38577970169498
 30
0.0
  0
ARC
  5
61
330
1F
100
AcDbEntity
  8
Default
100
AcDbCircle
 10
44.12895264732785
 20
14.13577970169498
 30
0.0
 40
0.75
100
AcDbArc
 50
270.0
 51
0.0
  0
SPLINE
  5
62
330
1F
100
AcDbEntity
  8
Default
100
AcDbSpline
210
0.0
220
0.0
230
1.0
 70
    24
 71
     2
 72
     6
 73
     3
 74
     0
 42
0.0000000001
 43
0.0000000001
 40
7.500000000016986
 40
7.500000000016986
 40
7.500000000016986
 40
24.25005400730963
 40
24.25005400730963
 40
24.25005400730963
 10
44.87895264732785
 20
14.13577970169498
 30
0.0
 10
44.87895264732785
 20
22.5108067053413
 30
0.0
 10
44.87895264732785
 20
30.88583370898762
 30
0.0
  0
ARC
  5
63
330
1F
100
AcDbEntity
  8
Default
100
AcDbCircle
 10
44.12895264732785
 20
30.88583370898762
 30
0.0
 40
0.75
100
AcDbArc
 50
0.0
 51
90.0
  0
SPLINE
  5
64
330
1F
100
AcDbEntity
  8
Default
100
AcDbSpline
210
0.0
220
0.0
230
1.0
 70
    24
 71
     2
 72
     6
 73
     3
 74
     0
 42
0.0000000001
 43
0.0000000001
 40
25.75005400730963
 40
25.75005400730963
 40
25.75005400730963
 40
31.00005400732662
 40
31.00005400732662
 40
31.00005400732662
 10
44.12895264732785
 20
31.63583370898762
 30
0.0
 10
41.50395264731932
 20
31.63583370898762
 30
0.0
 10
38.8789526473108
 20
31.63583370898762
 30
0.0
  0
ARC
  5
65
330
1F
100
AcDbEntity
  8
Default
100
AcDbCircle
 10
38.8789526473108
 20
30.88583370898762
 30
0.0
 40
0.75
100
AcDbArc
 50
90.0
 51
180.0
  0
SPLINE
  5
66
330
1F
100
AcDbEntity
  8
Default
100
AcDbSpline
210
0.0
220
0.0
230
1.0
 70
    24
 71
     2
 72
     6
 73
     3
 74
     0
 42
0.0000000001
 43
0.0000000001
 40
32.50005400732662
 40
32.50005400732662
 40
32.50005400732662
 40
49.25010801461926
 40
49.25010801461926
 40
49.25010801461926
 10
38.1289526473108
 20
30.88583370898762
 30
0.0
 10
38.1289526473108
 20
22.5108067053413
 30
0.0
 10
38.1289526473108
 20
14.13577970169498
 30
0.0
  0
SPLINE
  5
67
330
1F
100
AcDbEntity
  8
Default
100
AcDbSpline
210
0.0
220
0.0
230
1.0
 70
    24
 71
     2
 72
     6
 73
     3
 74
     0
 42
0.0000000001
 43
0.0000000001
 40
0.0
 40
0.0
 40
0.0
 40
1.0
 40
1.0
 40
1.0
 10
37.12895264732785
 20
52.63977932543686
 30
0.0
 10
37.62895264732785
 20
52.63977932543686
 30
0.0
 10
38.12895264732785
 20
52.63977932543686
 30
0.0
  0
SPLINE
  5
68
330
1F
100
AcDbEntity
  8
Default
100
AcDbSpline
210
0.0
220
0.0
230
1.0
 70
    24
 71
     2
 72
     6
 73
     3
 74
     0
 42
0.0000000001
 43
0.0000000001
 40
-10.03937007878633
 40
-10.03937007878633
 40
-10.03937007878633
 40
0.0
 40
0.0
 40
0.0
 10
36.40655713341832
 20
11.02360198093193
 30
0.0
 10
36.40655713341843
 20
6.003916492584569
 30
0.0
 10
36.40655713341854
 20
0.9842310042372056
 30
0.0
  0
SPLINE
  5
69
330
1F
100
AcDbEntity
  8
Default
100
AcDbSpline
210
0.0
220
0.0
230
1.0
 70
    12
 71
     2
 72
    12
 73
     9
 74
     0
 42
0.0000000001
 43
0.0000000001
 40
0.0
 40
0.0
 40
0.0
 40
0.7730450936832355
 40
0.7730450936832355
 40
1.546090187366471
 40
1.546090187366471
 40
2.319135281049706
 40
2.319135281049706
 40
3.092180374732942
 40
3.092180374732942
 40
3.092180374732942
 10
36.40655713341854
 20
0.9842310042372056
 30
0.0
 41
1.0
 10
36.40656989401952
 20
0.5765305681588396
 30
0.0
 41
0.9238765377170371
 10
36.11828729679743
 20
0.2882389489157795
 30
0.0
 41
1.0
 10
35.83000469957538
 20
-0.0000526703272579
 30
0.0
 41
0.9238765377170371
 10
35.42230516120546
 20
-0.0000526687905271
 30
0.0
 41
1.0
 10
35.01460562283589
 20
-0.0000526672537346
 30
0.0
 41
0.9238765377170371
 10
34.72632302778717
 20
0.2882389541626544
 30
0.0
 41
1.0
 10
34.43804043273852
 20
0.5765305755790662
 30
0.0
 41
0.9238765377170371
 10
34.4380531964118
 20
0.984231007947546
 30
0.0
 41
1.0
  0
SPLINE
  5
6A
330
1F
100
AcDbEntity
  8
Default
100
AcDbSpline
210
0.0
220
0.0
230
1.0
 70
    24
 71
     2
 72
     6
 73
     3
 74
     0
 42
0.0000000001
 43
0.0000000001
 40
0.0
 40
0.0
 40
0.0
 40
10.03937007878576
 40
10.03937007878576
 40
10.03937007878576
 10
34.4380531964118
 20
0.984231007947546
 30
0.0
 10
34.43805319641112
 20
6.003916494439739
 30
0.0
 10
34.43805319641044
 20
11.02360198093193
 30
0.0
  0
SPLINE
  5
6B
330
1F
100
AcDbEntity
  8
Default
100
AcDbSpline
210
0.0
220
0.0
230
1.0
 70
    24
 71
     2
 72
     6
 73
     3
 74
     0
 42
0.0000000001
 43
0.0000000001
 40
0.0
 40
0.0
 40
0.0
 40
5.755559983968134
 40
5.755559983968134
 40
5.755559983968134
 10
36.40655713341832
 20
11.09244667183511
 30
0.0
 10
39.12306985553764
 20
12.04227629488743
 30
0.0
 10
41.83958257765696
 20
12.99210591793976
 30
0.0
  0
SPLINE
  5
6C
330
1F
100
AcDbEntity
  8
Default
100
AcDbSpline
210
0.0
220
0.0
230
1.0
 70
    15
 71
     2
 72
    20
 73
    17
 74
     0
 42
0.0000000001
 43
0.0000000001
 40
0.0
 40
0.0
 40
0.0
 40
1.178097245096172
 40
1.178097245096172
 40
54.92815125238877
 40
54.92815125238877
 40
56.10624849748494
 40
56.10624849748494
 40
59.10624849748494
 40
59.10624849748494
 40
60.28434574258112
 40
60.28434574258112
 40
114.0343997498737
 40
114.0343997498737
 40
115.2124969949699
 40
115.2124969949699
 40
118.2124969949699
 40
118.2124969949699
 40
118.2124969949699
 10
-44.87112836359418
 20
14.1358067053413
 30
0.0
 41
1.0
 10
-44.87112836359424
 20
13.3858067053413
 30
0.0
 41
0.7071067811865476
 10
-44.12112836359418
 20
13.3858067053413
 30
0.0
 41
1.0
 10
9.50395264732785
 20
13.3858067053413
 30
0.0
 41
1.0
 10
36.37897965097406
 20
13.3858067053413
 30
0.0
 41
1.0
 10
37.12897965097389
 20
13.3858067053413
 30
0.0
 41
0.7071067811865476
 10
37.12897965097406
 20
14.1358067053413
 30
0.0
 41
1.0
 10
37.12897965097406
 20
15.6358067053413
 30
0.0
 41
1.0
 10
37.12897965097406
 20
17.1358067053413
 30
0.0
 41
1.0
 10
37.12897965097389
 20
17.88580670534126
 30
0.0
 41
0.7071067811865476
 10
36.37897965097406
 20
17.8858067053413
 30
0.0
 41
1.0
 10
9.50395264732785
 20
17.8858067053413
 30
0.0
 41
1.0
 10
-44.12112836359418
 20
17.8858067053413
 30
0.0
 41
1.0
 10
-44.87112836359424
 20
17.88580670534126
 30
0.0
 41
0.7071067811865476
 10
-44.87112836359418
 20
17.1358067053413
 30
0.0
 41
1.0
 10
-44.87112836359418
 20
15.6358067053413
 30
0.0
 41
1.0
 10
-44.87112836359418
 20
14.1358067053413
 30
0.0
 41
1.0
  0
SPLINE
  5
6D
330
1F
100
AcDbEntity
  8
Default
100
AcDbSpline
210
0.0
220
0.0
230
1.0
 70
    15
 71
     2
 72
    20
 73
    17
 74
     0
 42
0.0000000001
 43
0.0000000001
 40
0.0
 40
0.0
 40
0.0
 40
1.570796326794897
 40
1.570796326794897
 40
54.82079675774557
 40
54.82079675774557
 40
56.39159308454046
 40
56.39159308454046
 40
73.39159330001583
 40
73.39159330001583
 40
74.96238962681072
 40
74.96238962681072
 40
128.2123900577614
 40
128.2123900577614
 40
129.7831863845562
 40
129.7831863845562
 40
146.7831866000316
 40
146.7831866000316
 40
146.7831866000316
 10
-44.87110135994774
 20
47.63583370898762
 30
0.0
 41
1.0
 10
-44.87110135994791
 20
46.63583370898762
 30
0.0
 41
0.7071067811865476
 10
-43.87110135994774
 20
46.63583370898762
 30
0.0
 41
1.0
 10
9.50395264732785
 20
46.63583370898762
 30
0.0
 41
1.0
 10
36.12895286280306
 20
46.63583370898762
 30
0.0
 41
1.0
 10
37.12895286280297
 20
46.63583370898762
 30
0.0
 41
0.7071067811865476
 10
37.12895286280306
 20
47.63583370898762
 30
0.0
 41
1.0
 10
37.12895286280306
 20
56.13583381672528
 30
0.0
 41
1.0
 10
37.12895286280306
 20
64.635833924463
 30
0.0
 41
1.0
 10
37.12895286280297
 20
65.63583392446293
 30
0.0
 41
0.7071067811865476
 10
36.12895286280306
 20
65.635833924463
 30
0.0
 41
1.0
 10
9.50395264732785
 20
65.635833924463
 30
0.0
 41
1.0
 10
-43.87110135994774
 20
65.635833924463
 30
0.0
 41
1.0
 10
-44.87110135994791
 20
65.63583392446293
 30
0.0
 41
0.7071067811865476
 10
-44.87110135994774
 20
64.635833924463
 30
0.0
 41
1.0
 10
-44.87110135994774
 20
56.13583381672528
 30
0.0
 41
1.0
 10
-44.87110135994774
 20
47.63583370898762
 30
0.0
 41
1.0
  0
SPLINE
  5
6E
330
1F
100
AcDbEntity
  8
Default
100
AcDbSpline
210
0.0
220
0.0
230
1.0
 70
    24
 71
     2
 72
     6
 73
     3
 74
     0
 42
0.0000000001
 43
0.0000000001
 40
0.0
 40
0.0
 40
0.0
 40
42.12600696295243
 40
42.12600696295243
 40
42.12600696295243
 10
34.43803048511401
 20
11.02360198093193
 30
0.0
 10
-0.0000000000000284
 20
11.02360198093193
 30
0.0
 10
-34.43803048511407
 20
11.02360198093193
 30
0.0
  0
SPLINE
  5
6F
330
1F
100
AcDbEntity
  8
Default
100
AcDbSpline
210
0.0
220
0.0
230
1.0
 70
    12
 71
     2
 72
    10
 73
     7
 74
     0
 42
0.0000000001
 43
0.0000000001
 40
71.50002700362928
 40
71.50002700362928
 40
71.50002700362928
 40
127.5000270036122
 40
127.5000270036122
 40
129.0708233304071
 40
129.0708233304071
 40
142.5708503340535
 40
142.5708503340535
 40
142.5708503340535
 10
38.8789526473108
 20
31.63583370898762
 30
0.0
 41
1.0
 10
10.87895264731944
 20
31.63583370898762
 30
0.0
 41
1.0
 10
-43.87110135994774
 20
31.63583370898762
 30
0.0
 41
1.0
 10
-44.87110135994783
 20
31.63583370898763
 30
0.0
 41
0.7071067811865488
 10
-44.87110135994774
 20
30.63583370898762
 30
0.0
 41
1.0
 10
-44.87110135994774
 20
23.88582020716446
 30
0.0
 41
1.0
 10
-44.87110135994774
 20
17.1358067053413
 30
0.0
 41
1.0
  0
SPLINE
  5
70
330
1F
100
AcDbEntity
  8
Default
100
AcDbSpline
210
0.0
220
0.0
230
1.0
 70
    24
 71
     2
 72
     6
 73
     3
 74
     0
 42
0.0000000001
 43
0.0000000001
 40
0.0
 40
0.0
 40
0.0
 40
2.362204724409445
 40
2.362204724409445
 40
2.362204724409445
 10
-34.43803048511407
 20
13.38580670534136
 30
0.0
 10
-34.43803048511407
 20
12.20470434313664
 30
0.0
 10
-34.43803048511407
 20
11.02360198093193
 30
0.0
  0
SPLINE
  5
71
330
1F
100
AcDbEntity
  8
Default
100
AcDbSpline
210
0.0
220
0.0
230
1.0
 70
    24
 71
     2
 72
     6
 73
     3
 74
     0
 42
0.0000000001
 43
0.0000000001
 40
-10.03937007878633
 40
-10.03937007878633
 40
-10.03937007878633
 40
0.0
 40
0.0
 40
0.0
 10
-34.43803048511407
 20
11.02360198093193
 30
0.0
 10
-34.43803048511396
 20
6.003916492584569
 30
0.0
 10
-34.43803048511384
 20
0.9842310042372056
 30
0.0
  0
SPLINE
  5
72
330
1F
100
AcDbEntity
  8
Default
100
AcDbSpline
210
0.0
220
0.0
230
1.0
 70
    12
 71
     2
 72
    12
 73
     9
 74
     0
 42
0.0000000001
 43
0.0000000001
 40
0.0
 40
0.0
 40
0.0
 40
0.7730450936832355
 40
0.7730450936832355
 40
1.546090187366471
 40
1.546090187366471
 40
2.319135281049706
 40
2.319135281049706
 40
3.092180374732942
 40
3.092180374732942
 40
3.092180374732942
 10
-34.43803048511384
 20
0.9842310042372056
 30
0.0
 41
1.0
 10
-34.43801772451292
 20
0.5765305681588396
 30
0.0
 41
0.9238765377170371
 10
-34.72630032173495
 20
0.2882389489157795
 30
0.0
 41
1.0
 10
-35.01458291895707
 20
-0.0000526703272579
 30
0.0
 41
0.9238765377170371
 10
-35.42228245732693
 20
-0.0000526687905271
 30
0.0
 41
1.0
 10
-35.82998199569656
 20
-0.0000526672537346
 30
0.0
 41
0.9238765377170371
 10
-36.11826459074521
 20
0.2882389541626544
 30
0.0
 41
1.0
 10
-36.4065471857937
 20
0.5765305755790662
 30
0.0
 41
0.9238765377170371
 10
-36.40653442212059
 20
0.984231007947546
 30
0.0
 41
1.0
  0
SPLINE
  5
73
330
1F
100
AcDbEntity
  8
Default
100
AcDbSpline
210
0.0
220
0.0
230
1.0
 70
    24
 71
     2
 72
     6
 73
     3
 74
     0
 42
0.0000000001
 43
0.0000000001
 40
0.0
 40
0.0
 40
0.0
 40
10.03937007878576
 40
10.03937007878576
 40
10.03937007878576
 10
-36.40653442212059
 20
0.984231007947546
 30
0.0
 10
-36.40653442212127
 20
6.003916494439739
 30
0.0
 10
-36.40653442212195
 20
11.02360198093193
 30
0.0
  0
SPLINE
  5
74
330
1F
100
AcDbEntity
  8
Default
100
AcDbSpline
210
0.0
220
0.0
230
1.0
 70
    24
 71
     2
 72
     6
 73
     3
 74
     0
 42
0.0000000001
 43
0.0000000001
 40
0.0
 40
0.0
 40
0.0
 40
1.968503937007881
 40
1.968503937007881
 40
1.968503937007881
 10
-36.40653442212195
 20
11.02360198093193
 30
0.0
 10
-35.42228245361801
 20
11.02360198093193
 30
0.0
 10
-34.43803048511407
 20
11.02360198093193
 30
0.0
  0
SPLINE
  5
75
330
1F
100
AcDbEntity
  8
Default
100
AcDbSpline
210
0.0
220
0.0
230
1.0
 70
    24
 71
     2
 72
     6
 73
     3
 74
     0
 42
0.0000000001
 43
0.0000000001
 40
0.0
 40
0.0
 40
0.0
 40
2.362204724409445
 40
2.362204724409445
 40
2.362204724409445
 10
-36.40653442212195
 20
13.38580670534136
 30
0.0
 10
-36.40653442212195
 20
12.20470434313664
 30
0.0
 10
-36.40653442212195
 20
11.02360198093193
 30
0.0
  0
SPLINE
  5
76
330
1F
100
AcDbEntity
  8
Default
100
AcDbSpline
210
0.0
220
0.0
230
1.0
 70
    24
 71
     2
 72
     6
 73
     3
 74
     0
 42
0.0000000001
 43
0.0000000001
 40
0.0
 40
0.0
 40
0.0
 40
0.3937007874016096
 40
0.3937007874016096
 40
0.3937007874016096
 10
41.83958257765696
 20
12.99210591793976
 30
0.0
 10
41.83958257765696
 20
13.18895631164056
 30
0.0
 10
41.83958257765696
 20
13.38580670534136
 30
0.0
  0
SPLINE
  5
77
330
1F
100
AcDbEntity
  8
Default
100
AcDbSpline
210
0.0
220
0.0
230
1.0
 70
    24
 71
     2
 72
     6
 73
     3
 74
     0
 42
0.0000000001
 43
0.0000000001
 40
0.0
 40
0.0
 40
0.0
 40
1.968503937007881
 40
1.968503937007881
 40
1.968503937007881
 10
36.40653442212189
 20
11.02360198093193
 30
0.0
 10
35.42228245361795
 20
11.02360198093193
 30
0.0
 10
34.43803048511401
 20
11.02360198093193
 30
0.0
  0
SPLINE
  5
78
330
1F
100
AcDbEntity
  8
Default
100
AcDbSpline
210
0.0
220
0.0
230
1.0
 70
    24
 71
     2
 72
     6
 73
     3
 74
     0
 42
0.0000000001
 43
0.0000000001
 40
0.0
 40
0.0
 40
0.0
 40
2.397067146693189
 40
2.397067146693189
 40
2.397067146693189
 10
36.40655713341832
 20
13.38580670534136
 30
0.0
 10
37.60509070676491
 20
13.38580670534136
 30
0.0
 10
38.80362428011151
 20
13.38580670534136
 30
0.0
  0
SPLINE
  5
79
330
1F
100
AcDbEntity
  8
Default
100
AcDbSpline
210
0.0
220
0.0
230
1.0
 70
    24
 71
     2
 72
     6
 73
     3
 74
     0
 42
0.0000000001
 43
0.0000000001
 40
0.0
 40
0.0
 40
0.0
 40
2.362204724409445
 40
2.362204724409445
 40
2.362204724409445
 10
34.43805319641044
 20
11.02360198093193
 30
0.0
 10
34.43805319641044
 20
12.20470434313664
 30
0.0
 10
34.43805319641044
 20
13.38580670534136
 30
0.0
  0
SPLINE
  5
7A
330
1F
100
AcDbEntity
  8
Default
100
AcDbSpline
210
0.0
220
0.0
230
1.0
 70
    24
 71
     2
 72
     6
 73
     3
 74
     0
 42
0.0000000001
 43
0.0000000001
 40
0.0
 40
0.0
 40
0.0
 40
1.0
 40
1.0
 40
1.0
 10
38.12895264732785
 20
64.45080294748409
 30
0.0
 10
37.62895264732785
 20
64.45080294748409
 30
0.0
 10
37.12895264732785
 20
64.45080294748409
 30
0.0
  0
SPLINE
  5
7B
330
1F
100
AcDbEntity
  8
Default
100
AcDbSpline
210
0.0
220
0.0
230
1.0
 70
    24
 71
     2
 72
     6
 73
     3
 74
     0
 42
0.0000000001
 43
0.0000000001
 40
0.0
 40
0.0
 40
0.0
 40
1.0
 40
1.0
 40
1.0
 10
38.12895264732785
 20
63.66340137268095
 30
0.0
 10
37.62895264732785
 20
63.66340137268095
 30
0.0
 10
37.12895264732785
 20
63.66340137268095
 30
0.0
  0
SPLINE
  5
7C
330
1F
100
AcDbEntity
  8
Default
100
AcDbSpline
210
0.0
220
0.0
230
1.0
 70
    24
 71
     2
 72
     6
 73
     3
 74
     0
 42
0.0000000001
 43
0.0000000001
 40
0.0
 40
0.0
 40
0.0
 40
0.5
 40
0.5
 40
0.5
 10
-35.81596031424786
 20
65.63583370898768
 30
0.0
 10
-35.81596031424786
 20
65.88583370898768
 30
0.0
 10
-35.81596031424786
 20
66.13583370898768
 30
0.0
  0
SPLINE
  5
7D
330
1F
100
AcDbEntity
  8
Default
100
AcDbSpline
210
0.0
220
0.0
230
1.0
 70
    15
 71
     2
 72
    28
 73
    25
 74
     0
 42
0.0000000001
 43
0.0000000001
 40
0.0
 40
0.0
 40
0.0
 40
1.178097245096172
 40
1.178097245096172
 40
19.67812424874249
 40
19.67812424874249
 40
20.07082333044127
 40
20.07082333044127
 40
75.32085033408754
 40
75.32085033408754
 40
76.4989475791837
 40
76.4989475791837
 40
81.7489475791837
 40
81.7489475791837
 40
82.92704482427988
 40
82.92704482427988
 40
144.4270718279432
 40
144.4270718279432
 40
145.6051690730393
 40
145.6051690730393
 40
170.3551960766857
 40
170.3551960766857
 40
171.5332933217819
 40
171.5332933217819
 40
176.7832933217989
 40
176.7832933217989
 40
176.7832933217989
 10
38.87895264732785
 20
46.63580670534124
 30
0.0
 41
1.0
 10
38.12895264732757
 20
46.63580670534121
 30
0.0
 41
0.7071067811865476
 10
38.12895264732785
 20
47.38580670534124
 30
0.0
 41
1.0
 10
38.12895264732785
 20
56.6358202071644
 30
0.0
 41
1.0
 10
38.12895264732785
 20
65.88583370898756
 30
0.0
 41
1.0
 10
38.1289526473277
 20
66.13583370898763
 30
0.0
 41
0.7071067811864672
 10
37.87895264732785
 20
66.13583370898762
 30
0.0
 41
1.0
 10
10.25393914550475
 20
66.13583370898762
 30
0.0
 41
1.0
 10
-44.12112814811874
 20
66.13583370898762
 30
0.0
 41
1.0
 10
-44.87112814811899
 20
66.1358337089876
 30
0.0
 41
0.7071067811865476
 10
-44.87112814811874
 20
66.88583370898762
 30
0.0
 41
1.0
 10
-44.87112814811874
 20
69.51083370898762
 30
0.0
 41
1.0
 10
-44.87112814811874
 20
72.13583370898762
 30
0.0
 41
1.0
 10
-44.87112814811899
 20
72.88583370898762
 30
0.0
 41
0.7071067811865476
 10
-44.12112814811874
 20
72.88583370898762
 30
0.0
 41
1.0
 10
13.37893914551316
 20
72.88583370898762
 30
0.0
 41
1.0
 10
44.1289526473449
 20
72.88583370898762
 30
0.0
 41
1.0
 10
44.87895264734464
 20
72.88583370898762
 30
0.0
 41
0.7071067811865476
 10
44.8789526473449
 20
72.13583370898762
 30
0.0
 41
1.0
 10
44.8789526473449
 20
59.76082020716446
 30
0.0
 41
1.0
 10
44.8789526473449
 20
47.38580670534124
 30
0.0
 41
1.0
 10
44.87895264734464
 20
46.63580670534121
 30
0.0
 41
0.7071067811865476
 10
44.1289526473449
 20
46.63580670534124
 30
0.0
 41
1.0
 10
41.50395264733626
 20
46.63580670534124
 30
0.0
 41
1.0
 10
38.87895264732785
 20
46.63580670534124
 30
0.0
 41
1.0
  0
SPLINE
  5
7E
330
1F
100
AcDbEntity
  8
Default
100
AcDbSpline
210
0.0
220
0.0
230
1.0
 70
    24
 71
     2
 72
     6
 73
     3
 74
     0
 42
0.0000000001
 43
0.0000000001
 40
0.0
 40
0.0
 40
0.0
 40
1.0
 40
1.0
 40
1.0
 10
37.12895264732785
 20
51.85237775063366
 30
0.0
 10
37.62895264732785
 20
51.85237775063366
 30
0.0
 10
38.12895264732785
 20
51.85237775063366
 30
0.0
  0
SPLINE
  5
7F
330
1F
100
AcDbEntity
  8
Default
100
AcDbSpline
210
0.0
220
0.0
230
1.0
 70
    24
 71
     2
 72
     6
 73
     3
 74
     0
 42
0.0000000001
 43
0.0000000001
 40
0.0
 40
0.0
 40
0.0
 40
0.5
 40
0.5
 40
0.5
 10
35.02858166621647
 20
65.63583370898762
 30
0.0
 10
35.02858166621647
 20
65.88583370898762
 30
0.0
 10
35.02858166621647
 20
66.13583370898762
 30
0.0
  0
SPLINE
  5
80
330
1F
100
AcDbEntity
  8
Default
100
AcDbSpline
210
0.0
220
0.0
230
1.0
 70
    24
 71
     2
 72
     6
 73
     3
 74
     0
 42
0.0000000001
 43
0.0000000001
 40
0.0
 40
0.0
 40
0.0
 40
0.5
 40
0.5
 40
0.5
 10
-35.02855873944489
 20
65.63583370898756
 30
0.0
 10
-35.02855873944489
 20
65.88583370898756
 30
0.0
 10
-35.02855873944489
 20
66.13583370898756
 30
0.0
  0
SPLINE
  5
81
330
1F
100
AcDbEntity
  8
Default
100
AcDbSpline
210
0.0
220
0.0
230
1.0
 70
    24
 71
     2
 72
     6
 73
     3
 74
     0
 42
0.0000000001
 43
0.0000000001
 40
0.0
 40
0.0
 40
0.0
 40
0.5
 40
0.5
 40
0.5
 10
35.81598324101944
 20
65.63583370898762
 30
0.0
 10
35.81598324101944
 20
65.88583370898762
 30
0.0
 10
35.81598324101944
 20
66.13583370898762
 30
0.0
  0
ENDSEC
  0
SECTION
  2
OBJECTS
  0
DICTIONARY
  5
C
330
0
100
AcDbDictionary
281
     1
  3
ACAD_GROUP
350
D
  3
ACAD_LAYOUT
350
1A
  3
ACAD_MLEADERSTYLE
350
83
  3
ACAD_MLINESTYLE
350
17
  3
ACAD_PLOTSETTINGS
350
19
  3
ACAD_PLOTSTYLENAME
350
E
  3
ACAD_TABLESTYLE
350
82
  3
ACAD_VISUALSTYLE
350
2A
  0
DICTIONARY
  5
D
102
{ACAD_REACTORS
330
C
102
}
330
C
100
AcDbDictionary
281
     1
  0
DICTIONARY
  5
1A
102
{ACAD_REACTORS
330
C
102
}
330
C
100
AcDbDictionary
281
     1
  3
Layout1
350
1E
  3
Layout2
350
26
  3
Model
350
22
  0
DICTIONARY
  5
83
102
{ACAD_REACTORS
330
C
102
}
330
C
100
AcDbDictionary
281
     1
  0
DICTIONARY
  5
17
102
{ACAD_REACTORS
330
C
102
}
330
C
100
AcDbDictionary
281
     1
  3
Standard
350
18
  0
DICTIONARY
  5
19
102
{ACAD_REACTORS
330
C
102
}
330
C
100
AcDbDictionary
281
     1
  0
ACDBDICTIONARYWDFLT
  5
E
102
{ACAD_REACTORS
330
C
102
}
330
C
100
AcDbDictionary
281
     1
  3
Normal
350
F
100
AcDbDictionaryWithDefault
340
F
  0
DICTIONARY
  5
82
102
{ACAD_REACTORS
330
C
102
}
330
C
100
AcDbDictionary
281
     1
  0
DICTIONARY
  5
2A
102
{ACAD_REACTORS
330
C
102
}
330
C
100
AcDbDictionary
281
     1
  3
2dWireframe
350
2F
  3
3D Hidden
350
31
  3
3dWireframe
350
30
  3
Basic
350
32
  3
Brighten
350
36
  3
ColorChange
350
3A
  3
Conceptual
350
34
  3
Dim
350
35
  3
Facepattern
350
39
  3
Flat
350
2B
  3
FlatWithEdges
350
2C
  3
Gouraud
350
2D
  3
GouraudWithEdges
350
2E
  3
Linepattern
350
38
  3
Realistic
350
33
  3
Thicken
350
37
  0
LAYOUT
  5
1E
102
{ACAD_REACTORS
330
1A
102
}
330
1A
100
AcDbPlotSettings
  1

  2
none_device
  4

  6

 40
0.0
 41
0.0
 42
0.0
 43
0.0
 44
0.0
 45
0.0
 46
0.0
 47
0.0
 48
0.0
 49
0.0
140
0.0
141
0.0
142
1.0
143
1.0
 70
   688
 72
     0
 73
     0
 74
     5
  7

 75
    16
 76
     0
 77
     2
 78
   300
147
1.0
148
0.0
149
0.0
100
AcDbLayout
  1
Layout1
 70
     1
 71
     1
 10
0.0
 20
0.0
 11
12.0
 21
9.0
 12
0.0
 22
0.0
 32
0.0
 14
1.000000000000000E+20
 24
1.000000000000000E+20
 34
1.000000000000000E+20
 15
-1.000000000000000E+20
 25
-1.000000000000000E+20
 35
-1.000000000000000E+20
146
0.0
 13
0.0
 23
0.0
 33
0.0
 16
1.0
 26
0.0
 36
0.0
 17
0.0
 27
1.0
 37
0.0
 76
     0
330
1B
  0
LAYOUT
  5
26
102
{ACAD_REACTORS
330
1A
102
}
330
1A
100
AcDbPlotSettings
  1

  2
none_device
  4

  6

 40
0.0
 41
0.0
 42
0.0
 43
0.0
 44
0.0
 45
0.0
 46
0.0
 47
0.0
 48
0.0
 49
0.0
140
0.0
141
0.0
142
1.0
143
1.0
 70
   688
 72
     0
 73
     0
 74
     5
  7

 75
    16
 76
     0
 77
     2
 78
   300
147
1.0
148
0.0
149
0.0
100
AcDbLayout
  1
Layout2
 70
     1
 71
     2
 10
0.0
 20
0.0
 11
0.0
 21
0.0
 12
0.0
 22
0.0
 32
0.0
 14
0.0
 24
0.0
 34
0.0
 15
0.0
 25
0.0
 35
0.0
146
0.0
 13
0.0
 23
0.0
 33
0.0
 16
1.0
 26
0.0
 36
0.0
 17
0.0
 27
1.0
 37
0.0
 76
     0
330
23
  0
LAYOUT
  5
22
102
{ACAD_REACTORS
330
1A
102
}
330
1A
100
AcDbPlotSettings
  1

  2
none_device
  4

  6

 40
0.0
 41
0.0
 42
0.0
 43
0.0
 44
0.0
 45
0.0
 46
0.0
 47
0.0
 48
0.0
 49
0.0
140
0.0
141
0.0
142
1.0
143
1.0
 70
  1712
 72
     0
 73
     0
 74
     0
  7

 75
     0
 76
     0
 77
     2
 78
   300
147
1.0
148
0.0
149
0.0
100
AcDbLayout
  1
Model
 70
     1
 71
     0
 10
0.0
 20
0.0
 11
12.0
 21
9.0
 12
0.0
 22
0.0
 32
0.0
 14
-44.87112836359418
 24
-0.0000526687905271
 34
0.0
 15
86.1289698803229
 25
72.88583370898762
 35
0.0
146
0.0
 13
0.0
 23
0.0
 33
0.0
 16
1.0
 26
0.0
 36
0.0
 17
0.0
 27
1.0
 37
0.0
 76
     0
330
1F
331
29
  0
MLINESTYLE
  5
18
102
{ACAD_REACTORS
330
17
102
}
330
17
100
AcDbMlineStyle
  2
Standard
 70
     0
  3

 62
   256
 51
90.0
 52
90.0
 71
     2
 49
0.5
 62
   256
  6
BYLAYER
 49
-0.5
 62
   256
  6
BYLAYER
  0
ACDBPLACEHOLDER
  5
F
102
{ACAD_REACTORS
330
E
102
}
330
E
  0
VISUALSTYLE
  5
2F
102
{ACAD_REACTORS
330
2A
102
}
330
2A
100
AcDbVisualStyle
  2
2dWireframe
 70
     4
 71
     0
 72
     2
 73
     0
 90
        0
 40
-0.6
 41
-30.0
 62
     5
 63
     7
421
 16777215
 74
     1
 91
        4
 64
     7
 65
   257
 75
     1
175
     1
 42
1.0
 92
        0
 66
   257
 43
1.0
 76
     1
 77
     6
 78
     2
 67
     7
 79
     5
170
     0
171
     0
290
     0
174
     0
 93
        1
 44
0.0
173
     0
291
     0
 45
0.0
1001
ACAD
1000
AcDbSavedByObjectVersion
1070
     0
  0
VISUALSTYLE
  5
31
102
{ACAD_REACTORS
330
2A
102
}
330
2A
100
AcDbVisualStyle
  2
3D Hidden
 70
     6
 71
     1
 72
     2
 73
     2
 90
        0
 40
-0.6
 41
-30.0
 62
     5
 63
     7
421
 16777215
 74
     2
 91
        2
 64
     7
 65
   257
 75
     2
175
     1
 42
40.0
 92
        0
 66
   257
 43
1.0
 76
     1
 77
     6
 78
     2
 67
     7
 79
     3
170
     0
171
     0
290
     0
174
     0
 93
        1
 44
0.0
173
     0
291
     0
 45
0.0
1001
ACAD
1000
AcDbSavedByObjectVersion
1070
     0
  0
VISUALSTYLE
  5
30
102
{ACAD_REACTORS
330
2A
102
}
330
2A
100
AcDbVisualStyle
  2
3dWireframe
 70
     5
 71
     0
 72
     2
 73
     0
 90
        0
 40
-0.6
 41
-30.0
 62
     5
 63
     7
421
 16777215
 74
     1
 91
        4
 64
     7
 65
   257
 75
     1
175
     1
 42
1.0
 92
        0
 66
   257
 43
1.0
 76
     1
 77
     6
 78
     2
 67
     7
 79
     5
170
     0
171
     0
290
     0
174
     0
 93
        1
 44
0.0
173
     0
291
     0
 45
0.0
1001
ACAD
1000
AcDbSavedByObjectVersion
1070
     0
  0
VISUALSTYLE
  5
32
102
{ACAD_REACTORS
330
2A
102
}
330
2A
100
AcDbVisualStyle
  2
Basic
 70
     7
 71
     1
 72
     0
 73
     1
 90
        0
 40
-0.6
 41
-30.0
 62
     5
 63
     7
421
 16777215
 74
     0
 91
        4
 64
     7
 65
   257
 75
     1
175
     1
 42
1.0
 92
        8
 66
     7
 43
1.0
 76
     1
 77
     6
 78
     2
 67
     7
 79
     5
170
     0
171
     0
290
     0
174
     0
 93
        1
 44
0.0
173
     0
291
     1
 45
0.0
1001
ACAD
1000
AcDbSavedByObjectVersion
1070
     0
  0
VISUALSTYLE
  5
36
102
{ACAD_REACTORS
330
2A
102
}
330
2A
100
AcDbVisualStyle
  2
Brighten
 70
    12
 71
     2
 72
     2
 73
     0
 90
        0
 40
-0.6
 41
-30.0
 62
     5
 63
     7
421
 16777215
 74
     1
 91
        4
 64
     7
 65
   257
 75
     1
175
     1
 42
1.0
 92
        8
 66
     7
 43
1.0
 76
     1
 77
     6
 78
     2
 67
     7
 79
     5
170
     0
171
     0
290
     0
174
     0
 93
        1
 44
50.0
173
     0
291
     1
 45
0.0
1001
ACAD
1000
AcDbSavedByObjectVersion
1070
     0
  0
VISUALSTYLE
  5
3A
102
{ACAD_REACTORS
330
2A
102
}
330
2A
100
AcDbVisualStyle
  2
ColorChange
 70
    16
 71
     2
 72
     2
 73
     3
 90
        0
 40
-0.6
 41
-30.0
 62
     5
 63
     8
421
  8421504
 74
     1
 91
        4
 64
     7
 65
   257
 75
     1
175
     1
 42
1.0
 92
        8
 66
     8
424
  8421504
 43
1.0
 76
     1
 77
     6
 78
     2
 67
     7
 79
     5
170
     0
171
     0
290
     0
174
     0
 93
        1
 44
0.0
173
     0
291
     1
 45
0.0
1001
ACAD
1000
AcDbSavedByObjectVersion
1070
     0
  0
VISUALSTYLE
  5
34
102
{ACAD_REACTORS
330
2A
102
}
330
2A
100
AcDbVisualStyle
  2
Conceptual
 70
     9
 71
     3
 72
     2
 73
     0
 90
        0
 40
-0.6
 41
-30.0
 62
     5
 63
     7
421
 16777215
 74
     2
 91
        2
 64
     7
 65
   257
 75
     1
175
     1
 42
40.0
 92
        8
 66
     7
 43
1.0
 76
     1
 77
     6
 78
     2
 67
     7
 79
     3
170
     0
171
     0
290
     0
174
     0
 93
        1
 44
0.0
173
     0
291
     0
 45
0.0
1001
ACAD
1000
AcDbSavedByObjectVersion
1070
     0
  0
VISUALSTYLE
  5
35
102
{ACAD_REACTORS
330
2A
102
}
330
2A
100
AcDbVisualStyle
  2
Dim
 70
    11
 71
     2
 72
     2
 73
     0
 90
        0
 40
-0.6
 41
-30.0
 62
     5
 63
     7
421
 16777215
 74
     1
 91
        4
 64
     7
 65
   257
 75
     1
175
     1
 42
1.0
 92
        8
 66
     7
 43
1.0
 76
     1
 77
     6
 78
     2
 67
     7
 79
     5
170
     0
171
     0
290
     0
174
     0
 93
        1
 44
-50.0
173
     0
291
     1
 45
0.0
1001
ACAD
1000
AcDbSavedByObjectVersion
1070
     0
  0
VISUALSTYLE
  5
39
102
{ACAD_REACTORS
330
2A
102
}
330
2A
100
AcDbVisualStyle
  2
Facepattern
 70
    15
 71
     2
 72
     2
 73
     0
 90
        0
 40
-0.6
 41
-30.0
 62
     5
 63
     7
421
 16777215
 74
     1
 91
        4
 64
     7
 65
   257
 75
     1
175
     1
 42
1.0
 92
        8
 66
     7
 43
1.0
 76
     1
 77
     6
 78
     2
 67
     7
 79
     5
170
     0
171
     0
290
     0
174
     0
 93
        1
 44
0.0
173
     0
291
     1
 45
0.0
1001
ACAD
1000
AcDbSavedByObjectVersion
1070
     0
  0
VISUALSTYLE
  5
2B
102
{ACAD_REACTORS
330
2A
102
}
330
2A
100
AcDbVisualStyle
  2
Flat
 70
     0
 71
     2
 72
     1
 73
     1
 90
        2
 40
-0.6
 41
30.0
 62
     5
 63
     7
421
 16777215
 74
     0
 91
        4
 64
     7
 65
   257
 75
     1
175
     1
 42
1.0
 92
        8
 66
     7
 43
1.0
 76
     1
 77
     6
 78
     2
 67
     7
 79
     5
170
     0
171
     0
290
     0
174
     0
 93
       13
 44
0.0
173
     0
291
     1
 45
0.0
1001
ACAD
1000
AcDbSavedByObjectVersion
1070
     0
  0
VISUALSTYLE
  5
2C
102
{ACAD_REACTORS
330
2A
102
}
330
2A
100
AcDbVisualStyle
  2
FlatWithEdges
 70
     1
 71
     2
 72
     1
 73
     1
 90
        2
 40
-0.6
 41
30.0
 62
     5
 63
     7
421
 16777215
 74
     1
 91
        4
 64
     7
 65
   257
 75
     1
175
     1
 42
1.0
 92
        0
 66
   257
 43
1.0
 76
     1
 77
     6
 78
     2
 67
     7
 79
     5
170
     0
171
     0
290
     0
174
     0
 93
       13
 44
0.0
173
     0
291
     1
 45
0.0
1001
ACAD
1000
AcDbSavedByObjectVersion
1070
     0
  0
VISUALSTYLE
  5
2D
102
{ACAD_REACTORS
330
2A
102
}
330
2A
100
AcDbVisualStyle
  2
Gouraud
 70
     2
 71
     2
 72
     2
 73
     1
 90
        2
 40
-0.6
 41
30.0
 62
     5
 63
     7
421
 16777215
 74
     0
 91
        4
 64
     7
 65
   257
 75
     1
175
     1
 42
1.0
 92
        0
 66
     7
 43
1.0
 76
     1
 77
     6
 78
     2
 67
     7
 79
     5
170
     0
171
     0
290
     0
174
     0
 93
       13
 44
0.0
173
     0
291
     1
 45
0.0
1001
ACAD
1000
AcDbSavedByObjectVersion
1070
     0
  0
VISUALSTYLE
  5
2E
102
{ACAD_REACTORS
330
2A
102
}
330
2A
100
AcDbVisualStyle
  2
GouraudWithEdges
 70
     3
 71
     2
 72
     2
 73
     1
 90
        2
 40
-0.6
 41
30.0
 62
     5
 63
     7
421
 16777215
 74
     1
 91
        4
 64
     7
 65
   257
 75
     1
175
     1
 42
1.0
 92
        0
 66
   257
 43
1.0
 76
     1
 77
     6
 78
     2
 67
     7
 79
     5
170
     0
171
     0
290
     0
174
     0
 93
       13
 44
0.0
173
     0
291
     1
 45
0.0
1001
ACAD
1000
AcDbSavedByObjectVersion
1070
     0
  0
VISUALSTYLE
  5
38
102
{ACAD_REACTORS
330
2A
102
}
330
2A
100
AcDbVisualStyle
  2
Linepattern
 70
    14
 71
     2
 72
     2
 73
     0
 90
        0
 40
-0.6
 41
-30.0
 62
     5
 63
     7
421
 16777215
 74
     1
 91
        4
 64
     7
 65
   257
 75
     7
175
     7
 42
1.0
 92
        8
 66
     7
 43
1.0
 76
     1
 77
     6
 78
     2
 67
     7
 79
     5
170
     0
171
     0
290
     0
174
     0
 93
        1
 44
0.0
173
     0
291
     1
 45
0.0
1001
ACAD
1000
AcDbSavedByObjectVersion
1070
     0
  0
VISUALSTYLE
  5
33
102
{ACAD_REACTORS
330
2A
102
}
330
2A
100
AcDbVisualStyle
  2
Realistic
 70
     8
 71
     2
 72
     2
 73
     0
 90
        0
 40
-0.6
 41
-30.0
 62
     5
 63
     7
421
 16777215
 74
     1
 91
        0
 64
     7
 65
   257
 75
     1
175
     1
 42
1.0
 92
        8
 66
     8
424
  7895160
 43
1.0
 76
     1
 77
     6
 78
     2
 67
     7
 79
     5
170
     0
171
     0
290
     0
174
     0
 93
       13
 44
0.0
173
     0
291
     0
 45
0.0
1001
ACAD
1000
AcDbSavedByObjectVersion
1070
     0
  0
VISUALSTYLE
  5
37
102
{ACAD_REACTORS
330
2A
102
}
330
2A
100
AcDbVisualStyle
  2
Thicken
 70
    13
 71
     2
 72
     2
 73
     0
 90
        0
 40
-0.6
 41
-30.0
 62
     5
 63
     7
421
 16777215
 74
     1
 91
        4
 64
     7
 65
   257
 75
     1
175
     1
 42
1.0
 92
       12
 66
     7
 43
1.0
 76
     1
 77
     6
 78
     2
 67
     7
 79
     5
170
     0
171
     0
290
     0
174
     0
 93
        1
 44
0.0
173
     0
291
     1
 45
0.0
1001
ACAD
1000
AcDbSavedByObjectVersion
1070
     0
  0
ENDSEC
  0
EOF
