  0
SECTION
  2
HEADER
  9
$ACADVER
  1
AC1018
  9
$ACADMAINTVER
 70
     0
  9
$DWGCODEPAGE
  3
ANSI_1252
  9
$INSBASE
 10
0.0
 20
0.0
 30
0.0
  9
$EXTMIN
 10
-44.87505379181732
 20
-0.000041595817077
 30
0.0
  9
$EXTMAX
 10
97.0689392942761
 20
83.82975771901722
 30
0.0
  9
$LIMMIN
 10
0.0
 20
0.0
  9
$LIMMAX
 10
12.0
 20
9.0
  9
$ORTHOMODE
 70
     0
  9
$REGENMODE
 70
     1
  9
$FILLMODE
 70
     1
  9
$QTEXTMODE
 70
     0
  9
$MIRRTEXT
 70
     1
  9
$LTSCALE
 40
0.0393700787401575
  9
$ATTMODE
 70
     1
  9
$TEXTSIZE
 40
0.2
  9
$TRACEWID
 40
0.05
  9
$TEXTSTYLE
  7
Standard
  9
$CLAYER
  8
Default
  9
$CELTYPE
  6
ByLayer
  9
$CECOLOR
 62
   256
  9
$CELTSCALE
 40
1.0
  9
$DISPSILH
 70
     0
  9
$DIMSCALE
 40
1.0
  9
$DIMASZ
 40
0.18
  9
$DIMEXO
 40
0.0625
  9
$DIMDLI
 40
0.38
  9
$DIMRND
 40
0.0
  9
$DIMDLE
 40
0.0
  9
$DIMEXE
 40
0.18
  9
$DIMTP
 40
0.0
  9
$DIMTM
 40
0.0
  9
$DIMTXT
 40
0.18
  9
$DIMCEN
 40
0.09
  9
$DIMTSZ
 40
0.0
  9
$DIMTOL
 70
     0
  9
$DIMLIM
 70
     0
  9
$DIMTIH
 70
     1
  9
$DIMTOH
 70
     1
  9
$DIMSE1
 70
     0
  9
$DIMSE2
 70
     0
  9
$DIMTAD
 70
     0
  9
$DIMZIN
 70
     0
  9
$DIMBLK
  1

  9
$DIMASO
 70
     1
  9
$DIMSHO
 70
     1
  9
$DIMPOST
  1

  9
$DIMAPOST
  1

  9
$DIMALT
 70
     0
  9
$DIMALTD
 70
     2
  9
$DIMALTF
 40
25.4
  9
$DIMLFAC
 40
1.0
  9
$DIMTOFL
 70
     0
  9
$DIMTVP
 40
0.0
  9
$DIMTIX
 70
     0
  9
$DIMSOXD
 70
     0
  9
$DIMSAH
 70
     0
  9
$DIMBLK1
  1

  9
$DIMBLK2
  1

  9
$DIMSTYLE
  2
Standard
  9
$DIMCLRD
 70
     0
  9
$DIMCLRE
 70
     0
  9
$DIMCLRT
 70
     0
  9
$DIMTFAC
 40
1.0
  9
$DIMGAP
 40
0.09
  9
$DIMJUST
 70
     0
  9
$DIMSD1
 70
     0
  9
$DIMSD2
 70
     0
  9
$DIMTOLJ
 70
     1
  9
$DIMTZIN
 70
     0
  9
$DIMALTZ
 70
     0
  9
$DIMALTTZ
 70
     0
  9
$DIMUPT
 70
     0
  9
$DIMDEC
 70
     4
  9
$DIMTDEC
 70
     4
  9
$DIMALTU
 70
     2
  9
$DIMALTTD
 70
     2
  9
$DIMTXSTY
  7
Standard
  9
$DIMAUNIT
 70
     0
  9
$DIMADEC
 70
     0
  9
$DIMALTRND
 40
0.0
  9
$DIMAZIN
 70
     0
  9
$DIMDSEP
 70
    46
  9
$DIMATFIT
 70
     3
  9
$DIMFRAC
 70
     0
  9
$DIMLDRBLK
  1

  9
$DIMLUNIT
 70
     2
  9
$DIMLWD
 70
    -2
  9
$DIMLWE
 70
    -2
  9
$DIMTMOVE
 70
     2
  9
$LUNITS
 70
     2
  9
$LUPREC
 70
     3
  9
$SKETCHINC
 40
0.1
  9
$FILLETRAD
 40
0.5
  9
$AUNITS
 70
     0
  9
$AUPREC
 70
     0
  9
$MENU
  1
.
  9
$ELEVATION
 40
0.0
  9
$PELEVATION
 40
0.0
  9
$THICKNESS
 40
0.0
  9
$LIMCHECK
 70
     0
  9
$CHAMFERA
 40
0.5
  9
$CHAMFERB
 40
0.5
  9
$CHAMFERC
 40
1.0
  9
$CHAMFERD
 40
0.0
  9
$SKPOLY
 70
     0
  9
$TDCREATE
 40
2457322.399685822
  9
$TDUCREATE
 40
2457322.566352488
  9
$TDUPDATE
 40
2457322.399685833
  9
$TDUUPDATE
 40
2457322.5663525
  9
$TDINDWG
 40
0.0000000116
  9
$TDUSRTIMER
 40
0.0000000116
  9
$USRTIMER
 70
     1
  9
$ANGBASE
 50
0.0
  9
$ANGDIR
 70
     0
  9
$PDMODE
 70
     0
  9
$PDSIZE
 40
0.0
  9
$PLINEWID
 40
0.0
  9
$SPLFRAME
 70
     0
  9
$SPLINETYPE
 70
     6
  9
$SPLINESEGS
 70
     8
  9
$HANDSEED
  5
95
  9
$SURFTAB1
 70
     6
  9
$SURFTAB2
 70
     6
  9
$SURFTYPE
 70
     6
  9
$SURFU
 70
     6
  9
$SURFV
 70
     6
  9
$UCSBASE
  2

  9
$UCSNAME
  2

  9
$UCSORG
 10
0.0
 20
0.0
 30
0.0
  9
$UCSXDIR
 10
1.0
 20
0.0
 30
0.0
  9
$UCSYDIR
 10
0.0
 20
1.0
 30
0.0
  9
$UCSORTHOREF
  2

  9
$UCSORTHOVIEW
 70
     0
  9
$UCSORGTOP
 10
0.0
 20
0.0
 30
0.0
  9
$UCSORGBOTTOM
 10
0.0
 20
0.0
 30
0.0
  9
$UCSORGLEFT
 10
0.0
 20
0.0
 30
0.0
  9
$UCSORGRIGHT
 10
0.0
 20
0.0
 30
0.0
  9
$UCSORGFRONT
 10
0.0
 20
0.0
 30
0.0
  9
$UCSORGBACK
 10
0.0
 20
0.0
 30
0.0
  9
$PUCSBASE
  2

  9
$PUCSNAME
  2

  9
$PUCSORG
 10
0.0
 20
0.0
 30
0.0
  9
$PUCSXDIR
 10
1.0
 20
0.0
 30
0.0
  9
$PUCSYDIR
 10
0.0
 20
1.0
 30
0.0
  9
$PUCSORTHOREF
  2

  9
$PUCSORTHOVIEW
 70
     0
  9
$PUCSORGTOP
 10
0.0
 20
0.0
 30
0.0
  9
$PUCSORGBOTTOM
 10
0.0
 20
0.0
 30
0.0
  9
$PUCSORGLEFT
 10
0.0
 20
0.0
 30
0.0
  9
$PUCSORGRIGHT
 10
0.0
 20
0.0
 30
0.0
  9
$PUCSORGFRONT
 10
0.0
 20
0.0
 30
0.0
  9
$PUCSORGBACK
 10
0.0
 20
0.0
 30
0.0
  9
$USERI1
 70
     0
  9
$USERI2
 70
     0
  9
$USERI3
 70
     0
  9
$USERI4
 70
     0
  9
$USERI5
 70
     0
  9
$USERR1
 40
0.0
  9
$USERR2
 40
0.0
  9
$USERR3
 40
0.0
  9
$USERR4
 40
0.0
  9
$USERR5
 40
0.0
  9
$WORLDVIEW
 70
     1
  9
$SHADEDGE
 70
     3
  9
$SHADEDIF
 70
    70
  9
$TILEMODE
 70
     1
  9
$MAXACTVP
 70
    64
  9
$PINSBASE
 10
0.0
 20
0.0
 30
0.0
  9
$PLIMCHECK
 70
     0
  9
$PEXTMIN
 10
1.000000000000000E+20
 20
1.000000000000000E+20
 30
1.000000000000000E+20
  9
$PEXTMAX
 10
-1.000000000000000E+20
 20
-1.000000000000000E+20
 30
-1.000000000000000E+20
  9
$PLIMMIN
 10
0.0
 20
0.0
  9
$PLIMMAX
 10
12.0
 20
9.0
  9
$UNITMODE
 70
     0
  9
$VISRETAIN
 70
     1
  9
$PLINEGEN
 70
     0
  9
$PSLTSCALE
 70
     1
  9
$TREEDEPTH
 70
  3020
  9
$CMLSTYLE
  2
Standard
  9
$CMLJUST
 70
     0
  9
$CMLSCALE
 40
1.0
  9
$PROXYGRAPHICS
 70
     1
  9
$MEASUREMENT
 70
     0
  9
$CELWEIGHT
370
    -1
  9
$ENDCAPS
280
     0
  9
$JOINSTYLE
280
     0
  9
$LWDISPLAY
290
     0
  9
$INSUNITS
 70
     1
  9
$HYPERLINKBASE
  1

  9
$STYLESHEET
  1

  9
$XEDIT
290
     1
  9
$CEPSNTYPE
380
     0
  9
$PSTYLEMODE
290
     1
  9
$FINGERPRINTGUID
  2
{22806D63-EC71-42B5-9419-740A5D588D7C}
  9
$VERSIONGUID
  2
{FAEB1C32-E019-11D5-929B-00C0DF256EC4}
  9
$EXTNAMES
290
     1
  9
$PSVPSCALE
 40
0.0
  9
$OLESTARTUP
290
     0
  9
$SORTENTS
280
   127
  9
$INDEXCTL
280
     0
  9
$HIDETEXT
280
     1
  9
$XCLIPFRAME
290
     0
  9
$HALOGAP
280
     0
  9
$OBSCOLOR
 70
   257
  9
$OBSLTYPE
280
     0
  9
$INTERSECTIONDISPLAY
280
     0
  9
$INTERSECTIONCOLOR
 70
   257
  9
$DIMASSOC
280
     2
  9
$PROJECTNAME
  1

  0
ENDSEC
  0
SECTION
  2
CLASSES
  0
CLASS
  1
ACDBDICTIONARYWDFLT
  2
AcDbDictionaryWithDefault
  3
ObjectDBX Classes
 90
        0
 91
        4
280
     0
281
     0
  0
CLASS
  1
VISUALSTYLE
  2
AcDbVisualStyle
  3
ObjectDBX Classes
 90
     4095
 91
        4
280
     0
281
     0
  0
ENDSEC
  0
SECTION
  2
TABLES
  0
TABLE
  2
VPORT
  5
8
330
0
100
AcDbSymbolTable
 70
     1
  0
VPORT
  5
29
330
8
100
AcDbSymbolTableRecord
100
AcDbViewportTableRecord
  2
*Active
 70
     0
 10
0.0
 20
0.0
 11
1.0
 21
1.0
 12
26.09694275122939
 22
41.91485806160007
 13
0.0
 23
0.0
 14
0.5
 24
0.5
 15
0.5
 25
0.5
 16
0.0
 26
0.0
 36
1.0
 17
0.0
 27
0.0
 37
0.0
 40
85.506395301131
 41
1.693240282647025
 42
50.0
 43
0.0
 44
0.0
 50
0.0
 51
0.0
 71
     0
 72
   100
 73
     1
 74
     3
 75
     0
 76
     0
 77
     0
 78
     0
281
     0
 65
     1
110
0.0
120
0.0
130
0.0
111
1.0
121
0.0
131
0.0
112
0.0
122
1.0
132
0.0
 79
     0
146
0.0
  0
ENDTAB
  0
TABLE
  2
LTYPE
  5
5
330
0
100
AcDbSymbolTable
 70
     1
  0
LTYPE
  5
14
330
5
100
AcDbSymbolTableRecord
100
AcDbLinetypeTableRecord
  2
ByBlock
 70
     0
  3

 72
    65
 73
     0
 40
0.0
  0
LTYPE
  5
15
330
5
100
AcDbSymbolTableRecord
100
AcDbLinetypeTableRecord
  2
ByLayer
 70
     0
  3

 72
    65
 73
     0
 40
0.0
  0
LTYPE
  5
16
330
5
100
AcDbSymbolTableRecord
100
AcDbLinetypeTableRecord
  2
Continuous
 70
     0
  3
Solid line
 72
    65
 73
     0
 40
0.0
  0
ENDTAB
  0
TABLE
  2
LAYER
  5
2
330
0
100
AcDbSymbolTable
 70
     2
  0
LAYER
  5
10
330
2
100
AcDbSymbolTableRecord
100
AcDbLayerTableRecord
  2
0
 70
     0
 62
     7
  6
Continuous
370
    -3
390
F
  0
LAYER
  5
3B
330
2
100
AcDbSymbolTableRecord
100
AcDbLayerTableRecord
  2
Default
 70
     0
 62
     7
  6
Continuous
370
    -3
390
F
  0
ENDTAB
  0
TABLE
  2
STYLE
  5
3
330
0
100
AcDbSymbolTable
 70
     1
  0
STYLE
  5
11
330
3
100
AcDbSymbolTableRecord
100
AcDbTextStyleTableRecord
  2
Standard
 70
     0
 40
0.0
 41
1.0
 50
0.0
 71
     0
 42
0.2
  3
txt
  4

  0
ENDTAB
  0
TABLE
  2
VIEW
  5
6
330
0
100
AcDbSymbolTable
 70
     0
  0
ENDTAB
  0
TABLE
  2
UCS
  5
7
330
0
100
AcDbSymbolTable
 70
     0
  0
ENDTAB
  0
TABLE
  2
APPID
  5
9
330
0
100
AcDbSymbolTable
 70
     1
  0
APPID
  5
12
330
9
100
AcDbSymbolTableRecord
100
AcDbRegAppTableRecord
  2
ACAD
 70
     0
  0
ENDTAB
  0
TABLE
  2
DIMSTYLE
  5
A
330
0
100
AcDbSymbolTable
 70
     1
100
AcDbDimStyleTable
  0
DIMSTYLE
105
27
330
A
100
AcDbSymbolTableRecord
100
AcDbDimStyleTableRecord
  2
Standard
 70
     0
340
11
  0
ENDTAB
  0
TABLE
  2
BLOCK_RECORD
  5
1
330
0
100
AcDbSymbolTable
 70
     1
  0
BLOCK_RECORD
  5
1F
330
1
100
AcDbSymbolTableRecord
100
AcDbBlockTableRecord
  2
*Model_Space
340
22
  0
BLOCK_RECORD
  5
1B
330
1
100
AcDbSymbolTableRecord
100
AcDbBlockTableRecord
  2
*Paper_Space
340
1E
  0
BLOCK_RECORD
  5
23
330
1
100
AcDbSymbolTableRecord
100
AcDbBlockTableRecord
  2
*Paper_Space0
340
26
  0
ENDTAB
  0
ENDSEC
  0
SECTION
  2
BLOCKS
  0
BLOCK
  5
20
330
1F
100
AcDbEntity
  8
0
100
AcDbBlockBegin
  2
*Model_Space
 70
     0
 10
0.0
 20
0.0
 30
0.0
  3
*Model_Space
  1

  0
ENDBLK
  5
21
330
1F
100
AcDbEntity
  8
0
100
AcDbBlockEnd
  0
BLOCK
  5
1C
330
1B
100
AcDbEntity
 67
     1
  8
0
100
AcDbBlockBegin
  2
*Paper_Space
 70
     0
 10
0.0
 20
0.0
 30
0.0
  3
*Paper_Space
  1

  0
ENDBLK
  5
1D
330
1B
100
AcDbEntity
 67
     1
  8
0
100
AcDbBlockEnd
  0
BLOCK
  5
24
330
23
100
AcDbEntity
  8
0
100
AcDbBlockBegin
  2
*Paper_Space0
 70
     0
 10
0.0
 20
0.0
 30
0.0
  3
*Paper_Space0
  1

  0
ENDBLK
  5
25
330
23
100
AcDbEntity
  8
0
100
AcDbBlockEnd
  0
ENDSEC
  0
SECTION
  2
ENTITIES
  0
SPLINE
  5
3C
330
1F
100
AcDbEntity
  8
Default
100
AcDbSpline
210
0.0
220
0.0
230
1.0
 70
    15
 71
     2
 72
    20
 73
    17
 74
     0
 42
0.0000000001
 43
0.0000000001
 40
0.0
 40
0.0
 40
0.0
 40
1.178097245096172
 40
1.178097245096172
 40
62.6781512531209
 40
62.6781512531209
 40
63.85624849821708
 40
63.85624849821708
 40
66.85624849821707
 40
66.85624849821707
 40
68.03434574331324
 40
68.03434574331324
 40
129.534399751338
 40
129.534399751338
 40
130.7124969964341
 40
130.7124969964341
 40
133.7124969964341
 40
133.7124969964341
 40
133.7124969964341
 10
-44.87505364180049
 20
14.13581777831481
 30
0.0
 41
1.0
 10
-44.8750536418006
 20
13.38581777831478
 30
0.0
 41
0.7071067811865476
 10
-44.12505364180049
 20
13.38581777831481
 30
0.0
 41
1.0
 10
-0.0000270036463235
 20
13.38581777831481
 30
0.0
 41
1.0
 10
44.12499963450762
 20
13.38581777831481
 30
0.0
 41
1.0
 10
44.87499963450767
 20
13.38581777831478
 30
0.0
 41
0.7071067811865476
 10
44.87499963450762
 20
14.13581777831481
 30
0.0
 41
1.0
 10
44.87499963450762
 20
15.63581777831481
 30
0.0
 41
1.0
 10
44.87499963450762
 20
17.13581777831481
 30
0.0
 41
1.0
 10
44.87499963450767
 20
17.88581777831481
 30
0.0
 41
0.7071067811865476
 10
44.12499963450762
 20
17.88581777831481
 30
0.0
 41
1.0
 10
-0.0000270036463235
 20
17.88581777831481
 30
0.0
 41
1.0
 10
-44.12505364180049
 20
17.88581777831481
 30
0.0
 41
1.0
 10
-44.8750536418006
 20
17.88581777831481
 30
0.0
 41
0.7071067811865476
 10
-44.87505364180049
 20
17.13581777831481
 30
0.0
 41
1.0
 10
-44.87505364180049
 20
15.63581777831481
 30
0.0
 41
1.0
 10
-44.87505364180049
 20
14.13581777831481
 30
0.0
 41
1.0
  0
POLYLINE
  5
3D
330
1F
100
AcDbEntity
  8
Default
100
AcDb2dPolyline
 66
     1
 10
0.0
 20
0.0
 30
0.0
  0
VERTEX
  5
3E
330
3D
100
AcDbEntity
  8
Default
100
AcDbVertex
100
AcDb2dVertex
 10
59.87497278087812
 20
29.33070609940184
 30
0.0
  0
VERTEX
  5
3F
330
3D
100
AcDbEntity
  8
Default
100
AcDbVertex
100
AcDb2dVertex
 10
69.70915147230153
 20
29.33070609940184
 30
0.0
  0
VERTEX
  5
40
330
3D
100
AcDbEntity
  8
Default
100
AcDbVertex
100
AcDb2dVertex
 10
69.70915147230153
 20
30.3149591157921
 30
0.0
  0
VERTEX
  5
41
330
3D
100
AcDbEntity
  8
Default
100
AcDbVertex
100
AcDb2dVertex
 10
59.87497278087812
 20
30.3149591157921
 30
0.0
  0
VERTEX
  5
42
330
3D
100
AcDbEntity
  8
Default
100
AcDbVertex
100
AcDb2dVertex
 10
59.87497278087812
 20
29.33070609940184
 30
0.0
  0
SEQEND
  5
43
330
3D
100
AcDbEntity
  8
Default
  0
POLYLINE
  5
44
330
1F
100
AcDbEntity
  8
Default
100
AcDb2dPolyline
 66
     1
 10
0.0
 20
0.0
 30
0.0
  0
VERTEX
  5
45
330
44
100
AcDbEntity
  8
Default
100
AcDbVertex
100
AcDb2dVertex
 10
63.81198697706964
 20
26.96850137504648
 30
0.0
  0
VERTEX
  5
46
330
44
100
AcDbEntity
  8
Default
100
AcDbVertex
100
AcDb2dVertex
 10
65.78049091407752
 20
26.96850137504648
 30
0.0
  0
SEQEND
  5
47
330
44
100
AcDbEntity
  8
Default
  0
ARC
  5
48
330
1F
100
AcDbEntity
  8
Default
100
AcDbCircle
 10
78.81888498621788
 20
14.13581777831481
 30
0.0
 40
0.75
100
AcDbArc
 50
180.0
 51
270.0
  0
SPLINE
  5
49
330
1F
100
AcDbEntity
  8
Default
100
AcDbSpline
210
0.0
220
0.0
230
1.0
 70
    24
 71
     2
 72
     6
 73
     3
 74
     0
 42
0.0000000001
 43
0.0000000001
 40
0.7500000000000001
 40
0.7500000000000001
 40
0.7500000000000001
 40
18.25005430805824
 40
18.25005430805824
 40
18.25005430805824
 10
78.81888498621788
 20
13.38581777831481
 30
0.0
 10
87.568912140247
 20
13.38581777831481
 30
0.0
 10
96.3189392942761
 20
13.38581777831481
 30
0.0
  0
ARC
  5
4A
330
1F
100
AcDbEntity
  8
Default
100
AcDbCircle
 10
96.3189392942761
 20
14.13581777831481
 30
0.0
 40
0.75
100
AcDbArc
 50
270.0
 51
0.0
  0
SPLINE
  5
4B
330
1F
100
AcDbEntity
  8
Default
100
AcDbSpline
210
0.0
220
0.0
230
1.0
 70
    24
 71
     2
 72
     6
 73
     3
 74
     0
 42
0.0000000001
 43
0.0000000001
 40
19.75005430805824
 40
19.75005430805824
 40
19.75005430805824
 40
22.75005430805827
 40
22.75005430805827
 40
22.75005430805827
 10
97.0689392942761
 20
14.13581777831481
 30
0.0
 10
97.0689392942761
 20
15.63581777831483
 30
0.0
 10
97.0689392942761
 20
17.13581777831486
 30
0.0
  0
ARC
  5
4C
330
1F
100
AcDbEntity
  8
Default
100
AcDbCircle
 10
96.3189392942761
 20
17.13581777831486
 30
0.0
 40
0.75
100
AcDbArc
 50
0.0
 51
90.0
  0
SPLINE
  5
4D
330
1F
100
AcDbEntity
  8
Default
100
AcDbSpline
210
0.0
220
0.0
230
1.0
 70
    24
 71
     2
 72
     6
 73
     3
 74
     0
 42
0.0000000001
 43
0.0000000001
 40
24.25005430805827
 40
24.25005430805827
 40
24.25005430805827
 40
41.75010861611651
 40
41.75010861611651
 40
41.75010861611651
 10
96.3189392942761
 20
17.88581777831486
 30
0.0
 10
87.568912140247
 20
17.88581777831486
 30
0.0
 10
78.81888498621788
 20
17.88581777831486
 30
0.0
  0
ARC
  5
4E
330
1F
100
AcDbEntity
  8
Default
100
AcDbCircle
 10
78.81888498621788
 20
17.13581777831486
 30
0.0
 40
0.75
100
AcDbArc
 50
90.0
 51
180.0
  0
SPLINE
  5
4F
330
1F
100
AcDbEntity
  8
Default
100
AcDbSpline
210
0.0
220
0.0
230
1.0
 70
    24
 71
     2
 72
     6
 73
     3
 74
     0
 42
0.0000000001
 43
0.0000000001
 40
43.25010861611651
 40
43.25010861611651
 40
43.25010861611651
 40
46.25010861611655
 40
46.25010861611655
 40
46.25010861611655
 10
78.06888498621788
 20
17.13581777831486
 30
0.0
 10
78.06888498621788
 20
15.63581777831483
 30
0.0
 10
78.06888498621788
 20
14.13581777831481
 30
0.0
  0
SPLINE
  5
50
330
1F
100
AcDbEntity
  8
Default
100
AcDbSpline
210
0.0
220
0.0
230
1.0
 70
    24
 71
     2
 72
     6
 73
     3
 74
     0
 42
0.0000000001
 43
0.0000000001
 40
0.0
 40
0.0
 40
0.0
 40
2.362204724409448
 40
2.362204724409448
 40
2.362204724409448
 10
65.69832077529236
 20
11.02361305390538
 30
0.0
 10
65.69832077529236
 20
12.20471541611009
 30
0.0
 10
65.69832077529236
 20
13.38581777831481
 30
0.0
  0
SPLINE
  5
51
330
1F
100
AcDbEntity
  8
Default
100
AcDbSpline
210
0.0
220
0.0
230
1.0
 70
    24
 71
     2
 72
     6
 73
     3
 74
     0
 42
0.0000000001
 43
0.0000000001
 40
0.0
 40
0.0
 40
0.0
 40
2.362204724409448
 40
2.362204724409448
 40
2.362204724409448
 10
94.4222398568204
 20
11.02361305390538
 30
0.0
 10
94.4222398568204
 20
12.20471541611009
 30
0.0
 10
94.4222398568204
 20
13.38581777831481
 30
0.0
  0
SPLINE
  5
52
330
1F
100
AcDbEntity
  8
Default
100
AcDbSpline
210
0.0
220
0.0
230
1.0
 70
    24
 71
     2
 72
     6
 73
     3
 74
     0
 42
0.0000000001
 43
0.0000000001
 40
0.0
 40
0.0
 40
0.0
 40
2.362204724409448
 40
2.362204724409448
 40
2.362204724409448
 10
65.78049091407752
 20
26.96850137504648
 30
0.0
 10
65.78049091407752
 20
28.14960373725122
 30
0.0
 10
65.78049091407752
 20
29.33070609945596
 30
0.0
  0
SPLINE
  5
53
330
1F
100
AcDbEntity
  8
Default
100
AcDbSpline
210
0.0
220
0.0
230
1.0
 70
    24
 71
     2
 72
     6
 73
     3
 74
     0
 42
0.0000000001
 43
0.0000000001
 40
0.0
 40
0.0
 40
0.0
 40
26.83758528330782
 40
26.83758528330782
 40
26.83758528330782
 10
92.53590605860018
 20
11.02361305390538
 30
0.0
 10
79.11711341694627
 20
11.02361305390538
 30
0.0
 10
65.69832077529236
 20
11.02361305390538
 30
0.0
  0
SPLINE
  5
54
330
1F
100
AcDbEntity
  8
Default
100
AcDbSpline
210
0.0
220
0.0
230
1.0
 70
    15
 71
     2
 72
    20
 73
    17
 74
     0
 42
0.0000000001
 43
0.0000000001
 40
0.0
 40
0.0
 40
0.0
 40
1.178097245096172
 40
1.178097245096172
 40
62.67815155315452
 40
62.67815155315452
 40
63.85624879825069
 40
63.85624879825069
 40
69.10624879828465
 40
69.10624879828465
 40
70.28434604338082
 40
70.28434604338082
 40
131.7844003514392
 40
131.7844003514392
 40
132.9624975965353
 40
132.9624975965353
 40
138.2124975965693
 40
138.2124975965693
 40
138.2124975965693
 10
-44.87505379181732
 20
67.38587221654315
 30
0.0
 41
1.0
 10
-44.87505379181739
 20
66.63587221654312
 30
0.0
 41
0.7071067811865476
 10
-44.12505379181732
 20
66.63587221654315
 30
0.0
 41
1.0
 10
-0.0000270036463235
 20
66.63587221654315
 30
0.0
 41
1.0
 10
44.12499978452445
 20
66.63587221654315
 30
0.0
 41
1.0
 10
44.87499978452446
 20
66.63587221654312
 30
0.0
 41
0.7071067811865476
 10
44.87499978452445
 20
67.38587221654315
 30
0.0
 41
1.0
 10
44.87499978452445
 20
70.0108722165602
 30
0.0
 41
1.0
 10
44.87499978452445
 20
72.63587221657714
 30
0.0
 41
1.0
 10
44.87499978452446
 20
73.38587221657714
 30
0.0
 41
0.7071067811865476
 10
44.12499978452445
 20
73.38587221657714
 30
0.0
 41
1.0
 10
-0.0000270036463235
 20
73.38587221657714
 30
0.0
 41
1.0
 10
-44.12505379181732
 20
73.38587221657714
 30
0.0
 41
1.0
 10
-44.87505379181739
 20
73.38587221657714
 30
0.0
 41
0.7071067811865476
 10
-44.87505379181732
 20
72.63587221657714
 30
0.0
 41
1.0
 10
-44.87505379181732
 20
70.0108722165602
 30
0.0
 41
1.0
 10
-44.87505379181732
 20
67.38587221654315
 30
0.0
 41
1.0
  0
SPLINE
  5
55
330
1F
100
AcDbEntity
  8
Default
100
AcDbSpline
210
0.0
220
0.0
230
1.0
 70
    24
 71
     2
 72
     6
 73
     3
 74
     0
 42
0.0000000001
 43
0.0000000001
 40
-10.03937007878633
 40
-10.03937007878633
 40
-10.03937007878633
 40
0.0
 40
0.0
 40
0.0
 10
92.45373591981252
 20
11.02361305390538
 30
0.0
 10
92.4537359198124
 20
6.003927565558019
 30
0.0
 10
92.45373591981229
 20
0.9842420772106557
 30
0.0
  0
SPLINE
  5
56
330
1F
100
AcDbEntity
  8
Default
100
AcDbSpline
210
0.0
220
0.0
230
1.0
 70
    12
 71
     2
 72
    12
 73
     9
 74
     0
 42
0.0000000001
 43
0.0000000001
 40
0.0
 40
0.0
 40
0.0
 40
0.7730450936832355
 40
0.7730450936832355
 40
1.546090187366471
 40
1.546090187366471
 40
2.319135281049706
 40
2.319135281049706
 40
3.092180374732942
 40
3.092180374732942
 40
3.092180374732942
 10
92.45373591981229
 20
0.9842420772106557
 30
0.0
 41
1.0
 10
92.4537231592112
 20
0.5765416411322692
 30
0.0
 41
0.9238765377170371
 10
92.7420057564334
 20
0.2882500218892297
 30
0.0
 41
1.0
 10
93.03028835365534
 20
-0.0000415973538283
 30
0.0
 41
0.9238765377170371
 10
93.43798789202515
 20
-0.000041595817077
 30
0.0
 41
1.0
 10
93.84568743039482
 20
-0.0000415942803049
 30
0.0
 41
0.9238765377170371
 10
94.13397002544366
 20
0.2882500271361046
 30
0.0
 41
1.0
 10
94.42225262049207
 20
0.5765416485524958
 30
0.0
 41
0.9238765377170371
 10
94.4222398568188
 20
0.9842420809209962
 30
0.0
 41
1.0
  0
SPLINE
  5
57
330
1F
100
AcDbEntity
  8
Default
100
AcDbSpline
210
0.0
220
0.0
230
1.0
 70
    24
 71
     2
 72
     6
 73
     3
 74
     0
 42
0.0000000001
 43
0.0000000001
 40
0.0
 40
0.0
 40
0.0
 40
10.03937007878576
 40
10.03937007878576
 40
10.03937007878576
 10
94.4222398568188
 20
0.9842420809209962
 30
0.0
 10
94.4222398568196
 20
6.003927567413189
 30
0.0
 10
94.4222398568204
 20
11.02361305390538
 30
0.0
  0
POLYLINE
  5
58
330
1F
100
AcDbEntity
  8
Default
100
AcDb2dPolyline
 66
     1
 10
0.0
 20
0.0
 30
0.0
  0
VERTEX
  5
59
330
58
100
AcDbEntity
  8
Default
100
AcDbVertex
100
AcDb2dVertex
 10
65.69832077529372
 20
13.38581777831481
 30
0.0
  0
VERTEX
  5
5A
330
58
100
AcDbEntity
  8
Default
100
AcDbVertex
100
AcDb2dVertex
 10
63.81198697706964
 20
13.38582099400329
 30
0.0
  0
SEQEND
  5
5B
330
58
100
AcDbEntity
  8
Default
  0
SPLINE
  5
5C
330
1F
100
AcDbEntity
  8
Default
100
AcDbSpline
210
0.0
220
0.0
230
1.0
 70
    24
 71
     2
 72
     6
 73
     3
 74
     0
 42
0.0000000001
 43
0.0000000001
 40
-10.03937007878633
 40
-10.03937007878633
 40
-10.03937007878633
 40
0.0
 40
0.0
 40
0.0
 10
63.81198697705872
 20
11.02361305390538
 30
0.0
 10
63.81198697705861
 20
6.003927565558019
 30
0.0
 10
63.8119869770585
 20
0.9842420772106557
 30
0.0
  0
SPLINE
  5
5D
330
1F
100
AcDbEntity
  8
Default
100
AcDbSpline
210
0.0
220
0.0
230
1.0
 70
    12
 71
     2
 72
    12
 73
     9
 74
     0
 42
0.0000000001
 43
0.0000000001
 40
0.0
 40
0.0
 40
0.0
 40
0.7730450936832355
 40
0.7730450936832355
 40
1.546090187366471
 40
1.546090187366471
 40
2.319135281049706
 40
2.319135281049706
 40
3.092180374732942
 40
3.092180374732942
 40
3.092180374732942
 10
63.8119869770585
 20
0.9842420772106557
 30
0.0
 41
1.0
 10
63.81197421645743
 20
0.5765416411322692
 30
0.0
 41
0.9238765377170371
 10
64.10025681367961
 20
0.2882500218892297
 30
0.0
 41
1.0
 10
64.38853941090157
 20
-0.0000415973538283
 30
0.0
 41
0.9238765377170371
 10
64.79623894927158
 20
-0.000041595817077
 30
0.0
 41
1.0
 10
65.20393848764107
 20
-0.0000415942803049
 30
0.0
 41
0.9238765377170371
 10
65.49222108268987
 20
0.2882500271361046
 30
0.0
 41
1.0
 10
65.78050367773832
 20
0.5765416485524958
 30
0.0
 41
0.9238765377170371
 10
65.78049091406524
 20
0.9842420809209962
 30
0.0
 41
1.0
  0
SPLINE
  5
5E
330
1F
100
AcDbEntity
  8
Default
100
AcDbSpline
210
0.0
220
0.0
230
1.0
 70
    24
 71
     2
 72
     6
 73
     3
 74
     0
 42
0.0000000001
 43
0.0000000001
 40
0.0
 40
0.0
 40
0.0
 40
10.03937007878576
 40
10.03937007878576
 40
10.03937007878576
 10
65.78049091406524
 20
0.9842420809209962
 30
0.0
 10
65.78049091406592
 20
6.003927567413189
 30
0.0
 10
65.7804909140666
 20
11.02361305390538
 30
0.0
  0
SPLINE
  5
5F
330
1F
100
AcDbEntity
  8
Default
100
AcDbSpline
210
0.0
220
0.0
230
1.0
 70
    24
 71
     2
 72
     6
 73
     3
 74
     0
 42
0.0000000001
 43
0.0000000001
 40
0.0
 40
0.0
 40
0.0
 40
0.6013594952419226
 40
0.6013594952419226
 40
0.6013594952419226
 10
35.02855429672047
 20
73.38587221656014
 30
0.0
 10
35.02855429672047
 20
73.6865519641811
 30
0.0
 10
35.02855429672047
 20
73.98723171180207
 30
0.0
  0
SPLINE
  5
60
330
1F
100
AcDbEntity
  8
Default
100
AcDbSpline
210
0.0
220
0.0
230
1.0
 70
    24
 71
     2
 72
     6
 73
     3
 74
     0
 42
0.0000000001
 43
0.0000000001
 40
0.0
 40
0.0
 40
0.0
 40
1.000053706529059
 40
1.000053706529059
 40
1.000053706529059
 10
-35.02853158542405
 20
65.63581851003109
 30
0.0
 10
-35.02853158542405
 20
66.13584536329562
 30
0.0
 10
-35.02853158542405
 20
66.63587221656014
 30
0.0
  0
SPLINE
  5
61
330
1F
100
AcDbEntity
  8
Default
100
AcDbSpline
210
0.0
220
0.0
230
1.0
 70
    24
 71
     2
 72
     6
 73
     3
 74
     0
 42
0.0000000001
 43
0.0000000001
 40
0.0
 40
0.0
 40
0.0
 40
0.6013594952419226
 40
0.6013594952419226
 40
0.6013594952419226
 10
-35.02853158542405
 20
73.38587221656014
 30
0.0
 10
-35.02853158542405
 20
73.6865519641811
 30
0.0
 10
-35.02853158542405
 20
73.98723171180207
 30
0.0
  0
SPLINE
  5
62
330
1F
100
AcDbEntity
  8
Default
100
AcDbSpline
210
0.0
220
0.0
230
1.0
 70
    24
 71
     2
 72
     6
 73
     3
 74
     0
 42
0.0000000001
 43
0.0000000001
 40
0.0
 40
0.0
 40
0.0
 40
2.362204724409448
 40
2.362204724409448
 40
2.362204724409448
 10
63.81198697706964
 20
29.33070609945596
 30
0.0
 10
63.81198697706964
 20
28.14960373725122
 30
0.0
 10
63.81198697706964
 20
26.96850137504648
 30
0.0
  0
SPLINE
  5
63
330
1F
100
AcDbEntity
  8
Default
100
AcDbSpline
210
0.0
220
0.0
230
1.0
 70
    24
 71
     2
 72
     6
 73
     3
 74
     0
 42
0.0000000001
 43
0.0000000001
 40
0.0
 40
0.0
 40
0.0
 40
13.58268038104319
 40
13.58268038104319
 40
13.58268038104319
 10
63.81198697706964
 20
26.96850137504648
 30
0.0
 10
63.81198697706964
 20
20.17716118452488
 30
0.0
 10
63.81198697706964
 20
13.38582099400329
 30
0.0
  0
SPLINE
  5
64
330
1F
100
AcDbEntity
  8
Default
100
AcDbSpline
210
0.0
220
0.0
230
1.0
 70
    24
 71
     2
 72
     6
 73
     3
 74
     0
 42
0.0000000001
 43
0.0000000001
 40
-10.03937007878633
 40
-10.03937007878633
 40
-10.03937007878633
 40
0.0
 40
0.0
 40
0.0
 10
-34.43800311561802
 20
11.02361305390538
 30
0.0
 10
-34.4380031156179
 20
6.003927565558019
 30
0.0
 10
-34.43800311561779
 20
0.9842420772106557
 30
0.0
  0
SPLINE
  5
65
330
1F
100
AcDbEntity
  8
Default
100
AcDbSpline
210
0.0
220
0.0
230
1.0
 70
    12
 71
     2
 72
    12
 73
     9
 74
     0
 42
0.0000000001
 43
0.0000000001
 40
0.0
 40
0.0
 40
0.0
 40
0.7730450936832355
 40
0.7730450936832355
 40
1.546090187366471
 40
1.546090187366471
 40
2.319135281049706
 40
2.319135281049706
 40
3.092180374732942
 40
3.092180374732942
 40
3.092180374732942
 10
-34.43800311561779
 20
0.9842420772106557
 30
0.0
 41
1.0
 10
-34.43799035501677
 20
0.5765416411322692
 30
0.0
 41
0.9238765377170371
 10
-34.7262729522389
 20
0.2882500218892297
 30
0.0
 41
1.0
 10
-35.01455554946092
 20
-0.0000415973538283
 30
0.0
 41
0.9238765377170371
 10
-35.42225508783088
 20
-0.000041595817077
 30
0.0
 41
1.0
 10
-35.8299546262004
 20
-0.0000415942803049
 30
0.0
 41
0.9238765377170371
 10
-36.11823722124893
 20
0.2882500271361046
 30
0.0
 41
1.0
 10
-36.40651981629766
 20
0.5765416485524958
 30
0.0
 41
0.9238765377170371
 10
-36.40650705262453
 20
0.9842420809209962
 30
0.0
 41
1.0
  0
SPLINE
  5
66
330
1F
100
AcDbEntity
  8
Default
100
AcDbSpline
210
0.0
220
0.0
230
1.0
 70
    24
 71
     2
 72
     6
 73
     3
 74
     0
 42
0.0000000001
 43
0.0000000001
 40
0.0
 40
0.0
 40
0.0
 40
10.03937007878576
 40
10.03937007878576
 40
10.03937007878576
 10
-36.40650705262453
 20
0.9842420809209962
 30
0.0
 10
-36.40650705262522
 20
6.003927567413189
 30
0.0
 10
-36.4065070526259
 20
11.02361305390538
 30
0.0
  0
SPLINE
  5
67
330
1F
100
AcDbEntity
  8
Default
100
AcDbSpline
210
0.0
220
0.0
230
1.0
 70
    24
 71
     2
 72
     6
 73
     3
 74
     0
 42
0.0000000001
 43
0.0000000001
 40
0.0
 40
0.0
 40
0.0
 40
2.362204724409448
 40
2.362204724409448
 40
2.362204724409448
 10
-36.4065070526259
 20
13.38581777831481
 30
0.0
 10
-36.4065070526259
 20
12.20471541611009
 30
0.0
 10
-36.4065070526259
 20
11.02361305390538
 30
0.0
  0
SPLINE
  5
68
330
1F
100
AcDbEntity
  8
Default
100
AcDbSpline
210
0.0
220
0.0
230
1.0
 70
    24
 71
     2
 72
     6
 73
     3
 74
     0
 42
0.0000000001
 43
0.0000000001
 40
0.0
 40
0.0
 40
0.0
 40
1.968503937007881
 40
1.968503937007881
 40
1.968503937007881
 10
-36.4065070526259
 20
11.02361305390538
 30
0.0
 10
-35.42225508412196
 20
11.02361305390538
 30
0.0
 10
-34.43800311561802
 20
11.02361305390538
 30
0.0
  0
SPLINE
  5
69
330
1F
100
AcDbEntity
  8
Default
100
AcDbSpline
210
0.0
220
0.0
230
1.0
 70
    24
 71
     2
 72
     6
 73
     3
 74
     0
 42
0.0000000001
 43
0.0000000001
 40
0.0
 40
0.0
 40
0.0
 40
2.362204724409448
 40
2.362204724409448
 40
2.362204724409448
 10
-34.43800311561802
 20
13.38581777831481
 30
0.0
 10
-34.43800311561802
 20
12.20471541611009
 30
0.0
 10
-34.43800311561802
 20
11.02361305390538
 30
0.0
  0
POLYLINE
  5
6A
330
1F
100
AcDbEntity
  8
Default
100
AcDb2dPolyline
 66
     1
 10
0.0
 20
0.0
 30
0.0
  0
VERTEX
  5
6B
330
6A
100
AcDbEntity
  8
Default
100
AcDbVertex
100
AcDb2dVertex
 10
34.43802582691421
 20
11.02361305390538
 30
0.0
  0
VERTEX
  5
6C
330
6A
100
AcDbEntity
  8
Default
100
AcDbVertex
100
AcDb2dVertex
 10
36.40652976392209
 20
11.02361305390538
 30
0.0
  0
SEQEND
  5
6D
330
6A
100
AcDbEntity
  8
Default
  0
SPLINE
  5
6E
330
1F
100
AcDbEntity
  8
Default
100
AcDbSpline
210
0.0
220
0.0
230
1.0
 70
    24
 71
     2
 72
     6
 73
     3
 74
     0
 42
0.0000000001
 43
0.0000000001
 40
0.0
 40
0.0
 40
0.0
 40
2.362204724409448
 40
2.362204724409448
 40
2.362204724409448
 10
34.43802582691421
 20
11.02361305390538
 30
0.0
 10
34.43802582691421
 20
12.20471541611009
 30
0.0
 10
34.43802582691421
 20
13.38581777831481
 30
0.0
  0
POLYLINE
  5
6F
330
1F
100
AcDbEntity
  8
Default
100
AcDb2dPolyline
 66
     1
 10
0.0
 20
0.0
 30
0.0
  0
VERTEX
  5
70
330
6F
100
AcDbEntity
  8
Default
100
AcDbVertex
100
AcDb2dVertex
 10
92.53590605860018
 20
11.02361305390538
 30
0.0
  0
VERTEX
  5
71
330
6F
100
AcDbEntity
  8
Default
100
AcDbVertex
100
AcDb2dVertex
 10
94.4222398568204
 20
11.02361305390538
 30
0.0
  0
SEQEND
  5
72
330
6F
100
AcDbEntity
  8
Default
  0
POLYLINE
  5
73
330
1F
100
AcDbEntity
  8
Default
100
AcDb2dPolyline
 66
     1
 10
0.0
 20
0.0
 30
0.0
  0
VERTEX
  5
74
330
73
100
AcDbEntity
  8
Default
100
AcDbVertex
100
AcDb2dVertex
 10
92.53590605860018
 20
13.38581777831481
 30
0.0
  0
VERTEX
  5
75
330
73
100
AcDbEntity
  8
Default
100
AcDbVertex
100
AcDb2dVertex
 10
65.69832077529372
 20
13.38581777831481
 30
0.0
  0
SEQEND
  5
76
330
73
100
AcDbEntity
  8
Default
  0
SPLINE
  5
77
330
1F
100
AcDbEntity
  8
Default
100
AcDbSpline
210
0.0
220
0.0
230
1.0
 70
    24
 71
     2
 72
     6
 73
     3
 74
     0
 42
0.0000000001
 43
0.0000000001
 40
0.0
 40
0.0
 40
0.0
 40
0.6013594952419226
 40
0.6013594952419226
 40
0.6013594952419226
 10
-35.81593316022702
 20
73.38587221656014
 30
0.0
 10
-35.81593316022702
 20
73.6865519641811
 30
0.0
 10
-35.81593316022702
 20
73.98723171180207
 30
0.0
  0
SPLINE
  5
78
330
1F
100
AcDbEntity
  8
Default
100
AcDbSpline
210
0.0
220
0.0
230
1.0
 70
    24
 71
     2
 72
     6
 73
     3
 74
     0
 42
0.0000000001
 43
0.0000000001
 40
-10.03937007878633
 40
-10.03937007878633
 40
-10.03937007878633
 40
0.0
 40
0.0
 40
0.0
 10
34.43800311561802
 20
11.02361305390538
 30
0.0
 10
34.4380031156179
 20
6.003927565558019
 30
0.0
 10
34.43800311561779
 20
0.9842420772106557
 30
0.0
  0
SPLINE
  5
79
330
1F
100
AcDbEntity
  8
Default
100
AcDbSpline
210
0.0
220
0.0
230
1.0
 70
    12
 71
     2
 72
    12
 73
     9
 74
     0
 42
0.0000000001
 43
0.0000000001
 40
0.0
 40
0.0
 40
0.0
 40
0.7730450936832355
 40
0.7730450936832355
 40
1.546090187366471
 40
1.546090187366471
 40
2.319135281049706
 40
2.319135281049706
 40
3.092180374732942
 40
3.092180374732942
 40
3.092180374732942
 10
34.43800311561779
 20
0.9842420772106557
 30
0.0
 41
1.0
 10
34.43799035501685
 20
0.5765416411322692
 30
0.0
 41
0.9238765377170371
 10
34.7262729522389
 20
0.2882500218892297
 30
0.0
 41
1.0
 10
35.01455554946087
 20
-0.0000415973538283
 30
0.0
 41
0.9238765377170371
 10
35.42225508783065
 20
-0.000041595817077
 30
0.0
 41
1.0
 10
35.82995462620035
 20
-0.0000415942803049
 30
0.0
 41
0.9238765377170371
 10
36.11823722124893
 20
0.2882500271361046
 30
0.0
 41
1.0
 10
36.40651981629773
 20
0.5765416485524958
 30
0.0
 41
0.9238765377170371
 10
36.40650705262431
 20
0.9842420809209962
 30
0.0
 41
1.0
  0
SPLINE
  5
7A
330
1F
100
AcDbEntity
  8
Default
100
AcDbSpline
210
0.0
220
0.0
230
1.0
 70
    24
 71
     2
 72
     6
 73
     3
 74
     0
 42
0.0000000001
 43
0.0000000001
 40
0.0
 40
0.0
 40
0.0
 40
10.03937007878576
 40
10.03937007878576
 40
10.03937007878576
 10
36.40650705262431
 20
0.9842420809209962
 30
0.0
 10
36.4065070526251
 20
6.003927567413189
 30
0.0
 10
36.4065070526259
 20
11.02361305390538
 30
0.0
  0
SPLINE
  5
7B
330
1F
100
AcDbEntity
  8
Default
100
AcDbSpline
210
0.0
220
0.0
230
1.0
 70
    24
 71
     2
 72
     6
 73
     3
 74
     0
 42
0.0000000001
 43
0.0000000001
 40
0.0
 40
0.0
 40
0.0
 40
2.362204724409448
 40
2.362204724409448
 40
2.362204724409448
 10
36.40652976392209
 20
13.38581777831481
 30
0.0
 10
36.40652976392209
 20
12.20471541611009
 30
0.0
 10
36.40652976392209
 20
11.02361305390538
 30
0.0
  0
SPLINE
  5
7C
330
1F
100
AcDbEntity
  8
Default
100
AcDbSpline
210
0.0
220
0.0
230
1.0
 70
    24
 71
     2
 72
     6
 73
     3
 74
     0
 42
0.0000000001
 43
0.0000000001
 40
0.0
 40
0.0
 40
0.0
 40
1.000053706529059
 40
1.000053706529059
 40
1.000053706529059
 10
35.02855429672047
 20
65.63581851003109
 30
0.0
 10
35.02855429672047
 20
66.13584536329562
 30
0.0
 10
35.02855429672047
 20
66.63587221656014
 30
0.0
  0
SPLINE
  5
7D
330
1F
100
AcDbEntity
  8
Default
100
AcDbSpline
210
0.0
220
0.0
230
1.0
 70
    24
 71
     2
 72
     6
 73
     3
 74
     0
 42
0.0000000001
 43
0.0000000001
 40
0.0
 40
0.0
 40
0.0
 40
1.000053706529059
 40
1.000053706529059
 40
1.000053706529059
 10
-35.81593316022702
 20
65.63581851003109
 30
0.0
 10
-35.81593316022702
 20
66.13584536329562
 30
0.0
 10
-35.81593316022702
 20
66.63587221656014
 30
0.0
  0
SPLINE
  5
7E
330
1F
100
AcDbEntity
  8
Default
100
AcDbSpline
210
0.0
220
0.0
230
1.0
 70
    24
 71
     2
 72
     6
 73
     3
 74
     0
 42
0.0000000001
 43
0.0000000001
 40
0.0
 40
0.0
 40
0.0
 40
42.1260069629526
 40
42.1260069629526
 40
42.1260069629526
 10
34.43800311561802
 20
11.02361305390538
 30
0.0
 10
0.0
 20
11.02361305390538
 30
0.0
 10
-34.43800311561802
 20
11.02361305390538
 30
0.0
  0
ARC
  5
7F
330
1F
100
AcDbEntity
  8
Default
100
AcDbCircle
 10
71.06885828331815
 20
14.13579077466848
 30
0.0
 40
0.75
100
AcDbArc
 50
180.0
 51
270.0
  0
SPLINE
  5
80
330
1F
100
AcDbEntity
  8
Default
100
AcDbSpline
210
0.0
220
0.0
230
1.0
 70
    24
 71
     2
 72
     6
 73
     3
 74
     0
 42
0.0000000001
 43
0.0000000001
 40
0.7499999999999999
 40
0.7499999999999999
 40
0.7499999999999999
 40
6.000000000033978
 40
6.000000000033978
 40
6.000000000033978
 10
71.06885828331815
 20
13.38579077466848
 30
0.0
 10
73.6938582833352
 20
13.38579077466848
 30
0.0
 10
76.31885828335226
 20
13.38579077466848
 30
0.0
  0
ARC
  5
81
330
1F
100
AcDbEntity
  8
Default
100
AcDbCircle
 10
76.31885828335226
 20
14.13579077466848
 30
0.0
 40
0.75
100
AcDbArc
 50
270.0
 51
0.0
  0
SPLINE
  5
82
330
1F
100
AcDbEntity
  8
Default
100
AcDbSpline
210
0.0
220
0.0
230
1.0
 70
    24
 71
     2
 72
     6
 73
     3
 74
     0
 42
0.0000000001
 43
0.0000000001
 40
7.500000000033978
 40
7.500000000033978
 40
7.500000000033978
 40
24.25005400732663
 40
24.25005400732663
 40
24.25005400732663
 10
77.06885828335226
 20
14.13579077466848
 30
0.0
 10
77.06885828335226
 20
22.51081777831481
 30
0.0
 10
77.06885828335226
 20
30.88584478196113
 30
0.0
  0
ARC
  5
83
330
1F
100
AcDbEntity
  8
Default
100
AcDbCircle
 10
76.31885828335226
 20
30.88584478196113
 30
0.0
 40
0.75
100
AcDbArc
 50
0.0
 51
90.0
  0
SPLINE
  5
84
330
1F
100
AcDbEntity
  8
Default
100
AcDbSpline
210
0.0
220
0.0
230
1.0
 70
    24
 71
     2
 72
     6
 73
     3
 74
     0
 42
0.0000000001
 43
0.0000000001
 40
25.75005400732663
 40
25.75005400732663
 40
25.75005400732663
 40
31.0000540073606
 40
31.0000540073606
 40
31.0000540073606
 10
76.31885828335226
 20
31.63584478196113
 30
0.0
 10
73.6938582833352
 20
31.63584478196113
 30
0.0
 10
71.06885828331815
 20
31.63584478196113
 30
0.0
  0
ARC
  5
85
330
1F
100
AcDbEntity
  8
Default
100
AcDbCircle
 10
71.06885828331815
 20
30.88584478196113
 30
0.0
 40
0.75
100
AcDbArc
 50
90.0
 51
180.0
  0
SPLINE
  5
86
330
1F
100
AcDbEntity
  8
Default
100
AcDbSpline
210
0.0
220
0.0
230
1.0
 70
    24
 71
     2
 72
     6
 73
     3
 74
     0
 42
0.0000000001
 43
0.0000000001
 40
32.5000540073606
 40
32.5000540073606
 40
32.5000540073606
 40
49.25010801465325
 40
49.25010801465325
 40
49.25010801465325
 10
70.31885828331815
 20
30.88584478196113
 30
0.0
 10
70.31885828331815
 20
22.51081777831481
 30
0.0
 10
70.31885828331815
 20
14.13579077466848
 30
0.0
  0
POLYLINE
  5
87
330
1F
100
AcDbEntity
  8
Default
100
AcDb2dPolyline
 66
     1
 10
0.0
 20
0.0
 30
0.0
  0
VERTEX
  5
88
330
87
100
AcDbEntity
  8
Default
100
AcDbVertex
100
AcDb2dVertex
 10
63.81198697705872
 20
11.02361305390538
 30
0.0
  0
VERTEX
  5
89
330
87
100
AcDbEntity
  8
Default
100
AcDbVertex
100
AcDb2dVertex
 10
65.69832077529236
 20
11.02361305390538
 30
0.0
  0
SEQEND
  5
8A
330
87
100
AcDbEntity
  8
Default
  0
SPLINE
  5
8B
330
1F
100
AcDbEntity
  8
Default
100
AcDbSpline
210
0.0
220
0.0
230
1.0
 70
    15
 71
     2
 72
    20
 73
    17
 74
     0
 42
0.0000000001
 43
0.0000000001
 40
61.59642179255085
 40
61.59642179255085
 40
61.59642179255085
 40
70.43894779976594
 40
70.43894779976594
 40
71.22434596316342
 40
71.22434596316342
 40
132.0353695923168
 40
132.0353695923168
 40
132.8207677557143
 40
132.8207677557143
 40
141.6632937629294
 40
141.6632937629294
 40
142.4486919263268
 40
142.4486919263268
 40
203.2597155554802
 40
203.2597155554802
 40
204.0451137188776
 40
204.0451137188776
 40
204.0451137188776
 10
44.28051140721584
 20
74.48723171180207
 30
0.0
 41
1.0
 10
44.28051140721584
 20
78.90849471540965
 30
0.0
 41
1.0
 10
44.28051140721584
 20
83.32975771901722
 30
0.0
 41
1.0
 10
44.28051140721604
 20
83.82975771901724
 30
0.0
 41
0.7071067811864722
 10
43.78051140721584
 20
83.82975771901722
 30
0.0
 41
1.0
 10
-0.0000000415024033
 20
83.82975771901722
 30
0.0
 41
1.0
 10
-43.78051149022087
 20
83.82975771901722
 30
0.0
 41
1.0
 10
-44.28051149022117
 20
83.82975771901715
 30
0.0
 41
0.7071067811865862
 10
-44.28051149022087
 20
83.32975771901722
 30
0.0
 41
1.0
 10
-44.28051149022087
 20
78.90849471540965
 30
0.0
 41
1.0
 10
-44.28051149022087
 20
74.48723171180207
 30
0.0
 41
1.0
 10
-44.28051149022082
 20
73.98723171180217
 30
0.0
 41
0.7071067811866139
 10
-43.78051149022087
 20
73.98723171180212
 30
0.0
 41
1.0
 10
-0.0000000415024033
 20
73.98723171180207
 30
0.0
 41
1.0
 10
43.78051140721584
 20
73.98723171180207
 30
0.0
 41
1.0
 10
44.2805114072159
 20
73.98723171180207
 30
0.0
 41
0.7071067811865627
 10
44.28051140721584
 20
74.48723171180207
 30
0.0
 41
1.0
  0
SPLINE
  5
8C
330
1F
100
AcDbEntity
  8
Default
100
AcDbSpline
210
0.0
220
0.0
230
1.0
 70
    15
 71
     2
 72
    20
 73
    17
 74
     0
 42
0.0000000001
 43
0.0000000001
 40
0.0
 40
0.0
 40
0.0
 40
1.570796326794897
 40
1.570796326794897
 40
62.57079654300229
 40
62.57079654300229
 40
64.14159286979718
 40
64.14159286979718
 40
81.14159360151349
 40
81.14159360151349
 40
82.71238992830838
 40
82.71238992830838
 40
143.7123901445158
 40
143.7123901445158
 40
145.2831864713107
 40
145.2831864713107
 40
162.283187203027
 40
162.283187203027
 40
162.283187203027
 10
-44.87502685362949
 20
47.63581799379018
 30
0.0
 41
1.0
 10
-44.87502685362952
 20
46.63581799379018
 30
0.0
 41
0.7071067811865476
 10
-43.87502685362949
 20
46.63581799379018
 30
0.0
 41
1.0
 10
-0.0000271113841563
 20
46.63581799379018
 30
0.0
 41
1.0
 10
43.87497263086118
 20
46.63581799379018
 30
0.0
 41
1.0
 10
44.87497263086118
 20
46.63581799379018
 30
0.0
 41
0.7071067811865476
 10
44.87497263086118
 20
47.63581799379018
 30
0.0
 41
1.0
 10
44.87497263086118
 20
56.1358183596483
 30
0.0
 41
1.0
 10
44.87497263086118
 20
64.63581872550647
 30
0.0
 41
1.0
 10
44.87497263086118
 20
65.63581872550643
 30
0.0
 41
0.7071067811865476
 10
43.87497263086118
 20
65.63581872550647
 30
0.0
 41
1.0
 10
-0.0000271113841563
 20
65.63581872550647
 30
0.0
 41
1.0
 10
-43.87502685362949
 20
65.63581872550647
 30
0.0
 41
1.0
 10
-44.87502685362952
 20
65.63581872550643
 30
0.0
 41
0.7071067811865476
 10
-44.87502685362949
 20
64.63581872550647
 30
0.0
 41
1.0
 10
-44.87502685362949
 20
56.1358183596483
 30
0.0
 41
1.0
 10
-44.87502685362949
 20
47.63581799379018
 30
0.0
 41
1.0
  0
SPLINE
  5
8D
330
1F
100
AcDbEntity
  8
Default
100
AcDbSpline
210
0.0
220
0.0
230
1.0
 70
    24
 71
     2
 72
     6
 73
     3
 74
     0
 42
0.0000000001
 43
0.0000000001
 40
0.0
 40
0.0
 40
0.0
 40
2.362204724409448
 40
2.362204724409448
 40
2.362204724409448
 10
63.81198697705872
 20
13.38581777831481
 30
0.0
 10
63.81198697705872
 20
12.20471541611009
 30
0.0
 10
63.81198697705872
 20
11.02361305390538
 30
0.0
  0
SPLINE
  5
8E
330
1F
100
AcDbEntity
  8
Default
100
AcDbSpline
210
0.0
220
0.0
230
1.0
 70
    24
 71
     2
 72
     6
 73
     3
 74
     0
 42
0.0000000001
 43
0.0000000001
 40
0.0
 40
0.0
 40
0.0
 40
2.362204724409448
 40
2.362204724409448
 40
2.362204724409448
 10
92.53590605860018
 20
13.38581777831481
 30
0.0
 10
92.53590605860018
 20
12.20471541611009
 30
0.0
 10
92.53590605860018
 20
11.02361305390538
 30
0.0
  0
SPLINE
  5
8F
330
1F
100
AcDbEntity
  8
Default
100
AcDbSpline
210
0.0
220
0.0
230
1.0
 70
    12
 71
     2
 72
    14
 73
    11
 74
     0
 42
0.0000000001
 43
0.0000000001
 40
218.0000019796738
 40
218.0000019796738
 40
218.0000019796738
 40
231.5000021951491
 40
231.5000021951491
 40
233.070798521944
 40
233.070798521944
 40
294.070799038185
 40
294.070799038185
 40
295.6415953649799
 40
295.6415953649799
 40
309.1415955804553
 40
309.1415955804553
 40
309.1415955804553
 10
44.87497278087801
 20
17.13581777831481
 30
0.0
 41
1.0
 10
44.87497278087801
 20
23.88581788605247
 30
0.0
 41
1.0
 10
44.87497278087801
 20
30.63581799379019
 30
0.0
 41
1.0
 10
44.87497278087798
 20
31.63581799379013
 30
0.0
 41
0.7071067811865476
 10
43.87497278087801
 20
31.63581799379019
 30
0.0
 41
1.0
 10
-0.0000271113841563
 20
31.63581799379019
 30
0.0
 41
1.0
 10
-43.87502700364632
 20
31.63581799379019
 30
0.0
 41
1.0
 10
-44.87502700364642
 20
31.63581799379014
 30
0.0
 41
0.7071067811865462
 10
-44.87502700364632
 20
30.63581799379019
 30
0.0
 41
1.0
 10
-44.87502700364632
 20
23.88581788605247
 30
0.0
 41
1.0
 10
-44.87502700364632
 20
17.13581777831481
 30
0.0
 41
1.0
  0
SPLINE
  5
90
330
1F
100
AcDbEntity
  8
Default
100
AcDbSpline
210
0.0
220
0.0
230
1.0
 70
    24
 71
     2
 72
     6
 73
     3
 74
     0
 42
0.0000000001
 43
0.0000000001
 40
0.0
 40
0.0
 40
0.0
 40
13.58268038104319
 40
13.58268038104319
 40
13.58268038104319
 10
65.78049091407752
 20
13.38582099400329
 30
0.0
 10
65.78049091407752
 20
20.17716118452488
 30
0.0
 10
65.78049091407752
 20
26.96850137504648
 30
0.0
  0
SPLINE
  5
91
330
1F
100
AcDbEntity
  8
Default
100
AcDbSpline
210
0.0
220
0.0
230
1.0
 70
    24
 71
     2
 72
     6
 73
     3
 74
     0
 42
0.0000000001
 43
0.0000000001
 40
0.0
 40
0.0
 40
0.0
 40
0.6013594952419226
 40
0.6013594952419226
 40
0.6013594952419226
 10
35.81595587152344
 20
73.38587221656014
 30
0.0
 10
35.81595587152344
 20
73.6865519641811
 30
0.0
 10
35.81595587152344
 20
73.98723171180207
 30
0.0
  0
SPLINE
  5
92
330
1F
100
AcDbEntity
  8
Default
100
AcDbSpline
210
0.0
220
0.0
230
1.0
 70
    24
 71
     2
 72
     6
 73
     3
 74
     0
 42
0.0000000001
 43
0.0000000001
 40
0.0
 40
0.0
 40
0.0
 40
1.000053706529059
 40
1.000053706529059
 40
1.000053706529059
 10
35.81595587152322
 20
65.63581851003109
 30
0.0
 10
35.81595587152333
 20
66.13584536329562
 30
0.0
 10
35.81595587152344
 20
66.63587221656014
 30
0.0
  0
ENDSEC
  0
SECTION
  2
OBJECTS
  0
DICTIONARY
  5
C
330
0
100
AcDbDictionary
281
     1
  3
ACAD_GROUP
350
D
  3
ACAD_LAYOUT
350
1A
  3
ACAD_MLEADERSTYLE
350
94
  3
ACAD_MLINESTYLE
350
17
  3
ACAD_PLOTSETTINGS
350
19
  3
ACAD_PLOTSTYLENAME
350
E
  3
ACAD_TABLESTYLE
350
93
  3
ACAD_VISUALSTYLE
350
2A
  0
DICTIONARY
  5
D
102
{ACAD_REACTORS
330
C
102
}
330
C
100
AcDbDictionary
281
     1
  0
DICTIONARY
  5
1A
102
{ACAD_REACTORS
330
C
102
}
330
C
100
AcDbDictionary
281
     1
  3
Layout1
350
1E
  3
Layout2
350
26
  3
Model
350
22
  0
DICTIONARY
  5
94
102
{ACAD_REACTORS
330
C
102
}
330
C
100
AcDbDictionary
281
     1
  0
DICTIONARY
  5
17
102
{ACAD_REACTORS
330
C
102
}
330
C
100
AcDbDictionary
281
     1
  3
Standard
350
18
  0
DICTIONARY
  5
19
102
{ACAD_REACTORS
330
C
102
}
330
C
100
AcDbDictionary
281
     1
  0
ACDBDICTIONARYWDFLT
  5
E
102
{ACAD_REACTORS
330
C
102
}
330
C
100
AcDbDictionary
281
     1
  3
Normal
350
F
100
AcDbDictionaryWithDefault
340
F
  0
DICTIONARY
  5
93
102
{ACAD_REACTORS
330
C
102
}
330
C
100
AcDbDictionary
281
     1
  0
DICTIONARY
  5
2A
102
{ACAD_REACTORS
330
C
102
}
330
C
100
AcDbDictionary
281
     1
  3
2dWireframe
350
2F
  3
3D Hidden
350
31
  3
3dWireframe
350
30
  3
Basic
350
32
  3
Brighten
350
36
  3
ColorChange
350
3A
  3
Conceptual
350
34
  3
Dim
350
35
  3
Facepattern
350
39
  3
Flat
350
2B
  3
FlatWithEdges
350
2C
  3
Gouraud
350
2D
  3
GouraudWithEdges
350
2E
  3
Linepattern
350
38
  3
Realistic
350
33
  3
Thicken
350
37
  0
LAYOUT
  5
1E
102
{ACAD_REACTORS
330
1A
102
}
330
1A
100
AcDbPlotSettings
  1

  2
none_device
  4

  6

 40
0.0
 41
0.0
 42
0.0
 43
0.0
 44
0.0
 45
0.0
 46
0.0
 47
0.0
 48
0.0
 49
0.0
140
0.0
141
0.0
142
1.0
143
1.0
 70
   688
 72
     0
 73
     0
 74
     5
  7

 75
    16
 76
     0
 77
     2
 78
   300
147
1.0
148
0.0
149
0.0
100
AcDbLayout
  1
Layout1
 70
     1
 71
     1
 10
0.0
 20
0.0
 11
12.0
 21
9.0
 12
0.0
 22
0.0
 32
0.0
 14
1.000000000000000E+20
 24
1.000000000000000E+20
 34
1.000000000000000E+20
 15
-1.000000000000000E+20
 25
-1.000000000000000E+20
 35
-1.000000000000000E+20
146
0.0
 13
0.0
 23
0.0
 33
0.0
 16
1.0
 26
0.0
 36
0.0
 17
0.0
 27
1.0
 37
0.0
 76
     0
330
1B
  0
LAYOUT
  5
26
102
{ACAD_REACTORS
330
1A
102
}
330
1A
100
AcDbPlotSettings
  1

  2
none_device
  4

  6

 40
0.0
 41
0.0
 42
0.0
 43
0.0
 44
0.0
 45
0.0
 46
0.0
 47
0.0
 48
0.0
 49
0.0
140
0.0
141
0.0
142
1.0
143
1.0
 70
   688
 72
     0
 73
     0
 74
     5
  7

 75
    16
 76
     0
 77
     2
 78
   300
147
1.0
148
0.0
149
0.0
100
AcDbLayout
  1
Layout2
 70
     1
 71
     2
 10
0.0
 20
0.0
 11
0.0
 21
0.0
 12
0.0
 22
0.0
 32
0.0
 14
0.0
 24
0.0
 34
0.0
 15
0.0
 25
0.0
 35
0.0
146
0.0
 13
0.0
 23
0.0
 33
0.0
 16
1.0
 26
0.0
 36
0.0
 17
0.0
 27
1.0
 37
0.0
 76
     0
330
23
  0
LAYOUT
  5
22
102
{ACAD_REACTORS
330
1A
102
}
330
1A
100
AcDbPlotSettings
  1

  2
none_device
  4

  6

 40
0.0
 41
0.0
 42
0.0
 43
0.0
 44
0.0
 45
0.0
 46
0.0
 47
0.0
 48
0.0
 49
0.0
140
0.0
141
0.0
142
1.0
143
1.0
 70
  1712
 72
     0
 73
     0
 74
     0
  7

 75
     0
 76
     0
 77
     2
 78
   300
147
1.0
148
0.0
149
0.0
100
AcDbLayout
  1
Model
 70
     1
 71
     0
 10
0.0
 20
0.0
 11
12.0
 21
9.0
 12
0.0
 22
0.0
 32
0.0
 14
-44.87505379181732
 24
-0.000041595817077
 34
0.0
 15
97.0689392942761
 25
83.82975771901722
 35
0.0
146
0.0
 13
0.0
 23
0.0
 33
0.0
 16
1.0
 26
0.0
 36
0.0
 17
0.0
 27
1.0
 37
0.0
 76
     0
330
1F
331
29
  0
MLINESTYLE
  5
18
102
{ACAD_REACTORS
330
17
102
}
330
17
100
AcDbMlineStyle
  2
Standard
 70
     0
  3

 62
   256
 51
90.0
 52
90.0
 71
     2
 49
0.5
 62
   256
  6
BYLAYER
 49
-0.5
 62
   256
  6
BYLAYER
  0
ACDBPLACEHOLDER
  5
F
102
{ACAD_REACTORS
330
E
102
}
330
E
  0
VISUALSTYLE
  5
2F
102
{ACAD_REACTORS
330
2A
102
}
330
2A
100
AcDbVisualStyle
  2
2dWireframe
 70
     4
 71
     0
 72
     2
 73
     0
 90
        0
 40
-0.6
 41
-30.0
 62
     5
 63
     7
421
 16777215
 74
     1
 91
        4
 64
     7
 65
   257
 75
     1
175
     1
 42
1.0
 92
        0
 66
   257
 43
1.0
 76
     1
 77
     6
 78
     2
 67
     7
 79
     5
170
     0
171
     0
290
     0
174
     0
 93
        1
 44
0.0
173
     0
291
     0
 45
0.0
1001
ACAD
1000
AcDbSavedByObjectVersion
1070
     0
  0
VISUALSTYLE
  5
31
102
{ACAD_REACTORS
330
2A
102
}
330
2A
100
AcDbVisualStyle
  2
3D Hidden
 70
     6
 71
     1
 72
     2
 73
     2
 90
        0
 40
-0.6
 41
-30.0
 62
     5
 63
     7
421
 16777215
 74
     2
 91
        2
 64
     7
 65
   257
 75
     2
175
     1
 42
40.0
 92
        0
 66
   257
 43
1.0
 76
     1
 77
     6
 78
     2
 67
     7
 79
     3
170
     0
171
     0
290
     0
174
     0
 93
        1
 44
0.0
173
     0
291
     0
 45
0.0
1001
ACAD
1000
AcDbSavedByObjectVersion
1070
     0
  0
VISUALSTYLE
  5
30
102
{ACAD_REACTORS
330
2A
102
}
330
2A
100
AcDbVisualStyle
  2
3dWireframe
 70
     5
 71
     0
 72
     2
 73
     0
 90
        0
 40
-0.6
 41
-30.0
 62
     5
 63
     7
421
 16777215
 74
     1
 91
        4
 64
     7
 65
   257
 75
     1
175
     1
 42
1.0
 92
        0
 66
   257
 43
1.0
 76
     1
 77
     6
 78
     2
 67
     7
 79
     5
170
     0
171
     0
290
     0
174
     0
 93
        1
 44
0.0
173
     0
291
     0
 45
0.0
1001
ACAD
1000
AcDbSavedByObjectVersion
1070
     0
  0
VISUALSTYLE
  5
32
102
{ACAD_REACTORS
330
2A
102
}
330
2A
100
AcDbVisualStyle
  2
Basic
 70
     7
 71
     1
 72
     0
 73
     1
 90
        0
 40
-0.6
 41
-30.0
 62
     5
 63
     7
421
 16777215
 74
     0
 91
        4
 64
     7
 65
   257
 75
     1
175
     1
 42
1.0
 92
        8
 66
     7
 43
1.0
 76
     1
 77
     6
 78
     2
 67
     7
 79
     5
170
     0
171
     0
290
     0
174
     0
 93
        1
 44
0.0
173
     0
291
     1
 45
0.0
1001
ACAD
1000
AcDbSavedByObjectVersion
1070
     0
  0
VISUALSTYLE
  5
36
102
{ACAD_REACTORS
330
2A
102
}
330
2A
100
AcDbVisualStyle
  2
Brighten
 70
    12
 71
     2
 72
     2
 73
     0
 90
        0
 40
-0.6
 41
-30.0
 62
     5
 63
     7
421
 16777215
 74
     1
 91
        4
 64
     7
 65
   257
 75
     1
175
     1
 42
1.0
 92
        8
 66
     7
 43
1.0
 76
     1
 77
     6
 78
     2
 67
     7
 79
     5
170
     0
171
     0
290
     0
174
     0
 93
        1
 44
50.0
173
     0
291
     1
 45
0.0
1001
ACAD
1000
AcDbSavedByObjectVersion
1070
     0
  0
VISUALSTYLE
  5
3A
102
{ACAD_REACTORS
330
2A
102
}
330
2A
100
AcDbVisualStyle
  2
ColorChange
 70
    16
 71
     2
 72
     2
 73
     3
 90
        0
 40
-0.6
 41
-30.0
 62
     5
 63
     8
421
  8421504
 74
     1
 91
        4
 64
     7
 65
   257
 75
     1
175
     1
 42
1.0
 92
        8
 66
     8
424
  8421504
 43
1.0
 76
     1
 77
     6
 78
     2
 67
     7
 79
     5
170
     0
171
     0
290
     0
174
     0
 93
        1
 44
0.0
173
     0
291
     1
 45
0.0
1001
ACAD
1000
AcDbSavedByObjectVersion
1070
     0
  0
VISUALSTYLE
  5
34
102
{ACAD_REACTORS
330
2A
102
}
330
2A
100
AcDbVisualStyle
  2
Conceptual
 70
     9
 71
     3
 72
     2
 73
     0
 90
        0
 40
-0.6
 41
-30.0
 62
     5
 63
     7
421
 16777215
 74
     2
 91
        2
 64
     7
 65
   257
 75
     1
175
     1
 42
40.0
 92
        8
 66
     7
 43
1.0
 76
     1
 77
     6
 78
     2
 67
     7
 79
     3
170
     0
171
     0
290
     0
174
     0
 93
        1
 44
0.0
173
     0
291
     0
 45
0.0
1001
ACAD
1000
AcDbSavedByObjectVersion
1070
     0
  0
VISUALSTYLE
  5
35
102
{ACAD_REACTORS
330
2A
102
}
330
2A
100
AcDbVisualStyle
  2
Dim
 70
    11
 71
     2
 72
     2
 73
     0
 90
        0
 40
-0.6
 41
-30.0
 62
     5
 63
     7
421
 16777215
 74
     1
 91
        4
 64
     7
 65
   257
 75
     1
175
     1
 42
1.0
 92
        8
 66
     7
 43
1.0
 76
     1
 77
     6
 78
     2
 67
     7
 79
     5
170
     0
171
     0
290
     0
174
     0
 93
        1
 44
-50.0
173
     0
291
     1
 45
0.0
1001
ACAD
1000
AcDbSavedByObjectVersion
1070
     0
  0
VISUALSTYLE
  5
39
102
{ACAD_REACTORS
330
2A
102
}
330
2A
100
AcDbVisualStyle
  2
Facepattern
 70
    15
 71
     2
 72
     2
 73
     0
 90
        0
 40
-0.6
 41
-30.0
 62
     5
 63
     7
421
 16777215
 74
     1
 91
        4
 64
     7
 65
   257
 75
     1
175
     1
 42
1.0
 92
        8
 66
     7
 43
1.0
 76
     1
 77
     6
 78
     2
 67
     7
 79
     5
170
     0
171
     0
290
     0
174
     0
 93
        1
 44
0.0
173
     0
291
     1
 45
0.0
1001
ACAD
1000
AcDbSavedByObjectVersion
1070
     0
  0
VISUALSTYLE
  5
2B
102
{ACAD_REACTORS
330
2A
102
}
330
2A
100
AcDbVisualStyle
  2
Flat
 70
     0
 71
     2
 72
     1
 73
     1
 90
        2
 40
-0.6
 41
30.0
 62
     5
 63
     7
421
 16777215
 74
     0
 91
        4
 64
     7
 65
   257
 75
     1
175
     1
 42
1.0
 92
        8
 66
     7
 43
1.0
 76
     1
 77
     6
 78
     2
 67
     7
 79
     5
170
     0
171
     0
290
     0
174
     0
 93
       13
 44
0.0
173
     0
291
     1
 45
0.0
1001
ACAD
1000
AcDbSavedByObjectVersion
1070
     0
  0
VISUALSTYLE
  5
2C
102
{ACAD_REACTORS
330
2A
102
}
330
2A
100
AcDbVisualStyle
  2
FlatWithEdges
 70
     1
 71
     2
 72
     1
 73
     1
 90
        2
 40
-0.6
 41
30.0
 62
     5
 63
     7
421
 16777215
 74
     1
 91
        4
 64
     7
 65
   257
 75
     1
175
     1
 42
1.0
 92
        0
 66
   257
 43
1.0
 76
     1
 77
     6
 78
     2
 67
     7
 79
     5
170
     0
171
     0
290
     0
174
     0
 93
       13
 44
0.0
173
     0
291
     1
 45
0.0
1001
ACAD
1000
AcDbSavedByObjectVersion
1070
     0
  0
VISUALSTYLE
  5
2D
102
{ACAD_REACTORS
330
2A
102
}
330
2A
100
AcDbVisualStyle
  2
Gouraud
 70
     2
 71
     2
 72
     2
 73
     1
 90
        2
 40
-0.6
 41
30.0
 62
     5
 63
     7
421
 16777215
 74
     0
 91
        4
 64
     7
 65
   257
 75
     1
175
     1
 42
1.0
 92
        0
 66
     7
 43
1.0
 76
     1
 77
     6
 78
     2
 67
     7
 79
     5
170
     0
171
     0
290
     0
174
     0
 93
       13
 44
0.0
173
     0
291
     1
 45
0.0
1001
ACAD
1000
AcDbSavedByObjectVersion
1070
     0
  0
VISUALSTYLE
  5
2E
102
{ACAD_REACTORS
330
2A
102
}
330
2A
100
AcDbVisualStyle
  2
GouraudWithEdges
 70
     3
 71
     2
 72
     2
 73
     1
 90
        2
 40
-0.6
 41
30.0
 62
     5
 63
     7
421
 16777215
 74
     1
 91
        4
 64
     7
 65
   257
 75
     1
175
     1
 42
1.0
 92
        0
 66
   257
 43
1.0
 76
     1
 77
     6
 78
     2
 67
     7
 79
     5
170
     0
171
     0
290
     0
174
     0
 93
       13
 44
0.0
173
     0
291
     1
 45
0.0
1001
ACAD
1000
AcDbSavedByObjectVersion
1070
     0
  0
VISUALSTYLE
  5
38
102
{ACAD_REACTORS
330
2A
102
}
330
2A
100
AcDbVisualStyle
  2
Linepattern
 70
    14
 71
     2
 72
     2
 73
     0
 90
        0
 40
-0.6
 41
-30.0
 62
     5
 63
     7
421
 16777215
 74
     1
 91
        4
 64
     7
 65
   257
 75
     7
175
     7
 42
1.0
 92
        8
 66
     7
 43
1.0
 76
     1
 77
     6
 78
     2
 67
     7
 79
     5
170
     0
171
     0
290
     0
174
     0
 93
        1
 44
0.0
173
     0
291
     1
 45
0.0
1001
ACAD
1000
AcDbSavedByObjectVersion
1070
     0
  0
VISUALSTYLE
  5
33
102
{ACAD_REACTORS
330
2A
102
}
330
2A
100
AcDbVisualStyle
  2
Realistic
 70
     8
 71
     2
 72
     2
 73
     0
 90
        0
 40
-0.6
 41
-30.0
 62
     5
 63
     7
421
 16777215
 74
     1
 91
        0
 64
     7
 65
   257
 75
     1
175
     1
 42
1.0
 92
        8
 66
     8
424
  7895160
 43
1.0
 76
     1
 77
     6
 78
     2
 67
     7
 79
     5
170
     0
171
     0
290
     0
174
     0
 93
       13
 44
0.0
173
     0
291
     0
 45
0.0
1001
ACAD
1000
AcDbSavedByObjectVersion
1070
     0
  0
VISUALSTYLE
  5
37
102
{ACAD_REACTORS
330
2A
102
}
330
2A
100
AcDbVisualStyle
  2
Thicken
 70
    13
 71
     2
 72
     2
 73
     0
 90
        0
 40
-0.6
 41
-30.0
 62
     5
 63
     7
421
 16777215
 74
     1
 91
        4
 64
     7
 65
   257
 75
     1
175
     1
 42
1.0
 92
       12
 66
     7
 43
1.0
 76
     1
 77
     6
 78
     2
 67
     7
 79
     5
170
     0
171
     0
290
     0
174
     0
 93
        1
 44
0.0
173
     0
291
     1
 45
0.0
1001
ACAD
1000
AcDbSavedByObjectVersion
1070
     0
  0
ENDSEC
  0
EOF
