  0
SECTION
  2
HEADER
  9
$ACADVER
  1
AC1018
  9
$ACADMAINTVER
 70
     0
  9
$DWGCODEPAGE
  3
ANSI_1252
  9
$INSBASE
 10
0.0
 20
0.0
 30
0.0
  9
$EXTMIN
 10
-44.87901800561167
 20
-0.0000179857378662
 30
0.0
  9
$EXTMAX
 10
118.3220341995375
 20
122.2462001004202
 30
0.0
  9
$LIMMIN
 10
0.0
 20
0.0
  9
$LIMMAX
 10
12.0
 20
9.0
  9
$ORTHOMODE
 70
     0
  9
$REGENMODE
 70
     1
  9
$FILLMODE
 70
     1
  9
$QTEXTMODE
 70
     0
  9
$MIRRTEXT
 70
     1
  9
$LTSCALE
 40
0.0393700787401575
  9
$ATTMODE
 70
     1
  9
$TEXTSIZE
 40
0.2
  9
$TRACEWID
 40
0.05
  9
$TEXTSTYLE
  7
Standard
  9
$CLAYER
  8
Default
  9
$CELTYPE
  6
ByLayer
  9
$CECOLOR
 62
   256
  9
$CELTSCALE
 40
1.0
  9
$DISPSILH
 70
     0
  9
$DIMSCALE
 40
1.0
  9
$DIMASZ
 40
0.18
  9
$DIMEXO
 40
0.0625
  9
$DIMDLI
 40
0.38
  9
$DIMRND
 40
0.0
  9
$DIMDLE
 40
0.0
  9
$DIMEXE
 40
0.18
  9
$DIMTP
 40
0.0
  9
$DIMTM
 40
0.0
  9
$DIMTXT
 40
0.18
  9
$DIMCEN
 40
0.09
  9
$DIMTSZ
 40
0.0
  9
$DIMTOL
 70
     0
  9
$DIMLIM
 70
     0
  9
$DIMTIH
 70
     1
  9
$DIMTOH
 70
     1
  9
$DIMSE1
 70
     0
  9
$DIMSE2
 70
     0
  9
$DIMTAD
 70
     0
  9
$DIMZIN
 70
     0
  9
$DIMBLK
  1

  9
$DIMASO
 70
     1
  9
$DIMSHO
 70
     1
  9
$DIMPOST
  1

  9
$DIMAPOST
  1

  9
$DIMALT
 70
     0
  9
$DIMALTD
 70
     2
  9
$DIMALTF
 40
25.4
  9
$DIMLFAC
 40
1.0
  9
$DIMTOFL
 70
     0
  9
$DIMTVP
 40
0.0
  9
$DIMTIX
 70
     0
  9
$DIMSOXD
 70
     0
  9
$DIMSAH
 70
     0
  9
$DIMBLK1
  1

  9
$DIMBLK2
  1

  9
$DIMSTYLE
  2
Standard
  9
$DIMCLRD
 70
     0
  9
$DIMCLRE
 70
     0
  9
$DIMCLRT
 70
     0
  9
$DIMTFAC
 40
1.0
  9
$DIMGAP
 40
0.09
  9
$DIMJUST
 70
     0
  9
$DIMSD1
 70
     0
  9
$DIMSD2
 70
     0
  9
$DIMTOLJ
 70
     1
  9
$DIMTZIN
 70
     0
  9
$DIMALTZ
 70
     0
  9
$DIMALTTZ
 70
     0
  9
$DIMUPT
 70
     0
  9
$DIMDEC
 70
     4
  9
$DIMTDEC
 70
     4
  9
$DIMALTU
 70
     2
  9
$DIMALTTD
 70
     2
  9
$DIMTXSTY
  7
Standard
  9
$DIMAUNIT
 70
     0
  9
$DIMADEC
 70
     0
  9
$DIMALTRND
 40
0.0
  9
$DIMAZIN
 70
     0
  9
$DIMDSEP
 70
    46
  9
$DIMATFIT
 70
     3
  9
$DIMFRAC
 70
     0
  9
$DIMLDRBLK
  1

  9
$DIMLUNIT
 70
     2
  9
$DIMLWD
 70
    -2
  9
$DIMLWE
 70
    -2
  9
$DIMTMOVE
 70
     2
  9
$LUNITS
 70
     2
  9
$LUPREC
 70
     3
  9
$SKETCHINC
 40
0.1
  9
$FILLETRAD
 40
0.5
  9
$AUNITS
 70
     0
  9
$AUPREC
 70
     0
  9
$MENU
  1
.
  9
$ELEVATION
 40
0.0
  9
$PELEVATION
 40
0.0
  9
$THICKNESS
 40
0.0
  9
$LIMCHECK
 70
     0
  9
$CHAMFERA
 40
0.5
  9
$CHAMFERB
 40
0.5
  9
$CHAMFERC
 40
1.0
  9
$CHAMFERD
 40
0.0
  9
$SKPOLY
 70
     0
  9
$TDCREATE
 40
2457322.401404202
  9
$TDUCREATE
 40
2457322.568070868
  9
$TDUPDATE
 40
2457322.401404213
  9
$TDUUPDATE
 40
2457322.56807088
  9
$TDINDWG
 40
0.0000000116
  9
$TDUSRTIMER
 40
0.0000000116
  9
$USRTIMER
 70
     1
  9
$ANGBASE
 50
0.0
  9
$ANGDIR
 70
     0
  9
$PDMODE
 70
     0
  9
$PDSIZE
 40
0.0
  9
$PLINEWID
 40
0.0
  9
$SPLFRAME
 70
     0
  9
$SPLINETYPE
 70
     6
  9
$SPLINESEGS
 70
     8
  9
$HANDSEED
  5
AA
  9
$SURFTAB1
 70
     6
  9
$SURFTAB2
 70
     6
  9
$SURFTYPE
 70
     6
  9
$SURFU
 70
     6
  9
$SURFV
 70
     6
  9
$UCSBASE
  2

  9
$UCSNAME
  2

  9
$UCSORG
 10
0.0
 20
0.0
 30
0.0
  9
$UCSXDIR
 10
1.0
 20
0.0
 30
0.0
  9
$UCSYDIR
 10
0.0
 20
1.0
 30
0.0
  9
$UCSORTHOREF
  2

  9
$UCSORTHOVIEW
 70
     0
  9
$UCSORGTOP
 10
0.0
 20
0.0
 30
0.0
  9
$UCSORGBOTTOM
 10
0.0
 20
0.0
 30
0.0
  9
$UCSORGLEFT
 10
0.0
 20
0.0
 30
0.0
  9
$UCSORGRIGHT
 10
0.0
 20
0.0
 30
0.0
  9
$UCSORGFRONT
 10
0.0
 20
0.0
 30
0.0
  9
$UCSORGBACK
 10
0.0
 20
0.0
 30
0.0
  9
$PUCSBASE
  2

  9
$PUCSNAME
  2

  9
$PUCSORG
 10
0.0
 20
0.0
 30
0.0
  9
$PUCSXDIR
 10
1.0
 20
0.0
 30
0.0
  9
$PUCSYDIR
 10
0.0
 20
1.0
 30
0.0
  9
$PUCSORTHOREF
  2

  9
$PUCSORTHOVIEW
 70
     0
  9
$PUCSORGTOP
 10
0.0
 20
0.0
 30
0.0
  9
$PUCSORGBOTTOM
 10
0.0
 20
0.0
 30
0.0
  9
$PUCSORGLEFT
 10
0.0
 20
0.0
 30
0.0
  9
$PUCSORGRIGHT
 10
0.0
 20
0.0
 30
0.0
  9
$PUCSORGFRONT
 10
0.0
 20
0.0
 30
0.0
  9
$PUCSORGBACK
 10
0.0
 20
0.0
 30
0.0
  9
$USERI1
 70
     0
  9
$USERI2
 70
     0
  9
$USERI3
 70
     0
  9
$USERI4
 70
     0
  9
$USERI5
 70
     0
  9
$USERR1
 40
0.0
  9
$USERR2
 40
0.0
  9
$USERR3
 40
0.0
  9
$USERR4
 40
0.0
  9
$USERR5
 40
0.0
  9
$WORLDVIEW
 70
     1
  9
$SHADEDGE
 70
     3
  9
$SHADEDIF
 70
    70
  9
$TILEMODE
 70
     1
  9
$MAXACTVP
 70
    64
  9
$PINSBASE
 10
0.0
 20
0.0
 30
0.0
  9
$PLIMCHECK
 70
     0
  9
$PEXTMIN
 10
1.000000000000000E+20
 20
1.000000000000000E+20
 30
1.000000000000000E+20
  9
$PEXTMAX
 10
-1.000000000000000E+20
 20
-1.000000000000000E+20
 30
-1.000000000000000E+20
  9
$PLIMMIN
 10
0.0
 20
0.0
  9
$PLIMMAX
 10
12.0
 20
9.0
  9
$UNITMODE
 70
     0
  9
$VISRETAIN
 70
     1
  9
$PLINEGEN
 70
     0
  9
$PSLTSCALE
 70
     1
  9
$TREEDEPTH
 70
  3020
  9
$CMLSTYLE
  2
Standard
  9
$CMLJUST
 70
     0
  9
$CMLSCALE
 40
1.0
  9
$PROXYGRAPHICS
 70
     1
  9
$MEASUREMENT
 70
     0
  9
$CELWEIGHT
370
    -1
  9
$ENDCAPS
280
     0
  9
$JOINSTYLE
280
     0
  9
$LWDISPLAY
290
     0
  9
$INSUNITS
 70
     1
  9
$HYPERLINKBASE
  1

  9
$STYLESHEET
  1

  9
$XEDIT
290
     1
  9
$CEPSNTYPE
380
     0
  9
$PSTYLEMODE
290
     1
  9
$FINGERPRINTGUID
  2
{E3069FFA-42B6-46E5-ABFA-912925DB4728}
  9
$VERSIONGUID
  2
{FAEB1C32-E019-11D5-929B-00C0DF256EC4}
  9
$EXTNAMES
290
     1
  9
$PSVPSCALE
 40
0.0
  9
$OLESTARTUP
290
     0
  9
$SORTENTS
280
   127
  9
$INDEXCTL
280
     0
  9
$HIDETEXT
280
     1
  9
$XCLIPFRAME
290
     0
  9
$HALOGAP
280
     0
  9
$OBSCOLOR
 70
   257
  9
$OBSLTYPE
280
     0
  9
$INTERSECTIONDISPLAY
280
     0
  9
$INTERSECTIONCOLOR
 70
   257
  9
$DIMASSOC
280
     2
  9
$PROJECTNAME
  1

  0
ENDSEC
  0
SECTION
  2
CLASSES
  0
CLASS
  1
ACDBDICTIONARYWDFLT
  2
AcDbDictionaryWithDefault
  3
ObjectDBX Classes
 90
        0
 91
        4
280
     0
281
     0
  0
CLASS
  1
VISUALSTYLE
  2
AcDbVisualStyle
  3
ObjectDBX Classes
 90
     4095
 91
        4
280
     0
281
     0
  0
ENDSEC
  0
SECTION
  2
TABLES
  0
TABLE
  2
VPORT
  5
8
330
0
100
AcDbSymbolTable
 70
     1
  0
VPORT
  5
29
330
8
100
AcDbSymbolTableRecord
100
AcDbViewportTableRecord
  2
*Active
 70
     0
 10
0.0
 20
0.0
 11
1.0
 21
1.0
 12
36.72150809696291
 22
61.12309105734114
 13
0.0
 23
0.0
 14
0.5
 24
0.5
 15
0.5
 25
0.5
 16
0.0
 26
0.0
 36
1.0
 17
0.0
 27
0.0
 37
0.0
 40
124.6911424478812
 41
1.335019232170655
 42
50.0
 43
0.0
 44
0.0
 50
0.0
 51
0.0
 71
     0
 72
   100
 73
     1
 74
     3
 75
     0
 76
     0
 77
     0
 78
     0
281
     0
 65
     1
110
0.0
120
0.0
130
0.0
111
1.0
121
0.0
131
0.0
112
0.0
122
1.0
132
0.0
 79
     0
146
0.0
  0
ENDTAB
  0
TABLE
  2
LTYPE
  5
5
330
0
100
AcDbSymbolTable
 70
     1
  0
LTYPE
  5
14
330
5
100
AcDbSymbolTableRecord
100
AcDbLinetypeTableRecord
  2
ByBlock
 70
     0
  3

 72
    65
 73
     0
 40
0.0
  0
LTYPE
  5
15
330
5
100
AcDbSymbolTableRecord
100
AcDbLinetypeTableRecord
  2
ByLayer
 70
     0
  3

 72
    65
 73
     0
 40
0.0
  0
LTYPE
  5
16
330
5
100
AcDbSymbolTableRecord
100
AcDbLinetypeTableRecord
  2
Continuous
 70
     0
  3
Solid line
 72
    65
 73
     0
 40
0.0
  0
ENDTAB
  0
TABLE
  2
LAYER
  5
2
330
0
100
AcDbSymbolTable
 70
     2
  0
LAYER
  5
10
330
2
100
AcDbSymbolTableRecord
100
AcDbLayerTableRecord
  2
0
 70
     0
 62
     7
  6
Continuous
370
    -3
390
F
  0
LAYER
  5
3B
330
2
100
AcDbSymbolTableRecord
100
AcDbLayerTableRecord
  2
Default
 70
     0
 62
     7
  6
Continuous
370
    -3
390
F
  0
ENDTAB
  0
TABLE
  2
STYLE
  5
3
330
0
100
AcDbSymbolTable
 70
     1
  0
STYLE
  5
11
330
3
100
AcDbSymbolTableRecord
100
AcDbTextStyleTableRecord
  2
Standard
 70
     0
 40
0.0
 41
1.0
 50
0.0
 71
     0
 42
0.2
  3
txt
  4

  0
ENDTAB
  0
TABLE
  2
VIEW
  5
6
330
0
100
AcDbSymbolTable
 70
     0
  0
ENDTAB
  0
TABLE
  2
UCS
  5
7
330
0
100
AcDbSymbolTable
 70
     0
  0
ENDTAB
  0
TABLE
  2
APPID
  5
9
330
0
100
AcDbSymbolTable
 70
     1
  0
APPID
  5
12
330
9
100
AcDbSymbolTableRecord
100
AcDbRegAppTableRecord
  2
ACAD
 70
     0
  0
ENDTAB
  0
TABLE
  2
DIMSTYLE
  5
A
330
0
100
AcDbSymbolTable
 70
     1
100
AcDbDimStyleTable
  0
DIMSTYLE
105
27
330
A
100
AcDbSymbolTableRecord
100
AcDbDimStyleTableRecord
  2
Standard
 70
     0
340
11
  0
ENDTAB
  0
TABLE
  2
BLOCK_RECORD
  5
1
330
0
100
AcDbSymbolTable
 70
     1
  0
BLOCK_RECORD
  5
1F
330
1
100
AcDbSymbolTableRecord
100
AcDbBlockTableRecord
  2
*Model_Space
340
22
  0
BLOCK_RECORD
  5
1B
330
1
100
AcDbSymbolTableRecord
100
AcDbBlockTableRecord
  2
*Paper_Space
340
1E
  0
BLOCK_RECORD
  5
23
330
1
100
AcDbSymbolTableRecord
100
AcDbBlockTableRecord
  2
*Paper_Space0
340
26
  0
ENDTAB
  0
ENDSEC
  0
SECTION
  2
BLOCKS
  0
BLOCK
  5
20
330
1F
100
AcDbEntity
  8
0
100
AcDbBlockBegin
  2
*Model_Space
 70
     0
 10
0.0
 20
0.0
 30
0.0
  3
*Model_Space
  1

  0
ENDBLK
  5
21
330
1F
100
AcDbEntity
  8
0
100
AcDbBlockEnd
  0
BLOCK
  5
1C
330
1B
100
AcDbEntity
 67
     1
  8
0
100
AcDbBlockBegin
  2
*Paper_Space
 70
     0
 10
0.0
 20
0.0
 30
0.0
  3
*Paper_Space
  1

  0
ENDBLK
  5
1D
330
1B
100
AcDbEntity
 67
     1
  8
0
100
AcDbBlockEnd
  0
BLOCK
  5
24
330
23
100
AcDbEntity
  8
0
100
AcDbBlockBegin
  2
*Paper_Space0
 70
     0
 10
0.0
 20
0.0
 30
0.0
  3
*Paper_Space0
  1

  0
ENDBLK
  5
25
330
23
100
AcDbEntity
  8
0
100
AcDbBlockEnd
  0
ENDSEC
  0
SECTION
  2
ENTITIES
  0
SPLINE
  5
3C
330
1F
100
AcDbEntity
  8
Default
100
AcDbSpline
210
0.0
220
0.0
230
1.0
 70
    15
 71
     2
 72
    20
 73
    17
 74
     0
 42
0.0000000001
 43
0.0000000001
 40
0.0
 40
0.0
 40
0.0
 40
1.178097245096172
 40
1.178097245096172
 40
62.67815155315449
 40
62.67815155315449
 40
63.85624879825066
 40
63.85624879825066
 40
69.10624879828462
 40
69.10624879828462
 40
70.2843460433808
 40
70.2843460433808
 40
131.7844003514391
 40
131.7844003514391
 40
132.9624975965353
 40
132.9624975965353
 40
138.2124975965692
 40
138.2124975965692
 40
138.2124975965692
 10
-44.87899115234768
 20
84.55324199064451
 30
0.0
 41
1.0
 10
-44.87899115234775
 20
83.80324199064454
 30
0.0
 41
0.7071067811865476
 10
-44.12899115234768
 20
83.80324199064451
 30
0.0
 41
1.0
 10
-0.0000383592946491
 20
83.80324199064451
 30
0.0
 41
1.0
 10
44.12891443375838
 20
83.80324199064451
 30
0.0
 41
1.0
 10
44.87891443375871
 20
83.80324199064454
 30
0.0
 41
0.7071067811865476
 10
44.87891443375838
 20
84.55324199064451
 30
0.0
 41
1.0
 10
44.87891443375838
 20
87.1782419906615
 30
0.0
 41
1.0
 10
44.87891443375838
 20
89.8032419906785
 30
0.0
 41
1.0
 10
44.87891443375871
 20
90.55324199067847
 30
0.0
 41
0.7071067811865476
 10
44.12891443375838
 20
90.5532419906785
 30
0.0
 41
1.0
 10
-0.0000383592946491
 20
90.5532419906785
 30
0.0
 41
1.0
 10
-44.12899115234768
 20
90.5532419906785
 30
0.0
 41
1.0
 10
-44.87899115234775
 20
90.55324199067847
 30
0.0
 41
0.7071067811865476
 10
-44.87899115234768
 20
89.8032419906785
 30
0.0
 41
1.0
 10
-44.87899115234768
 20
87.1782419906615
 30
0.0
 41
1.0
 10
-44.87899115234768
 20
84.55324199064451
 30
0.0
 41
1.0
  0
SPLINE
  5
3D
330
1F
100
AcDbEntity
  8
Default
100
AcDbSpline
210
0.0
220
0.0
230
1.0
 70
    24
 71
     2
 72
     6
 73
     3
 74
     0
 42
0.0000000001
 43
0.0000000001
 40
0.0
 40
0.0
 40
0.0
 40
0.9020849123164112
 40
0.9020849123164112
 40
0.9020849123164112
 10
90.0025726555532
 20
11.02363666401972
 30
0.0
 10
89.55153019939507
 20
11.02363666401972
 30
0.0
 10
89.10048774323695
 20
11.02363666401972
 30
0.0
  0
SPLINE
  5
3E
330
1F
100
AcDbEntity
  8
Default
100
AcDbSpline
210
0.0
220
0.0
230
1.0
 70
    24
 71
     2
 72
     6
 73
     3
 74
     0
 42
0.0000000001
 43
0.0000000001
 40
0.0
 40
0.0
 40
0.0
 40
2.362204724409452
 40
2.362204724409452
 40
2.362204724409452
 10
88.19840283092208
 20
13.38584138841158
 30
0.0
 10
88.19840283092208
 20
12.20473902620687
 30
0.0
 10
88.19840283092208
 20
11.02363666400216
 30
0.0
  0
SPLINE
  5
3F
330
1F
100
AcDbEntity
  8
Default
100
AcDbSpline
210
0.0
220
0.0
230
1.0
 70
    24
 71
     2
 72
     6
 73
     3
 74
     0
 42
0.0000000001
 43
0.0000000001
 40
0.0
 40
0.0
 40
0.0
 40
2.362204724409445
 40
2.362204724409445
 40
2.362204724409445
 10
113.7889736405909
 20
11.02363666398459
 30
0.0
 10
113.7889736405909
 20
12.2047390261893
 30
0.0
 10
113.7889736405909
 20
13.38584138839402
 30
0.0
  0
POLYLINE
  5
40
330
1F
100
AcDbEntity
  8
Default
100
AcDb2dPolyline
 66
     1
 10
0.0
 20
0.0
 30
0.0
  0
VERTEX
  5
41
330
40
100
AcDbEntity
  8
Default
100
AcDbVertex
100
AcDb2dVertex
 10
62.5256677281227
 20
13.38584138839402
 30
0.0
  0
VERTEX
  5
42
330
40
100
AcDbEntity
  8
Default
100
AcDbVertex
100
AcDb2dVertex
 10
115.6753077584472
 20
13.38584138839402
 30
0.0
  0
SEQEND
  5
43
330
40
100
AcDbEntity
  8
Default
  0
SPLINE
  5
44
330
1F
100
AcDbEntity
  8
Default
100
AcDbSpline
210
0.0
220
0.0
230
1.0
 70
    24
 71
     2
 72
     6
 73
     3
 74
     0
 42
0.0000000001
 43
0.0000000001
 40
0.0
 40
0.0
 40
0.0
 40
2.362204724409452
 40
2.362204724409452
 40
2.362204724409452
 10
90.08473971172998
 20
24.80316100738635
 30
0.0
 10
90.08473971172998
 20
23.62205864518164
 30
0.0
 10
90.08473971172998
 20
22.44095628297693
 30
0.0
  0
SPLINE
  5
45
330
1F
100
AcDbEntity
  8
Default
100
AcDbSpline
210
0.0
220
0.0
230
1.0
 70
    24
 71
     2
 72
     6
 73
     3
 74
     0
 42
0.0000000001
 43
0.0000000001
 40
0.0
 40
0.0
 40
0.0
 40
9.055111678859241
 40
9.055111678859241
 40
9.055111678859241
 10
90.08473971172998
 20
22.44095628297693
 30
0.0
 10
90.08473971172998
 20
17.91340044354731
 30
0.0
 10
90.08473971172998
 20
13.38584460411768
 30
0.0
  0
SPLINE
  5
46
330
1F
100
AcDbEntity
  8
Default
100
AcDbSpline
210
0.0
220
0.0
230
1.0
 70
    24
 71
     2
 72
     6
 73
     3
 74
     0
 42
0.0000000001
 43
0.0000000001
 40
0.0
 40
0.0
 40
0.0
 40
2.362204724409445
 40
2.362204724409445
 40
2.362204724409445
 10
36.41044441315626
 20
13.38584138839402
 30
0.0
 10
36.41044441315626
 20
12.20473902618928
 30
0.0
 10
36.41044441315626
 20
11.02363666398454
 30
0.0
  0
SPLINE
  5
47
330
1F
100
AcDbEntity
  8
Default
100
AcDbSpline
210
0.0
220
0.0
230
1.0
 70
    24
 71
     2
 72
     6
 73
     3
 74
     0
 42
0.0000000001
 43
0.0000000001
 40
0.0
 40
0.0
 40
0.0
 40
9.055111678859241
 40
9.055111678859241
 40
9.055111678859241
 10
88.1162357747221
 20
13.38584460411768
 30
0.0
 10
88.1162357747221
 20
17.91340044354731
 30
0.0
 10
88.1162357747221
 20
22.44095628297693
 30
0.0
  0
SPLINE
  5
48
330
1F
100
AcDbEntity
  8
Default
100
AcDbSpline
210
0.0
220
0.0
230
1.0
 70
    24
 71
     2
 72
     6
 73
     3
 74
     0
 42
0.0000000001
 43
0.0000000001
 40
0.0
 40
0.0
 40
0.0
 40
2.362204724409445
 40
2.362204724409445
 40
2.362204724409445
 10
115.6753077584472
 20
13.38584138839402
 30
0.0
 10
115.6753077584472
 20
12.2047390261893
 30
0.0
 10
115.6753077584472
 20
11.02363666398459
 30
0.0
  0
SPLINE
  5
49
330
1F
100
AcDbEntity
  8
Default
100
AcDbSpline
210
0.0
220
0.0
230
1.0
 70
    24
 71
     2
 72
     6
 73
     3
 74
     0
 42
0.0000000001
 43
0.0000000001
 40
-10.03937007878633
 40
-10.03937007878633
 40
-10.03937007878633
 40
0.0
 40
0.0
 40
0.0
 10
88.11623577473301
 20
11.02363666401972
 30
0.0
 10
88.11623577473301
 20
6.003951175672359
 30
0.0
 10
88.11623577473301
 20
0.9842656873249958
 30
0.0
  0
SPLINE
  5
4A
330
1F
100
AcDbEntity
  8
Default
100
AcDbSpline
210
0.0
220
0.0
230
1.0
 70
    12
 71
     2
 72
    12
 73
     9
 74
     0
 42
0.0000000001
 43
0.0000000001
 40
0.0
 40
0.0
 40
0.0
 40
0.7730450936832355
 40
0.7730450936832355
 40
1.546090187366471
 40
1.546090187366471
 40
2.319135281049706
 40
2.319135281049706
 40
3.092180374732942
 40
3.092180374732942
 40
3.092180374732942
 10
88.11623577473301
 20
0.9842656873249958
 30
0.0
 41
1.0
 10
88.1162230141324
 20
0.5765652512465673
 30
0.0
 41
0.9238765377170371
 10
88.40450561135412
 20
0.2882736320035697
 30
0.0
 41
1.0
 10
88.69278820857629
 20
-0.0000179872395302
 30
0.0
 41
0.9238765377170371
 10
89.10048774694587
 20
-0.0000179857027369
 30
0.0
 41
1.0
 10
89.50818728531578
 20
-0.0000179841660068
 30
0.0
 41
0.9238765377170371
 10
89.79646988036438
 20
0.2882736372504446
 30
0.0
 41
1.0
 10
90.08475247541291
 20
0.5765652586667939
 30
0.0
 41
0.9238765377170371
 10
90.08473971173953
 20
0.9842656910353362
 30
0.0
 41
1.0
  0
SPLINE
  5
4B
330
1F
100
AcDbEntity
  8
Default
100
AcDbSpline
210
0.0
220
0.0
230
1.0
 70
    24
 71
     2
 72
     6
 73
     3
 74
     0
 42
0.0000000001
 43
0.0000000001
 40
0.0
 40
0.0
 40
0.0
 40
10.03937007878576
 40
10.03937007878576
 40
10.03937007878576
 10
90.08473971173953
 20
0.9842656910353362
 30
0.0
 10
90.08473971174021
 20
6.003951177527529
 30
0.0
 10
90.0847397117409
 20
11.02363666401972
 30
0.0
  0
SPLINE
  5
4C
330
1F
100
AcDbEntity
  8
Default
100
AcDbSpline
210
0.0
220
0.0
230
1.0
 70
    12
 71
     2
 72
    14
 73
    11
 74
     0
 42
0.0000000001
 43
0.0000000001
 40
63.00000030076558
 40
63.00000030076558
 40
63.00000030076558
 40
76.50000030076558
 40
76.50000030076558
 40
78.07079662756047
 40
78.07079662756047
 40
139.070796928326
 40
139.070796928326
 40
140.6415932551209
 40
140.6415932551209
 40
154.1415932551209
 40
154.1415932551209
 40
154.1415932551209
 10
44.87888743011217
 20
17.13584138839402
 30
0.0
 41
1.0
 10
44.87888743011217
 20
23.88584138839402
 30
0.0
 41
1.0
 10
44.87888743011217
 20
30.63584138839402
 30
0.0
 41
1.0
 10
44.87888743011222
 20
31.63584138839398
 30
0.0
 41
0.7071067811865476
 10
43.87888743011217
 20
31.63584138839402
 30
0.0
 41
1.0
 10
-0.0000383592946491
 20
31.63584138839402
 30
0.0
 41
1.0
 10
-43.87896414870147
 20
31.63584138839402
 30
0.0
 41
1.0
 10
-44.87896414870193
 20
31.63584138839403
 30
0.0
 41
0.7071067811865488
 10
-44.87896414870147
 20
30.63584138839402
 30
0.0
 41
1.0
 10
-44.87896414870147
 20
23.88584138839402
 30
0.0
 41
1.0
 10
-44.87896414870147
 20
17.13584138839402
 30
0.0
 41
1.0
  0
POLYLINE
  5
4D
330
1F
100
AcDbEntity
  8
Default
100
AcDb2dPolyline
 66
     1
 10
0.0
 20
0.0
 30
0.0
  0
VERTEX
  5
4E
330
4D
100
AcDbEntity
  8
Default
100
AcDbVertex
100
AcDb2dVertex
 10
88.1162357747221
 20
22.44095628297693
 30
0.0
  0
VERTEX
  5
4F
330
4D
100
AcDbEntity
  8
Default
100
AcDbVertex
100
AcDb2dVertex
 10
90.08473971172998
 20
22.44095628297693
 30
0.0
  0
SEQEND
  5
50
330
4D
100
AcDbEntity
  8
Default
  0
SPLINE
  5
51
330
1F
100
AcDbEntity
  8
Default
100
AcDbSpline
210
0.0
220
0.0
230
1.0
 70
    15
 71
     2
 72
    20
 73
    17
 74
     0
 42
0.0000000001
 43
0.0000000001
 40
0.0
 40
0.0
 40
0.0
 40
1.178097245096172
 40
1.178097245096172
 40
62.67027726130965
 40
62.67027726130965
 40
63.84837450640582
 40
63.84837450640582
 40
65.59837450640582
 40
65.59837450640582
 40
66.77647175150199
 40
66.77647175150199
 40
128.2686517677155
 40
128.2686517677155
 40
129.4467490128116
 40
129.4467490128116
 40
131.1967490128116
 40
131.1967490128116
 40
131.1967490128116
 10
-44.87505400729287
 20
92.14968043175095
 30
0.0
 41
1.0
 10
-44.8750540072926
 20
91.39968043175095
 30
0.0
 41
0.7071067811865476
 10
-44.12505400729287
 20
91.39968043175095
 30
0.0
 41
1.0
 10
-0.0000383601618523
 20
91.39968043175095
 30
0.0
 41
1.0
 10
44.12497728696871
 20
91.39968043175095
 30
0.0
 41
1.0
 10
44.87497728696876
 20
91.39968043175095
 30
0.0
 41
0.7071067811865476
 10
44.87497728696871
 20
92.14968043175095
 30
0.0
 41
1.0
 10
44.87497728696871
 20
93.02468043175095
 30
0.0
 41
1.0
 10
44.87497728696871
 20
93.89968043175095
 30
0.0
 41
1.0
 10
44.87497728696876
 20
94.64968043175094
 30
0.0
 41
0.7071067811865476
 10
44.12497728696871
 20
94.64968043175095
 30
0.0
 41
1.0
 10
-0.0000383601618523
 20
94.64968043175095
 30
0.0
 41
1.0
 10
-44.12505400729287
 20
94.64968043175095
 30
0.0
 41
1.0
 10
-44.8750540072926
 20
94.64968043175094
 30
0.0
 41
0.7071067811865476
 10
-44.87505400729287
 20
93.89968043175095
 30
0.0
 41
1.0
 10
-44.87505400729287
 20
93.02468043175095
 30
0.0
 41
1.0
 10
-44.87505400729287
 20
92.14968043175095
 30
0.0
 41
1.0
  0
SPLINE
  5
52
330
1F
100
AcDbEntity
  8
Default
100
AcDbSpline
210
0.0
220
0.0
230
1.0
 70
    15
 71
     2
 72
    20
 73
    17
 74
     0
 42
0.0000000001
 43
0.0000000001
 40
0.0
 40
0.0
 40
0.0
 40
1.178097245096172
 40
1.178097245096172
 40
62.67815155315445
 40
62.67815155315445
 40
63.85624879825063
 40
63.85624879825063
 40
69.10624879825062
 40
69.10624879825062
 40
70.28434604334679
 40
70.28434604334679
 40
131.7844003514051
 40
131.7844003514051
 40
132.9624975965012
 40
132.9624975965012
 40
138.2124975965012
 40
138.2124975965012
 40
138.2124975965012
 10
-44.87899115234768
 20
96.24611887400597
 30
0.0
 41
1.0
 10
-44.87899115234743
 20
95.49611887400594
 30
0.0
 41
0.7071067811865476
 10
-44.12899115234768
 20
95.49611887400597
 30
0.0
 41
1.0
 10
-0.0000383592946491
 20
95.49611887400597
 30
0.0
 41
1.0
 10
44.12891443375838
 20
95.49611887400597
 30
0.0
 41
1.0
 10
44.87891443375871
 20
95.49611887400594
 30
0.0
 41
0.7071067811865476
 10
44.87891443375838
 20
96.24611887400597
 30
0.0
 41
1.0
 10
44.87891443375838
 20
98.87111887400597
 30
0.0
 41
1.0
 10
44.87891443375838
 20
101.496118874006
 30
0.0
 41
1.0
 10
44.87891443375871
 20
102.246118874006
 30
0.0
 41
0.7071067811865476
 10
44.12891443375838
 20
102.246118874006
 30
0.0
 41
1.0
 10
-0.0000383592946491
 20
102.246118874006
 30
0.0
 41
1.0
 10
-44.12899115234768
 20
102.246118874006
 30
0.0
 41
1.0
 10
-44.87899115234743
 20
102.246118874006
 30
0.0
 41
0.7071067811865476
 10
-44.87899115234768
 20
101.496118874006
 30
0.0
 41
1.0
 10
-44.87899115234768
 20
98.87111887400597
 30
0.0
 41
1.0
 10
-44.87899115234768
 20
96.24611887400597
 30
0.0
 41
1.0
  0
SPLINE
  5
53
330
1F
100
AcDbEntity
  8
Default
100
AcDbSpline
210
0.0
220
0.0
230
1.0
 70
    24
 71
     2
 72
     6
 73
     3
 74
     0
 42
0.0000000001
 43
0.0000000001
 40
-10.03937007878633
 40
-10.03937007878633
 40
-10.03937007878633
 40
0.0
 40
0.0
 40
0.0
 10
62.5256677281227
 20
11.02363666398459
 30
0.0
 10
62.52566772812247
 20
6.00395117563723
 30
0.0
 10
62.52566772812224
 20
0.9842656872898665
 30
0.0
  0
SPLINE
  5
54
330
1F
100
AcDbEntity
  8
Default
100
AcDbSpline
210
0.0
220
0.0
230
1.0
 70
    12
 71
     2
 72
    12
 73
     9
 74
     0
 42
0.0000000001
 43
0.0000000001
 40
0.0
 40
0.0
 40
0.0
 40
0.7730450936832355
 40
0.7730450936832355
 40
1.546090187366471
 40
1.546090187366471
 40
2.319135281049706
 40
2.319135281049706
 40
3.092180374732942
 40
3.092180374732942
 40
3.092180374732942
 10
62.52566772812224
 20
0.9842656872898665
 30
0.0
 41
1.0
 10
62.52565496752179
 20
0.5765652512114354
 30
0.0
 41
0.9238765377170371
 10
62.81393756474336
 20
0.2882736319684405
 30
0.0
 41
1.0
 10
63.10222016196618
 20
-0.0000179872746622
 30
0.0
 41
0.9238765377170371
 10
63.50991970033556
 20
-0.0000179857378662
 30
0.0
 41
1.0
 10
63.91761923870567
 20
-0.0000179842011388
 30
0.0
 41
0.9238765377170371
 10
64.20590183375361
 20
0.2882736372153154
 30
0.0
 41
1.0
 10
64.4941844288028
 20
0.5765652586316619
 30
0.0
 41
0.9238765377170371
 10
64.49417166512922
 20
0.984265691000207
 30
0.0
 41
1.0
  0
SPLINE
  5
55
330
1F
100
AcDbEntity
  8
Default
100
AcDbSpline
210
0.0
220
0.0
230
1.0
 70
    24
 71
     2
 72
     6
 73
     3
 74
     0
 42
0.0000000001
 43
0.0000000001
 40
0.0
 40
0.0
 40
0.0
 40
10.03937007878576
 40
10.03937007878576
 40
10.03937007878576
 10
64.49417166512922
 20
0.984265691000207
 30
0.0
 10
64.4941716651299
 20
6.0039511774924
 30
0.0
 10
64.49417166513058
 20
11.02363666398459
 30
0.0
  0
SPLINE
  5
56
330
1F
100
AcDbEntity
  8
Default
100
AcDbSpline
210
0.0
220
0.0
230
1.0
 70
    24
 71
     2
 72
     6
 73
     3
 74
     0
 42
0.0000000001
 43
0.0000000001
 40
0.0
 40
0.0
 40
0.0
 40
2.362204724409452
 40
2.362204724409452
 40
2.362204724409452
 10
90.00257265555183
 20
11.02363666400216
 30
0.0
 10
90.00257265555183
 20
12.20473902620687
 30
0.0
 10
90.00257265555183
 20
13.38584138841158
 30
0.0
  0
SPLINE
  5
57
330
1F
100
AcDbEntity
  8
Default
100
AcDbSpline
210
0.0
220
0.0
230
1.0
 70
    24
 71
     2
 72
     6
 73
     3
 74
     0
 42
0.0000000001
 43
0.0000000001
 40
0.0
 40
0.0
 40
0.0
 40
0.8464384422550495
 40
0.8464384422550495
 40
0.8464384422550495
 10
-35.81987052075738
 20
94.64968043175095
 30
0.0
 10
-35.81987052075738
 20
95.07289965287849
 30
0.0
 10
-35.81987052075738
 20
95.49611887400603
 30
0.0
  0
SPLINE
  5
58
330
1F
100
AcDbEntity
  8
Default
100
AcDbSpline
210
0.0
220
0.0
230
1.0
 70
    24
 71
     2
 72
     6
 73
     3
 74
     0
 42
0.0000000001
 43
0.0000000001
 40
0.0
 40
0.0
 40
0.0
 40
0.8464384422550353
 40
0.8464384422550353
 40
0.8464384422550353
 10
-35.03246894595486
 20
94.64968043175095
 30
0.0
 10
-35.03246894595486
 20
95.07289965287846
 30
0.0
 10
-35.03246894595486
 20
95.49611887400597
 30
0.0
  0
SPLINE
  5
59
330
1F
100
AcDbEntity
  8
Default
100
AcDbSpline
210
0.0
220
0.0
230
1.0
 70
    24
 71
     2
 72
     6
 73
     3
 74
     0
 42
0.0000000001
 43
0.0000000001
 40
-10.03937007878633
 40
-10.03937007878633
 40
-10.03937007878633
 40
0.0
 40
0.0
 40
0.0
 10
-34.44194047614837
 20
11.02363666398454
 30
0.0
 10
-34.44194047614837
 20
6.003951175637173
 30
0.0
 10
-34.44194047614837
 20
0.9842656872898097
 30
0.0
  0
SPLINE
  5
5A
330
1F
100
AcDbEntity
  8
Default
100
AcDbSpline
210
0.0
220
0.0
230
1.0
 70
    12
 71
     2
 72
    12
 73
     9
 74
     0
 42
0.0000000001
 43
0.0000000001
 40
0.0
 40
0.0
 40
0.0
 40
0.7730450936832355
 40
0.7730450936832355
 40
1.546090187366471
 40
1.546090187366471
 40
2.319135281049706
 40
2.319135281049706
 40
3.092180374732942
 40
3.092180374732942
 40
3.092180374732942
 10
-34.44194047614837
 20
0.9842656872898097
 30
0.0
 41
1.0
 10
-34.44192771554691
 20
0.5765652512114354
 30
0.0
 41
0.9238765377170371
 10
-34.73021031276949
 20
0.2882736319683836
 30
0.0
 41
1.0
 10
-35.0184929099913
 20
-0.0000179872746622
 30
0.0
 41
0.9238765377170371
 10
-35.42619244836123
 20
-0.0000179857378662
 30
0.0
 41
1.0
 10
-35.83389198673078
 20
-0.0000179842011388
 30
0.0
 41
0.9238765377170371
 10
-36.12217458177975
 20
0.2882736372152586
 30
0.0
 41
1.0
 10
-36.41045717682792
 20
0.5765652586316619
 30
0.0
 41
0.9238765377170371
 10
-36.41044441315489
 20
0.984265691000207
 30
0.0
 41
1.0
  0
SPLINE
  5
5B
330
1F
100
AcDbEntity
  8
Default
100
AcDbSpline
210
0.0
220
0.0
230
1.0
 70
    24
 71
     2
 72
     6
 73
     3
 74
     0
 42
0.0000000001
 43
0.0000000001
 40
0.0
 40
0.0
 40
0.0
 40
10.03937007878576
 40
10.03937007878576
 40
10.03937007878576
 10
-36.41044441315489
 20
0.984265691000207
 30
0.0
 10
-36.41044441315557
 20
6.003951177492372
 30
0.0
 10
-36.41044441315626
 20
11.02363666398454
 30
0.0
  0
SPLINE
  5
5C
330
1F
100
AcDbEntity
  8
Default
100
AcDbSpline
210
0.0
220
0.0
230
1.0
 70
    24
 71
     2
 72
     6
 73
     3
 74
     0
 42
0.0000000001
 43
0.0000000001
 40
0.0
 40
0.0
 40
0.0
 40
1.968503937007881
 40
1.968503937007881
 40
1.968503937007881
 10
-36.41044441315626
 20
11.02363666398454
 30
0.0
 10
-35.42619244465232
 20
11.02363666398454
 30
0.0
 10
-34.44194047614837
 20
11.02363666398454
 30
0.0
  0
SPLINE
  5
5D
330
1F
100
AcDbEntity
  8
Default
100
AcDbSpline
210
0.0
220
0.0
230
1.0
 70
    24
 71
     2
 72
     6
 73
     3
 74
     0
 42
0.0000000001
 43
0.0000000001
 40
0.0
 40
0.0
 40
0.0
 40
2.362204724409445
 40
2.362204724409445
 40
2.362204724409445
 10
-36.41044441315626
 20
13.38584138839402
 30
0.0
 10
-36.41044441315626
 20
12.20473902618928
 30
0.0
 10
-36.41044441315626
 20
11.02363666398454
 30
0.0
  0
SPLINE
  5
5E
330
1F
100
AcDbEntity
  8
Default
100
AcDbSpline
210
0.0
220
0.0
230
1.0
 70
    24
 71
     2
 72
     6
 73
     3
 74
     0
 42
0.0000000001
 43
0.0000000001
 40
0.0
 40
0.0
 40
0.0
 40
2.362204724409445
 40
2.362204724409445
 40
2.362204724409445
 10
-34.44194047614837
 20
13.38584138839402
 30
0.0
 10
-34.44194047614837
 20
12.20473902618928
 30
0.0
 10
-34.44194047614837
 20
11.02363666398454
 30
0.0
  0
SPLINE
  5
5F
330
1F
100
AcDbEntity
  8
Default
100
AcDbSpline
210
0.0
220
0.0
230
1.0
 70
    24
 71
     2
 72
     6
 73
     3
 74
     0
 42
0.0000000001
 43
0.0000000001
 40
0.0
 40
0.0
 40
0.0
 40
0.846438441089461
 40
0.846438441089461
 40
0.846438441089461
 10
-35.81987052075738
 20
90.5532419906615
 30
0.0
 10
-35.81987052075738
 20
90.97646121120623
 30
0.0
 10
-35.81987052075738
 20
91.39968043175095
 30
0.0
  0
SPLINE
  5
60
330
1F
100
AcDbEntity
  8
Default
100
AcDbSpline
210
0.0
220
0.0
230
1.0
 70
    24
 71
     2
 72
     6
 73
     3
 74
     0
 42
0.0000000001
 43
0.0000000001
 40
0.0
 40
0.0
 40
0.0
 40
1.000027003646466
 40
1.000027003646466
 40
1.000027003646466
 10
-35.03246894595441
 20
82.80321498701507
 30
0.0
 10
-35.03246894595441
 20
83.30322848883829
 30
0.0
 10
-35.03246894595441
 20
83.8032419906615
 30
0.0
  0
SPLINE
  5
61
330
1F
100
AcDbEntity
  8
Default
100
AcDbSpline
210
0.0
220
0.0
230
1.0
 70
    24
 71
     2
 72
     6
 73
     3
 74
     0
 42
0.0000000001
 43
0.0000000001
 40
0.0
 40
0.0
 40
0.0
 40
1.000027003645897
 40
1.000027003645897
 40
1.000027003645897
 10
-35.03246894595486
 20
102.246118874006
 30
0.0
 10
-35.03246894595486
 20
102.7461323758289
 30
0.0
 10
-35.03246894595486
 20
103.2461458776519
 30
0.0
  0
SPLINE
  5
62
330
1F
100
AcDbEntity
  8
Default
100
AcDbSpline
210
0.0
220
0.0
230
1.0
 70
    24
 71
     2
 72
     6
 73
     3
 74
     0
 42
0.0000000001
 43
0.0000000001
 40
0.0
 40
0.0
 40
0.0
 40
1.000027003645897
 40
1.000027003645897
 40
1.000027003645897
 10
-35.81987052075738
 20
102.246118874006
 30
0.0
 10
-35.81987052075738
 20
102.7461323758289
 30
0.0
 10
-35.81987052075738
 20
103.2461458776519
 30
0.0
  0
SPLINE
  5
63
330
1F
100
AcDbEntity
  8
Default
100
AcDbSpline
210
0.0
220
0.0
230
1.0
 70
    24
 71
     2
 72
     6
 73
     3
 74
     0
 42
0.0000000001
 43
0.0000000001
 40
0.0
 40
0.0
 40
0.0
 40
0.8464384410894468
 40
0.8464384410894468
 40
0.8464384410894468
 10
-35.03246894595486
 20
90.5532419906615
 30
0.0
 10
-35.03246894595486
 20
90.97646121120623
 30
0.0
 10
-35.03246894595486
 20
91.39968043175095
 30
0.0
  0
SPLINE
  5
64
330
1F
100
AcDbEntity
  8
Default
100
AcDbSpline
210
0.0
220
0.0
230
1.0
 70
    24
 71
     2
 72
     6
 73
     3
 74
     0
 42
0.0000000001
 43
0.0000000001
 40
0.0
 40
0.0
 40
0.0
 40
1.000027003646451
 40
1.000027003646451
 40
1.000027003646451
 10
-35.81987052075738
 20
82.80321498701507
 30
0.0
 10
-35.81987052075738
 20
83.30322848883829
 30
0.0
 10
-35.81987052075738
 20
83.8032419906615
 30
0.0
  0
SPLINE
  5
65
330
1F
100
AcDbEntity
  8
Default
100
AcDbSpline
210
0.0
220
0.0
230
1.0
 70
    15
 71
     2
 72
    20
 73
    17
 74
     0
 42
0.0000000001
 43
0.0000000001
 40
0.0
 40
0.0
 40
0.0
 40
1.570796326794897
 40
1.570796326794897
 40
62.57085033408777
 40
62.57085033408777
 40
64.14164666088267
 40
64.14164666088267
 40
81.1417006681756
 40
81.1417006681756
 40
82.7124969949705
 40
82.7124969949705
 40
143.7125510022634
 40
143.7125510022634
 40
145.2833473290582
 40
145.2833473290582
 40
162.2834013363512
 40
162.2834013363512
 40
162.2834013363512
 10
-44.87899100196501
 20
64.80316097972214
 30
0.0
 41
1.0
 10
-44.87899100196487
 20
63.80316097972211
 30
0.0
 41
0.7071067811865476
 10
-43.87899100196501
 20
63.80316097972214
 30
0.0
 41
1.0
 10
-0.0000383592946491
 20
63.80316097972214
 30
0.0
 41
1.0
 10
43.87891428337571
 20
63.80316097972214
 30
0.0
 41
1.0
 10
44.87891428337583
 20
63.80316097972211
 30
0.0
 41
0.7071067811865476
 10
44.87891428337571
 20
64.80316097972214
 30
0.0
 41
1.0
 10
44.87891428337571
 20
73.30318798336863
 30
0.0
 41
1.0
 10
44.87891428337571
 20
81.80321498701507
 30
0.0
 41
1.0
 10
44.87891428337583
 20
82.80321498701508
 30
0.0
 41
0.7071067811865476
 10
43.87891428337571
 20
82.80321498701507
 30
0.0
 41
1.0
 10
-0.0000383592946491
 20
82.80321498701507
 30
0.0
 41
1.0
 10
-43.87899100196501
 20
82.80321498701507
 30
0.0
 41
1.0
 10
-44.87899100196487
 20
82.80321498701508
 30
0.0
 41
0.7071067811865476
 10
-44.87899100196501
 20
81.80321498701507
 30
0.0
 41
1.0
 10
-44.87899100196501
 20
73.30318798336863
 30
0.0
 41
1.0
 10
-44.87899100196501
 20
64.80316097972214
 30
0.0
 41
1.0
  0
SPLINE
  5
66
330
1F
100
AcDbEntity
  8
Default
100
AcDbSpline
210
0.0
220
0.0
230
1.0
 70
    15
 71
     2
 72
    20
 73
    17
 74
     0
 42
0.0000000001
 43
0.0000000001
 40
0.0
 40
0.0
 40
0.0
 40
1.570796326794897
 40
1.570796326794897
 40
62.57085076503862
 40
62.57085076503862
 40
64.14164709183352
 40
64.14164709183352
 40
81.14170131460183
 40
81.14170131460183
 40
82.71249764139672
 40
82.71249764139672
 40
143.7125520796404
 40
143.7125520796404
 40
145.2833484064353
 40
145.2833484064353
 40
162.2834026292036
 40
162.2834026292036
 40
162.2834026292036
 10
-44.87899121744022
 20
104.2461458776519
 30
0.0
 41
1.0
 10
-44.87899121744012
 20
103.2461458776519
 30
0.0
 41
0.7071067811865476
 10
-43.87899121744022
 20
103.2461458776519
 30
0.0
 41
1.0
 10
-0.0000383592946491
 20
103.2461458776519
 30
0.0
 41
1.0
 10
43.87891449885137
 20
103.2461458776519
 30
0.0
 41
1.0
 10
44.87891449885139
 20
103.2461458776519
 30
0.0
 41
0.7071067811865476
 10
44.87891449885137
 20
104.2461458776519
 30
0.0
 41
1.0
 10
44.87891449885137
 20
112.7461729890361
 30
0.0
 41
1.0
 10
44.87891449885137
 20
121.2462001004202
 30
0.0
 41
1.0
 10
44.87891449885139
 20
122.2462001004203
 30
0.0
 41
0.7071067811865476
 10
43.87891449885137
 20
122.2462001004202
 30
0.0
 41
1.0
 10
-0.0000383592946491
 20
122.2462001004202
 30
0.0
 41
1.0
 10
-43.87899121744022
 20
122.2462001004202
 30
0.0
 41
1.0
 10
-44.87899121744012
 20
122.2462001004203
 30
0.0
 41
0.7071067811865476
 10
-44.87899121744022
 20
121.2462001004202
 30
0.0
 41
1.0
 10
-44.87899121744022
 20
112.7461729890361
 30
0.0
 41
1.0
 10
-44.87899121744022
 20
104.2461458776519
 30
0.0
 41
1.0
  0
SPLINE
  5
67
330
1F
100
AcDbEntity
  8
Default
100
AcDbSpline
210
0.0
220
0.0
230
1.0
 70
    24
 71
     2
 72
     6
 73
     3
 74
     0
 42
0.0000000001
 43
0.0000000001
 40
0.0
 40
0.0
 40
0.0
 40
2.362204724409445
 40
2.362204724409445
 40
2.362204724409445
 10
62.5256677281227
 20
11.02363666398459
 30
0.0
 10
62.5256677281227
 20
12.2047390261893
 30
0.0
 10
62.5256677281227
 20
13.38584138839402
 30
0.0
  0
SPLINE
  5
68
330
1F
100
AcDbEntity
  8
Default
100
AcDbSpline
210
0.0
220
0.0
230
1.0
 70
    24
 71
     2
 72
     6
 73
     3
 74
     0
 42
0.0000000001
 43
0.0000000001
 40
0.0
 40
0.0
 40
0.0
 40
2.362204724409445
 40
2.362204724409445
 40
2.362204724409445
 10
64.4120015263511
 20
13.38584138839402
 30
0.0
 10
64.4120015263511
 20
12.2047390261893
 30
0.0
 10
64.4120015263511
 20
11.02363666398459
 30
0.0
  0
SPLINE
  5
69
330
1F
100
AcDbEntity
  8
Default
100
AcDbSpline
210
0.0
220
0.0
230
1.0
 70
    24
 71
     2
 72
     6
 73
     3
 74
     0
 42
0.0000000001
 43
0.0000000001
 40
0.0
 40
0.0
 40
0.0
 40
1.968503937007881
 40
1.968503937007881
 40
1.968503937007881
 10
36.41044441315626
 20
11.02363666398454
 30
0.0
 10
35.42619244465232
 20
11.02363666398454
 30
0.0
 10
34.44194047614837
 20
11.02363666398454
 30
0.0
  0
SPLINE
  5
6A
330
1F
100
AcDbEntity
  8
Default
100
AcDbSpline
210
0.0
220
0.0
230
1.0
 70
    24
 71
     2
 72
     6
 73
     3
 74
     0
 42
0.0000000001
 43
0.0000000001
 40
0.0
 40
0.0
 40
0.0
 40
2.362204724409452
 40
2.362204724409452
 40
2.362204724409452
 10
88.1162357747221
 20
22.44095628297693
 30
0.0
 10
88.1162357747221
 20
23.62205864518164
 30
0.0
 10
88.1162357747221
 20
24.80316100738635
 30
0.0
  0
SPLINE
  5
6B
330
1F
100
AcDbEntity
  8
Default
100
AcDbSpline
210
0.0
220
0.0
230
1.0
 70
    24
 71
     2
 72
     6
 73
     3
 74
     0
 42
0.0000000001
 43
0.0000000001
 40
0.0
 40
0.0
 40
0.0
 40
0.9020787470523004
 40
0.9020787470523004
 40
0.9020787470523004
 10
89.10048774323695
 20
11.02363666401972
 30
0.0
 10
88.64944836971085
 20
11.02363666401972
 30
0.0
 10
88.19840899618475
 20
11.02363666401972
 30
0.0
  0
SPLINE
  5
6C
330
1F
100
AcDbEntity
  8
Default
100
AcDbSpline
210
0.0
220
0.0
230
1.0
 70
    24
 71
     2
 72
     6
 73
     3
 74
     0
 42
0.0000000001
 43
0.0000000001
 40
-10.03937007878633
 40
-10.03937007878633
 40
-10.03937007878633
 40
0.0
 40
0.0
 40
0.0
 10
113.7068035018133
 20
11.02363666398459
 30
0.0
 10
113.7068035018131
 20
6.00395117563723
 30
0.0
 10
113.7068035018128
 20
0.9842656872898665
 30
0.0
  0
SPLINE
  5
6D
330
1F
100
AcDbEntity
  8
Default
100
AcDbSpline
210
0.0
220
0.0
230
1.0
 70
    12
 71
     2
 72
    12
 73
     9
 74
     0
 42
0.0000000001
 43
0.0000000001
 40
0.0
 40
0.0
 40
0.0
 40
0.7730450936832355
 40
0.7730450936832355
 40
1.546090187366471
 40
1.546090187366471
 40
2.319135281049706
 40
2.319135281049706
 40
3.092180374732942
 40
3.092180374732942
 40
3.092180374732942
 10
113.7068035018128
 20
0.9842656872898665
 30
0.0
 41
1.0
 10
113.7067907412125
 20
0.5765652512114354
 30
0.0
 41
0.9238765377170371
 10
113.9950733384339
 20
0.2882736319684405
 30
0.0
 41
1.0
 10
114.2833559356564
 20
-0.0000179872746622
 30
0.0
 41
0.9238765377170371
 10
114.6910554740261
 20
-0.0000179857378662
 30
0.0
 41
1.0
 10
115.0987550123959
 20
-0.0000179842011388
 30
0.0
 41
0.9238765377170371
 10
115.3870376074442
 20
0.2882736372153154
 30
0.0
 41
1.0
 10
115.675320202493
 20
0.5765652586316619
 30
0.0
 41
0.9238765377170371
 10
115.6753074388198
 20
0.984265691000207
 30
0.0
 41
1.0
  0
SPLINE
  5
6E
330
1F
100
AcDbEntity
  8
Default
100
AcDbSpline
210
0.0
220
0.0
230
1.0
 70
    24
 71
     2
 72
     6
 73
     3
 74
     0
 42
0.0000000001
 43
0.0000000001
 40
0.0
 40
0.0
 40
0.0
 40
10.03937007878576
 40
10.03937007878576
 40
10.03937007878576
 10
115.6753074388198
 20
0.984265691000207
 30
0.0
 10
115.6753074388205
 20
6.0039511774924
 30
0.0
 10
115.6753074388212
 20
11.02363666398459
 30
0.0
  0
SPLINE
  5
6F
330
1F
100
AcDbEntity
  8
Default
100
AcDbSpline
210
0.0
220
0.0
230
1.0
 70
    24
 71
     2
 72
     6
 73
     3
 74
     0
 42
0.0000000001
 43
0.0000000001
 40
0.0
 40
0.0
 40
0.0
 40
2.362204724409445
 40
2.362204724409445
 40
2.362204724409445
 10
34.44194047614837
 20
11.02363666398454
 30
0.0
 10
34.44194047614837
 20
12.20473902618928
 30
0.0
 10
34.44194047614837
 20
13.38584138839402
 30
0.0
  0
SPLINE
  5
70
330
1F
100
AcDbEntity
  8
Default
100
AcDbSpline
210
0.0
220
0.0
230
1.0
 70
    24
 71
     2
 72
     6
 73
     3
 74
     0
 42
0.0000000001
 43
0.0000000001
 40
-10.03937007878633
 40
-10.03937007878633
 40
-10.03937007878633
 40
0.0
 40
0.0
 40
0.0
 10
34.44194047614837
 20
11.02363666398454
 30
0.0
 10
34.44194047614815
 20
6.003951175637173
 30
0.0
 10
34.44194047614792
 20
0.9842656872898097
 30
0.0
  0
SPLINE
  5
71
330
1F
100
AcDbEntity
  8
Default
100
AcDbSpline
210
0.0
220
0.0
230
1.0
 70
    12
 71
     2
 72
    12
 73
     9
 74
     0
 42
0.0000000001
 43
0.0000000001
 40
0.0
 40
0.0
 40
0.0
 40
0.7730450936832355
 40
0.7730450936832355
 40
1.546090187366471
 40
1.546090187366471
 40
2.319135281049706
 40
2.319135281049706
 40
3.092180374732942
 40
3.092180374732942
 40
3.092180374732942
 10
34.44194047614792
 20
0.9842656872898097
 30
0.0
 41
1.0
 10
34.44192771554754
 20
0.5765652512114354
 30
0.0
 41
0.9238765377170371
 10
34.73021031276903
 20
0.2882736319683836
 30
0.0
 41
1.0
 10
35.01849290999144
 20
-0.0000179872746622
 30
0.0
 41
0.9238765377170371
 10
35.42619244836078
 20
-0.0000179857378662
 30
0.0
 41
1.0
 10
35.83389198673093
 20
-0.0000179842011388
 30
0.0
 41
0.9238765377170371
 10
36.12217458177929
 20
0.2882736372152586
 30
0.0
 41
1.0
 10
36.41045717682855
 20
0.5765652586316619
 30
0.0
 41
0.9238765377170371
 10
36.41044441315444
 20
0.984265691000207
 30
0.0
 41
1.0
  0
SPLINE
  5
72
330
1F
100
AcDbEntity
  8
Default
100
AcDbSpline
210
0.0
220
0.0
230
1.0
 70
    24
 71
     2
 72
     6
 73
     3
 74
     0
 42
0.0000000001
 43
0.0000000001
 40
0.0
 40
0.0
 40
0.0
 40
10.03937007878576
 40
10.03937007878576
 40
10.03937007878576
 10
36.41044441315444
 20
0.984265691000207
 30
0.0
 10
36.41044441315535
 20
6.003951177492372
 30
0.0
 10
36.41044441315626
 20
11.02363666398454
 30
0.0
  0
LINE
  5
73
330
1F
100
AcDbEntity
  8
Default
100
AcDbLine
 10
62.5256677281227
 20
11.02363666398317
 30
0.0
 11
88.18534177762467
 21
11.0236366640021
 31
0.0
  0
SPLINE
  5
74
330
1F
100
AcDbEntity
  8
Default
100
AcDbSpline
210
0.0
220
0.0
230
1.0
 70
    15
 71
     2
 72
    20
 73
    17
 74
     0
 42
0.0000000001
 43
0.0000000001
 40
0.0
 40
0.0
 40
0.0
 40
1.178097245096172
 40
1.178097245096172
 40
62.6782052596817
 40
62.6782052596817
 40
63.85630250477787
 40
63.85630250477787
 40
66.85630250477793
 40
66.85630250477793
 40
68.0343997498741
 40
68.0343997498741
 40
129.5345077644596
 40
129.5345077644596
 40
130.7126050095558
 40
130.7126050095558
 40
133.7126050095559
 40
133.7126050095559
 40
133.7126050095559
 10
-44.87901800561167
 20
14.13584138839402
 30
0.0
 41
1.0
 10
-44.87901800561136
 20
13.38584138839395
 30
0.0
 41
0.7071067811865476
 10
-44.12901800561167
 20
13.38584138839402
 30
0.0
 41
1.0
 10
-0.0000383592946491
 20
13.38584138839402
 30
0.0
 41
1.0
 10
44.12894128702192
 20
13.38584138839402
 30
0.0
 41
1.0
 10
44.87894128702247
 20
13.38584138839402
 30
0.0
 41
0.7071067811865492
 10
44.87894128702192
 20
14.13584138839402
 30
0.0
 41
1.0
 10
44.87894128702192
 20
15.63584138839402
 30
0.0
 41
1.0
 10
44.87894128702192
 20
17.13584138839402
 30
0.0
 41
1.0
 10
44.87894128702199
 20
17.88584138839407
 30
0.0
 41
0.7071067811865476
 10
44.12894128702192
 20
17.88584138839402
 30
0.0
 41
1.0
 10
-0.0000383592946491
 20
17.88584138839402
 30
0.0
 41
1.0
 10
-44.12901800561167
 20
17.88584138839402
 30
0.0
 41
1.0
 10
-44.87901800561136
 20
17.88584138839407
 30
0.0
 41
0.7071067811865476
 10
-44.87901800561167
 20
17.13584138839402
 30
0.0
 41
1.0
 10
-44.87901800561167
 20
15.63584138839402
 30
0.0
 41
1.0
 10
-44.87901800561167
 20
14.13584138839402
 30
0.0
 41
1.0
  0
SPLINE
  5
75
330
1F
100
AcDbEntity
  8
Default
100
AcDbSpline
210
0.0
220
0.0
230
1.0
 70
    24
 71
     2
 72
     6
 73
     3
 74
     0
 42
0.0000000001
 43
0.0000000001
 40
0.0
 40
0.0
 40
0.0
 40
42.1260296742488
 40
42.1260296742488
 40
42.1260296742488
 10
34.44194047614837
 20
11.02363666398454
 30
0.0
 10
0.0
 20
11.02363666398454
 30
0.0
 10
-34.44194047614837
 20
11.02363666398454
 30
0.0
  0
SPLINE
  5
76
330
1F
100
AcDbEntity
  8
Default
100
AcDbSpline
210
0.0
220
0.0
230
1.0
 70
    24
 71
     2
 72
     6
 73
     3
 74
     0
 42
0.0000000001
 43
0.0000000001
 40
0.0
 40
0.0
 40
0.0
 40
0.8464384422550353
 40
0.8464384422550353
 40
0.8464384422550353
 10
35.03246894595441
 20
94.64968043175095
 30
0.0
 10
35.03246894595441
 20
95.07289965287846
 30
0.0
 10
35.03246894595441
 20
95.49611887400597
 30
0.0
  0
SPLINE
  5
77
330
1F
100
AcDbEntity
  8
Default
100
AcDbSpline
210
0.0
220
0.0
230
1.0
 70
    24
 71
     2
 72
     6
 73
     3
 74
     0
 42
0.0000000001
 43
0.0000000001
 40
0.0
 40
0.0
 40
0.0
 40
0.8464384422550353
 40
0.8464384422550353
 40
0.8464384422550353
 10
35.81987052075738
 20
94.64968043175095
 30
0.0
 10
35.81987052075738
 20
95.07289965287846
 30
0.0
 10
35.81987052075738
 20
95.49611887400597
 30
0.0
  0
ARC
  5
78
330
1F
100
AcDbEntity
  8
Default
100
AcDbCircle
 10
100.0719261849517
 20
14.13584138839402
 30
0.0
 40
0.75
100
AcDbArc
 50
180.0
 51
270.0
  0
SPLINE
  5
79
330
1F
100
AcDbEntity
  8
Default
100
AcDbSpline
210
0.0
220
0.0
230
1.0
 70
    24
 71
     2
 72
     6
 73
     3
 74
     0
 42
0.0000000001
 43
0.0000000001
 40
0.7499999999999999
 40
0.7499999999999999
 40
0.7499999999999999
 40
18.25010801458554
 40
18.25010801458554
 40
18.25010801458554
 10
100.0719261849517
 20
13.38584138839402
 30
0.0
 10
108.8219801922446
 20
13.38584138839402
 30
0.0
 10
117.5720341995375
 20
13.38584138839402
 30
0.0
  0
ARC
  5
7A
330
1F
100
AcDbEntity
  8
Default
100
AcDbCircle
 10
117.5720341995375
 20
14.13584138839402
 30
0.0
 40
0.75
100
AcDbArc
 50
270.0
 51
0.0
  0
SPLINE
  5
7B
330
1F
100
AcDbEntity
  8
Default
100
AcDbSpline
210
0.0
220
0.0
230
1.0
 70
    24
 71
     2
 72
     6
 73
     3
 74
     0
 42
0.0000000001
 43
0.0000000001
 40
19.75010801458554
 40
19.75010801458554
 40
19.75010801458554
 40
22.75010801458556
 40
22.75010801458556
 40
22.75010801458556
 10
118.3220341995375
 20
14.13584138839402
 30
0.0
 10
118.3220341995375
 20
15.63584138839402
 30
0.0
 10
118.3220341995375
 20
17.13584138839402
 30
0.0
  0
ARC
  5
7C
330
1F
100
AcDbEntity
  8
Default
100
AcDbCircle
 10
117.5720341995375
 20
17.13584138839402
 30
0.0
 40
0.75
100
AcDbArc
 50
0.0
 51
90.0
  0
SPLINE
  5
7D
330
1F
100
AcDbEntity
  8
Default
100
AcDbSpline
210
0.0
220
0.0
230
1.0
 70
    24
 71
     2
 72
     6
 73
     3
 74
     0
 42
0.0000000001
 43
0.0000000001
 40
24.25010801458556
 40
24.25010801458556
 40
24.25010801458556
 40
41.7502160291711
 40
41.7502160291711
 40
41.7502160291711
 10
117.5720341995375
 20
17.88584138839402
 30
0.0
 10
108.8219801922446
 20
17.88584138839402
 30
0.0
 10
100.0719261849517
 20
17.88584138839402
 30
0.0
  0
ARC
  5
7E
330
1F
100
AcDbEntity
  8
Default
100
AcDbCircle
 10
100.0719261849517
 20
17.13584138839402
 30
0.0
 40
0.75
100
AcDbArc
 50
90.0
 51
180.0
  0
SPLINE
  5
7F
330
1F
100
AcDbEntity
  8
Default
100
AcDbSpline
210
0.0
220
0.0
230
1.0
 70
    24
 71
     2
 72
     6
 73
     3
 74
     0
 42
0.0000000001
 43
0.0000000001
 40
43.2502160291711
 40
43.2502160291711
 40
43.2502160291711
 40
46.25021602917113
 40
46.25021602917113
 40
46.25021602917113
 10
99.32192618495174
 20
17.13584138839402
 30
0.0
 10
99.32192618495174
 20
15.63584138839402
 30
0.0
 10
99.32192618495174
 20
14.13584138839402
 30
0.0
  0
SPLINE
  5
80
330
1F
100
AcDbEntity
  8
Default
100
AcDbSpline
210
0.0
220
0.0
230
1.0
 70
    12
 71
     2
 72
    14
 73
    11
 74
     0
 42
0.0000000001
 43
0.0000000001
 40
62.99212600892077
 40
62.99212600892077
 40
62.99212600892077
 40
80.06647844146256
 40
80.06647844146256
 40
81.63727476825747
 40
81.63727476825747
 40
142.6294007771782
 40
142.6294007771782
 40
144.2001971039731
 40
144.2001971039731
 40
161.2745495365149
 40
161.2745495365149
 40
161.2745495365149
 10
44.87495028332205
 20
30.72880854718035
 30
0.0
 41
1.0
 10
44.87495028332205
 20
39.26598476345124
 30
0.0
 41
1.0
 10
44.87495028332205
 20
47.80316097972214
 30
0.0
 41
1.0
 10
44.87495028332206
 20
48.80316097972217
 30
0.0
 41
0.707106781186545
 10
43.87495028332205
 20
48.80316097972214
 30
0.0
 41
1.0
 10
-0.0000383601623071
 20
48.80316097972214
 30
0.0
 41
1.0
 10
-43.87502700364666
 20
48.80316097972214
 30
0.0
 41
1.0
 10
-44.87502700364655
 20
48.80316097972217
 30
0.0
 41
0.707106781186545
 10
-44.87502700364666
 20
47.80316097972214
 30
0.0
 41
1.0
 10
-44.87502700364666
 20
39.26598476345124
 30
0.0
 41
1.0
 10
-44.87502700364666
 20
30.72880854718035
 30
0.0
 41
1.0
  0
SPLINE
  5
81
330
1F
100
AcDbEntity
  8
Default
100
AcDbSpline
210
0.0
220
0.0
230
1.0
 70
    24
 71
     2
 72
     6
 73
     3
 74
     0
 42
0.0000000001
 43
0.0000000001
 40
0.0
 40
0.0
 40
0.0
 40
1.000027003646466
 40
1.000027003646466
 40
1.000027003646466
 10
35.03246894595441
 20
82.80321498701507
 30
0.0
 10
35.03246894595441
 20
83.30322848883829
 30
0.0
 10
35.03246894595441
 20
83.8032419906615
 30
0.0
  0
SPLINE
  5
82
330
1F
100
AcDbEntity
  8
Default
100
AcDbSpline
210
0.0
220
0.0
230
1.0
 70
    24
 71
     2
 72
     6
 73
     3
 74
     0
 42
0.0000000001
 43
0.0000000001
 40
0.0
 40
0.0
 40
0.0
 40
0.8464384410894468
 40
0.8464384410894468
 40
0.8464384410894468
 10
35.03246894595441
 20
90.5532419906615
 30
0.0
 10
35.03246894595441
 20
90.97646121120623
 30
0.0
 10
35.03246894595441
 20
91.39968043175095
 30
0.0
  0
SPLINE
  5
83
330
1F
100
AcDbEntity
  8
Default
100
AcDbSpline
210
0.0
220
0.0
230
1.0
 70
    24
 71
     2
 72
     6
 73
     3
 74
     0
 42
0.0000000001
 43
0.0000000001
 40
0.0
 40
0.0
 40
0.0
 40
1.000027003646466
 40
1.000027003646466
 40
1.000027003646466
 10
35.81987052075738
 20
82.80321498701507
 30
0.0
 10
35.81987052075738
 20
83.30322848883829
 30
0.0
 10
35.81987052075738
 20
83.8032419906615
 30
0.0
  0
SPLINE
  5
84
330
1F
100
AcDbEntity
  8
Default
100
AcDbSpline
210
0.0
220
0.0
230
1.0
 70
    24
 71
     2
 72
     6
 73
     3
 74
     0
 42
0.0000000001
 43
0.0000000001
 40
0.0
 40
0.0
 40
0.0
 40
1.000027003645897
 40
1.000027003645897
 40
1.000027003645897
 10
35.81987052075738
 20
102.246118874006
 30
0.0
 10
35.81987052075738
 20
102.7461323758289
 30
0.0
 10
35.81987052075738
 20
103.2461458776519
 30
0.0
  0
SPLINE
  5
85
330
1F
100
AcDbEntity
  8
Default
100
AcDbSpline
210
0.0
220
0.0
230
1.0
 70
    24
 71
     2
 72
     6
 73
     3
 74
     0
 42
0.0000000001
 43
0.0000000001
 40
0.0
 40
0.0
 40
0.0
 40
1.000027003645897
 40
1.000027003645897
 40
1.000027003645897
 10
35.03246894595441
 20
102.246118874006
 30
0.0
 10
35.03246894595441
 20
102.7461323758289
 30
0.0
 10
35.03246894595441
 20
103.2461458776519
 30
0.0
  0
ARC
  5
86
330
1F
100
AcDbEntity
  8
Default
100
AcDbCircle
 10
60.62894128702192
 20
14.13584138839402
 30
0.0
 40
0.75
100
AcDbArc
 50
180.0
 51
270.0
  0
SPLINE
  5
87
330
1F
100
AcDbEntity
  8
Default
100
AcDbSpline
210
0.0
220
0.0
230
1.0
 70
    24
 71
     2
 72
     6
 73
     3
 74
     0
 42
0.0000000001
 43
0.0000000001
 40
0.7499999999999999
 40
0.7499999999999999
 40
0.7499999999999999
 40
18.25010801458558
 40
18.25010801458558
 40
18.25010801458558
 10
60.62894128702192
 20
13.38584138839402
 30
0.0
 10
69.37899529431479
 20
13.38584138839402
 30
0.0
 10
78.12904930160767
 20
13.38584138839402
 30
0.0
  0
ARC
  5
88
330
1F
100
AcDbEntity
  8
Default
100
AcDbCircle
 10
78.12904930160767
 20
14.13584138839402
 30
0.0
 40
0.75
100
AcDbArc
 50
270.0
 51
0.0
  0
SPLINE
  5
89
330
1F
100
AcDbEntity
  8
Default
100
AcDbSpline
210
0.0
220
0.0
230
1.0
 70
    24
 71
     2
 72
     6
 73
     3
 74
     0
 42
0.0000000001
 43
0.0000000001
 40
19.75010801458558
 40
19.75010801458558
 40
19.75010801458558
 40
22.75010801458561
 40
22.75010801458561
 40
22.75010801458561
 10
78.87904930160767
 20
14.13584138839402
 30
0.0
 10
78.87904930160767
 20
15.63584138839402
 30
0.0
 10
78.87904930160767
 20
17.13584138839402
 30
0.0
  0
ARC
  5
8A
330
1F
100
AcDbEntity
  8
Default
100
AcDbCircle
 10
78.12904930160767
 20
17.13584138839402
 30
0.0
 40
0.75
100
AcDbArc
 50
0.0
 51
90.0
  0
SPLINE
  5
8B
330
1F
100
AcDbEntity
  8
Default
100
AcDbSpline
210
0.0
220
0.0
230
1.0
 70
    24
 71
     2
 72
     6
 73
     3
 74
     0
 42
0.0000000001
 43
0.0000000001
 40
24.25010801458561
 40
24.25010801458561
 40
24.25010801458561
 40
41.75021602917118
 40
41.75021602917118
 40
41.75021602917118
 10
78.12904930160767
 20
17.88584138839402
 30
0.0
 10
69.37899529431479
 20
17.88584138839402
 30
0.0
 10
60.62894128702192
 20
17.88584138839402
 30
0.0
  0
ARC
  5
8C
330
1F
100
AcDbEntity
  8
Default
100
AcDbCircle
 10
60.62894128702192
 20
17.13584138839402
 30
0.0
 40
0.75
100
AcDbArc
 50
90.0
 51
180.0
  0
SPLINE
  5
8D
330
1F
100
AcDbEntity
  8
Default
100
AcDbSpline
210
0.0
220
0.0
230
1.0
 70
    24
 71
     2
 72
     6
 73
     3
 74
     0
 42
0.0000000001
 43
0.0000000001
 40
43.25021602917118
 40
43.25021602917118
 40
43.25021602917118
 40
46.25021602917121
 40
46.25021602917121
 40
46.25021602917121
 10
59.87894128702192
 20
17.13584138839402
 30
0.0
 10
59.87894128702192
 20
15.63584138839402
 30
0.0
 10
59.87894128702192
 20
14.13584138839402
 30
0.0
  0
LINE
  5
8E
330
1F
100
AcDbEntity
  8
Default
100
AcDbLine
 10
90.01563370884969
 20
11.0236366640021
 30
0.0
 11
115.6753074388212
 21
11.02363666398317
 31
0.0
  0
SPLINE
  5
8F
330
1F
100
AcDbEntity
  8
Default
100
AcDbSpline
210
0.0
220
0.0
230
1.0
 70
    24
 71
     2
 72
     6
 73
     3
 74
     0
 42
0.0000000001
 43
0.0000000001
 40
0.0
 40
0.0
 40
0.0
 40
0.846438441089461
 40
0.846438441089461
 40
0.846438441089461
 10
35.81987052075738
 20
90.5532419906615
 30
0.0
 10
35.81987052075738
 20
90.97646121120623
 30
0.0
 10
35.81987052075738
 20
91.39968043175095
 30
0.0
  0
ARC
  5
90
330
1F
100
AcDbEntity
  8
Default
100
AcDbCircle
 10
80.62904930159084
 20
14.13581438474769
 30
0.0
 40
0.75
100
AcDbArc
 50
180.0
 51
270.0
  0
SPLINE
  5
91
330
1F
100
AcDbEntity
  8
Default
100
AcDbSpline
210
0.0
220
0.0
230
1.0
 70
    24
 71
     2
 72
     6
 73
     3
 74
     0
 42
0.0000000001
 43
0.0000000001
 40
0.75
 40
0.75
 40
0.75
 40
6.000000000033992
 40
6.000000000033992
 40
6.000000000033992
 10
80.62904930159084
 20
13.38581438474769
 30
0.0
 10
83.25404930160767
 20
13.38581438474769
 30
0.0
 10
85.87904930162449
 20
13.38581438474769
 30
0.0
  0
ARC
  5
92
330
1F
100
AcDbEntity
  8
Default
100
AcDbCircle
 10
85.87904930162449
 20
14.13581438474769
 30
0.0
 40
0.75
100
AcDbArc
 50
270.0
 51
0.0
  0
SPLINE
  5
93
330
1F
100
AcDbEntity
  8
Default
100
AcDbSpline
210
0.0
220
0.0
230
1.0
 70
    24
 71
     2
 72
     6
 73
     3
 74
     0
 42
0.0000000001
 43
0.0000000001
 40
7.500000000033992
 40
7.500000000033992
 40
7.500000000033992
 40
24.25005400732664
 40
24.25005400732664
 40
24.25005400732664
 10
86.62904930162449
 20
14.13581438474769
 30
0.0
 10
86.62904930162449
 20
22.51084138839402
 30
0.0
 10
86.62904930162449
 20
30.88586839204034
 30
0.0
  0
ARC
  5
94
330
1F
100
AcDbEntity
  8
Default
100
AcDbCircle
 10
85.87904930162449
 20
30.88586839204034
 30
0.0
 40
0.75
100
AcDbArc
 50
0.0
 51
90.0
  0
SPLINE
  5
95
330
1F
100
AcDbEntity
  8
Default
100
AcDbSpline
210
0.0
220
0.0
230
1.0
 70
    24
 71
     2
 72
     6
 73
     3
 74
     0
 42
0.0000000001
 43
0.0000000001
 40
25.75005400732664
 40
25.75005400732664
 40
25.75005400732664
 40
31.00005400736063
 40
31.00005400736063
 40
31.00005400736063
 10
85.87904930162449
 20
31.63586839204034
 30
0.0
 10
83.25404930160767
 20
31.63586839204034
 30
0.0
 10
80.62904930159084
 20
31.63586839204034
 30
0.0
  0
ARC
  5
96
330
1F
100
AcDbEntity
  8
Default
100
AcDbCircle
 10
80.62904930159084
 20
30.88586839204034
 30
0.0
 40
0.75
100
AcDbArc
 50
90.0
 51
180.0
  0
SPLINE
  5
97
330
1F
100
AcDbEntity
  8
Default
100
AcDbSpline
210
0.0
220
0.0
230
1.0
 70
    24
 71
     2
 72
     6
 73
     3
 74
     0
 42
0.0000000001
 43
0.0000000001
 40
32.50005400736063
 40
32.50005400736063
 40
32.50005400736063
 40
49.25010801465328
 40
49.25010801465328
 40
49.25010801465328
 10
79.87904930159084
 20
30.88586839204034
 30
0.0
 10
79.87904930159084
 20
22.51084138839402
 30
0.0
 10
79.87904930159084
 20
14.13581438474769
 30
0.0
  0
ARC
  5
98
330
1F
100
AcDbEntity
  8
Default
100
AcDbCircle
 10
88.22548774269717
 20
25.55313397607582
 30
0.0
 40
0.75
100
AcDbArc
 50
180.0
 51
270.0
  0
SPLINE
  5
99
330
1F
100
AcDbEntity
  8
Default
100
AcDbSpline
210
0.0
220
0.0
230
1.0
 70
    24
 71
     2
 72
     6
 73
     3
 74
     0
 42
0.0000000001
 43
0.0000000001
 40
0.75
 40
0.75
 40
0.75
 40
2.5
 40
2.5
 40
2.5
 10
88.22548774269717
 20
24.80313397607582
 30
0.0
 10
89.10048774269717
 20
24.80313397607582
 30
0.0
 10
89.97548774269717
 20
24.80313397607582
 30
0.0
  0
ARC
  5
9A
330
1F
100
AcDbEntity
  8
Default
100
AcDbCircle
 10
89.97548774269717
 20
25.55313397607582
 30
0.0
 40
0.75
100
AcDbArc
 50
270.0
 51
0.0
  0
SPLINE
  5
9B
330
1F
100
AcDbEntity
  8
Default
100
AcDbSpline
210
0.0
220
0.0
230
1.0
 70
    24
 71
     2
 72
     6
 73
     3
 74
     0
 42
0.0000000001
 43
0.0000000001
 40
3.999999999999999
 40
3.999999999999999
 40
3.999999999999999
 40
26.50005400729267
 40
26.50005400729267
 40
26.50005400729267
 10
90.72548774269717
 20
25.55313397607582
 30
0.0
 10
90.72548774269717
 20
36.80316097972216
 30
0.0
 10
90.72548774269717
 20
48.05318798336852
 30
0.0
  0
ARC
  5
9C
330
1F
100
AcDbEntity
  8
Default
100
AcDbCircle
 10
89.97548774269717
 20
48.05318798336852
 30
0.0
 40
0.75
100
AcDbArc
 50
0.0
 51
90.0
  0
SPLINE
  5
9D
330
1F
100
AcDbEntity
  8
Default
100
AcDbSpline
210
0.0
220
0.0
230
1.0
 70
    24
 71
     2
 72
     6
 73
     3
 74
     0
 42
0.0000000001
 43
0.0000000001
 40
28.00005400729268
 40
28.00005400729268
 40
28.00005400729268
 40
29.75005400729268
 40
29.75005400729268
 40
29.75005400729268
 10
89.97548774269717
 20
48.80318798336852
 30
0.0
 10
89.10048774269717
 20
48.80318798336852
 30
0.0
 10
88.22548774269717
 20
48.80318798336852
 30
0.0
  0
ARC
  5
9E
330
1F
100
AcDbEntity
  8
Default
100
AcDbCircle
 10
88.22548774269717
 20
48.05318798336852
 30
0.0
 40
0.75
100
AcDbArc
 50
90.0
 51
180.0
  0
SPLINE
  5
9F
330
1F
100
AcDbEntity
  8
Default
100
AcDbSpline
210
0.0
220
0.0
230
1.0
 70
    24
 71
     2
 72
     6
 73
     3
 74
     0
 42
0.0000000001
 43
0.0000000001
 40
31.25005400729268
 40
31.25005400729268
 40
31.25005400729268
 40
53.75010801458536
 40
53.75010801458536
 40
53.75010801458536
 10
87.47548774269717
 20
48.05318798336852
 30
0.0
 10
87.47548774269717
 20
36.80316097972216
 30
0.0
 10
87.47548774269717
 20
25.55313397607582
 30
0.0
  0
ARC
  5
A0
330
1F
100
AcDbEntity
  8
Default
100
AcDbCircle
 10
92.32192618495219
 20
14.13581438474769
 30
0.0
 40
0.75
100
AcDbArc
 50
180.0
 51
270.0
  0
SPLINE
  5
A1
330
1F
100
AcDbEntity
  8
Default
100
AcDbSpline
210
0.0
220
0.0
230
1.0
 70
    24
 71
     2
 72
     6
 73
     3
 74
     0
 42
0.0000000001
 43
0.0000000001
 40
0.75
 40
0.75
 40
0.75
 40
6.000000000000014
 40
6.000000000000014
 40
6.000000000000014
 10
92.32192618495219
 20
13.38581438474769
 30
0.0
 10
94.94692618495219
 20
13.38581438474769
 30
0.0
 10
97.57192618495219
 20
13.38581438474769
 30
0.0
  0
ARC
  5
A2
330
1F
100
AcDbEntity
  8
Default
100
AcDbCircle
 10
97.57192618495219
 20
14.13581438474769
 30
0.0
 40
0.75
100
AcDbArc
 50
270.0
 51
0.0
  0
SPLINE
  5
A3
330
1F
100
AcDbEntity
  8
Default
100
AcDbSpline
210
0.0
220
0.0
230
1.0
 70
    24
 71
     2
 72
     6
 73
     3
 74
     0
 42
0.0000000001
 43
0.0000000001
 40
7.500000000000014
 40
7.500000000000014
 40
7.500000000000014
 40
24.25005400729266
 40
24.25005400729266
 40
24.25005400729266
 10
98.32192618495219
 20
14.13581438474769
 30
0.0
 10
98.32192618495219
 20
22.51084138839402
 30
0.0
 10
98.32192618495219
 20
30.88586839204034
 30
0.0
  0
ARC
  5
A4
330
1F
100
AcDbEntity
  8
Default
100
AcDbCircle
 10
97.57192618495219
 20
30.88586839204034
 30
0.0
 40
0.75
100
AcDbArc
 50
0.0
 51
90.0
  0
SPLINE
  5
A5
330
1F
100
AcDbEntity
  8
Default
100
AcDbSpline
210
0.0
220
0.0
230
1.0
 70
    24
 71
     2
 72
     6
 73
     3
 74
     0
 42
0.0000000001
 43
0.0000000001
 40
25.75005400729266
 40
25.75005400729266
 40
25.75005400729266
 40
31.00005400729268
 40
31.00005400729268
 40
31.00005400729268
 10
97.57192618495219
 20
31.63586839204034
 30
0.0
 10
94.94692618495219
 20
31.63586839204034
 30
0.0
 10
92.32192618495219
 20
31.63586839204034
 30
0.0
  0
ARC
  5
A6
330
1F
100
AcDbEntity
  8
Default
100
AcDbCircle
 10
92.32192618495219
 20
30.88586839204034
 30
0.0
 40
0.75
100
AcDbArc
 50
90.0
 51
180.0
  0
SPLINE
  5
A7
330
1F
100
AcDbEntity
  8
Default
100
AcDbSpline
210
0.0
220
0.0
230
1.0
 70
    24
 71
     2
 72
     6
 73
     3
 74
     0
 42
0.0000000001
 43
0.0000000001
 40
32.50005400729268
 40
32.50005400729268
 40
32.50005400729268
 40
49.25010801458532
 40
49.25010801458532
 40
49.25010801458532
 10
91.57192618495219
 20
30.88586839204034
 30
0.0
 10
91.57192618495219
 20
22.51084138839402
 30
0.0
 10
91.57192618495219
 20
14.13581438474769
 30
0.0
  0
ENDSEC
  0
SECTION
  2
OBJECTS
  0
DICTIONARY
  5
C
330
0
100
AcDbDictionary
281
     1
  3
ACAD_GROUP
350
D
  3
ACAD_LAYOUT
350
1A
  3
ACAD_MLEADERSTYLE
350
A9
  3
ACAD_MLINESTYLE
350
17
  3
ACAD_PLOTSETTINGS
350
19
  3
ACAD_PLOTSTYLENAME
350
E
  3
ACAD_TABLESTYLE
350
A8
  3
ACAD_VISUALSTYLE
350
2A
  0
DICTIONARY
  5
D
102
{ACAD_REACTORS
330
C
102
}
330
C
100
AcDbDictionary
281
     1
  0
DICTIONARY
  5
1A
102
{ACAD_REACTORS
330
C
102
}
330
C
100
AcDbDictionary
281
     1
  3
Layout1
350
1E
  3
Layout2
350
26
  3
Model
350
22
  0
DICTIONARY
  5
A9
102
{ACAD_REACTORS
330
C
102
}
330
C
100
AcDbDictionary
281
     1
  0
DICTIONARY
  5
17
102
{ACAD_REACTORS
330
C
102
}
330
C
100
AcDbDictionary
281
     1
  3
Standard
350
18
  0
DICTIONARY
  5
19
102
{ACAD_REACTORS
330
C
102
}
330
C
100
AcDbDictionary
281
     1
  0
ACDBDICTIONARYWDFLT
  5
E
102
{ACAD_REACTORS
330
C
102
}
330
C
100
AcDbDictionary
281
     1
  3
Normal
350
F
100
AcDbDictionaryWithDefault
340
F
  0
DICTIONARY
  5
A8
102
{ACAD_REACTORS
330
C
102
}
330
C
100
AcDbDictionary
281
     1
  0
DICTIONARY
  5
2A
102
{ACAD_REACTORS
330
C
102
}
330
C
100
AcDbDictionary
281
     1
  3
2dWireframe
350
2F
  3
3D Hidden
350
31
  3
3dWireframe
350
30
  3
Basic
350
32
  3
Brighten
350
36
  3
ColorChange
350
3A
  3
Conceptual
350
34
  3
Dim
350
35
  3
Facepattern
350
39
  3
Flat
350
2B
  3
FlatWithEdges
350
2C
  3
Gouraud
350
2D
  3
GouraudWithEdges
350
2E
  3
Linepattern
350
38
  3
Realistic
350
33
  3
Thicken
350
37
  0
LAYOUT
  5
1E
102
{ACAD_REACTORS
330
1A
102
}
330
1A
100
AcDbPlotSettings
  1

  2
none_device
  4

  6

 40
0.0
 41
0.0
 42
0.0
 43
0.0
 44
0.0
 45
0.0
 46
0.0
 47
0.0
 48
0.0
 49
0.0
140
0.0
141
0.0
142
1.0
143
1.0
 70
   688
 72
     0
 73
     0
 74
     5
  7

 75
    16
 76
     0
 77
     2
 78
   300
147
1.0
148
0.0
149
0.0
100
AcDbLayout
  1
Layout1
 70
     1
 71
     1
 10
0.0
 20
0.0
 11
12.0
 21
9.0
 12
0.0
 22
0.0
 32
0.0
 14
1.000000000000000E+20
 24
1.000000000000000E+20
 34
1.000000000000000E+20
 15
-1.000000000000000E+20
 25
-1.000000000000000E+20
 35
-1.000000000000000E+20
146
0.0
 13
0.0
 23
0.0
 33
0.0
 16
1.0
 26
0.0
 36
0.0
 17
0.0
 27
1.0
 37
0.0
 76
     0
330
1B
  0
LAYOUT
  5
26
102
{ACAD_REACTORS
330
1A
102
}
330
1A
100
AcDbPlotSettings
  1

  2
none_device
  4

  6

 40
0.0
 41
0.0
 42
0.0
 43
0.0
 44
0.0
 45
0.0
 46
0.0
 47
0.0
 48
0.0
 49
0.0
140
0.0
141
0.0
142
1.0
143
1.0
 70
   688
 72
     0
 73
     0
 74
     5
  7

 75
    16
 76
     0
 77
     2
 78
   300
147
1.0
148
0.0
149
0.0
100
AcDbLayout
  1
Layout2
 70
     1
 71
     2
 10
0.0
 20
0.0
 11
0.0
 21
0.0
 12
0.0
 22
0.0
 32
0.0
 14
0.0
 24
0.0
 34
0.0
 15
0.0
 25
0.0
 35
0.0
146
0.0
 13
0.0
 23
0.0
 33
0.0
 16
1.0
 26
0.0
 36
0.0
 17
0.0
 27
1.0
 37
0.0
 76
     0
330
23
  0
LAYOUT
  5
22
102
{ACAD_REACTORS
330
1A
102
}
330
1A
100
AcDbPlotSettings
  1

  2
none_device
  4

  6

 40
0.0
 41
0.0
 42
0.0
 43
0.0
 44
0.0
 45
0.0
 46
0.0
 47
0.0
 48
0.0
 49
0.0
140
0.0
141
0.0
142
1.0
143
1.0
 70
  1712
 72
     0
 73
     0
 74
     0
  7

 75
     0
 76
     0
 77
     2
 78
   300
147
1.0
148
0.0
149
0.0
100
AcDbLayout
  1
Model
 70
     1
 71
     0
 10
0.0
 20
0.0
 11
12.0
 21
9.0
 12
0.0
 22
0.0
 32
0.0
 14
-44.87901800561167
 24
-0.0000179857378662
 34
0.0
 15
118.3220341995375
 25
122.2462001004202
 35
0.0
146
0.0
 13
0.0
 23
0.0
 33
0.0
 16
1.0
 26
0.0
 36
0.0
 17
0.0
 27
1.0
 37
0.0
 76
     0
330
1F
331
29
  0
MLINESTYLE
  5
18
102
{ACAD_REACTORS
330
17
102
}
330
17
100
AcDbMlineStyle
  2
Standard
 70
     0
  3

 62
   256
 51
90.0
 52
90.0
 71
     2
 49
0.5
 62
   256
  6
BYLAYER
 49
-0.5
 62
   256
  6
BYLAYER
  0
ACDBPLACEHOLDER
  5
F
102
{ACAD_REACTORS
330
E
102
}
330
E
  0
VISUALSTYLE
  5
2F
102
{ACAD_REACTORS
330
2A
102
}
330
2A
100
AcDbVisualStyle
  2
2dWireframe
 70
     4
 71
     0
 72
     2
 73
     0
 90
        0
 40
-0.6
 41
-30.0
 62
     5
 63
     7
421
 16777215
 74
     1
 91
        4
 64
     7
 65
   257
 75
     1
175
     1
 42
1.0
 92
        0
 66
   257
 43
1.0
 76
     1
 77
     6
 78
     2
 67
     7
 79
     5
170
     0
171
     0
290
     0
174
     0
 93
        1
 44
0.0
173
     0
291
     0
 45
0.0
1001
ACAD
1000
AcDbSavedByObjectVersion
1070
     0
  0
VISUALSTYLE
  5
31
102
{ACAD_REACTORS
330
2A
102
}
330
2A
100
AcDbVisualStyle
  2
3D Hidden
 70
     6
 71
     1
 72
     2
 73
     2
 90
        0
 40
-0.6
 41
-30.0
 62
     5
 63
     7
421
 16777215
 74
     2
 91
        2
 64
     7
 65
   257
 75
     2
175
     1
 42
40.0
 92
        0
 66
   257
 43
1.0
 76
     1
 77
     6
 78
     2
 67
     7
 79
     3
170
     0
171
     0
290
     0
174
     0
 93
        1
 44
0.0
173
     0
291
     0
 45
0.0
1001
ACAD
1000
AcDbSavedByObjectVersion
1070
     0
  0
VISUALSTYLE
  5
30
102
{ACAD_REACTORS
330
2A
102
}
330
2A
100
AcDbVisualStyle
  2
3dWireframe
 70
     5
 71
     0
 72
     2
 73
     0
 90
        0
 40
-0.6
 41
-30.0
 62
     5
 63
     7
421
 16777215
 74
     1
 91
        4
 64
     7
 65
   257
 75
     1
175
     1
 42
1.0
 92
        0
 66
   257
 43
1.0
 76
     1
 77
     6
 78
     2
 67
     7
 79
     5
170
     0
171
     0
290
     0
174
     0
 93
        1
 44
0.0
173
     0
291
     0
 45
0.0
1001
ACAD
1000
AcDbSavedByObjectVersion
1070
     0
  0
VISUALSTYLE
  5
32
102
{ACAD_REACTORS
330
2A
102
}
330
2A
100
AcDbVisualStyle
  2
Basic
 70
     7
 71
     1
 72
     0
 73
     1
 90
        0
 40
-0.6
 41
-30.0
 62
     5
 63
     7
421
 16777215
 74
     0
 91
        4
 64
     7
 65
   257
 75
     1
175
     1
 42
1.0
 92
        8
 66
     7
 43
1.0
 76
     1
 77
     6
 78
     2
 67
     7
 79
     5
170
     0
171
     0
290
     0
174
     0
 93
        1
 44
0.0
173
     0
291
     1
 45
0.0
1001
ACAD
1000
AcDbSavedByObjectVersion
1070
     0
  0
VISUALSTYLE
  5
36
102
{ACAD_REACTORS
330
2A
102
}
330
2A
100
AcDbVisualStyle
  2
Brighten
 70
    12
 71
     2
 72
     2
 73
     0
 90
        0
 40
-0.6
 41
-30.0
 62
     5
 63
     7
421
 16777215
 74
     1
 91
        4
 64
     7
 65
   257
 75
     1
175
     1
 42
1.0
 92
        8
 66
     7
 43
1.0
 76
     1
 77
     6
 78
     2
 67
     7
 79
     5
170
     0
171
     0
290
     0
174
     0
 93
        1
 44
50.0
173
     0
291
     1
 45
0.0
1001
ACAD
1000
AcDbSavedByObjectVersion
1070
     0
  0
VISUALSTYLE
  5
3A
102
{ACAD_REACTORS
330
2A
102
}
330
2A
100
AcDbVisualStyle
  2
ColorChange
 70
    16
 71
     2
 72
     2
 73
     3
 90
        0
 40
-0.6
 41
-30.0
 62
     5
 63
     8
421
  8421504
 74
     1
 91
        4
 64
     7
 65
   257
 75
     1
175
     1
 42
1.0
 92
        8
 66
     8
424
  8421504
 43
1.0
 76
     1
 77
     6
 78
     2
 67
     7
 79
     5
170
     0
171
     0
290
     0
174
     0
 93
        1
 44
0.0
173
     0
291
     1
 45
0.0
1001
ACAD
1000
AcDbSavedByObjectVersion
1070
     0
  0
VISUALSTYLE
  5
34
102
{ACAD_REACTORS
330
2A
102
}
330
2A
100
AcDbVisualStyle
  2
Conceptual
 70
     9
 71
     3
 72
     2
 73
     0
 90
        0
 40
-0.6
 41
-30.0
 62
     5
 63
     7
421
 16777215
 74
     2
 91
        2
 64
     7
 65
   257
 75
     1
175
     1
 42
40.0
 92
        8
 66
     7
 43
1.0
 76
     1
 77
     6
 78
     2
 67
     7
 79
     3
170
     0
171
     0
290
     0
174
     0
 93
        1
 44
0.0
173
     0
291
     0
 45
0.0
1001
ACAD
1000
AcDbSavedByObjectVersion
1070
     0
  0
VISUALSTYLE
  5
35
102
{ACAD_REACTORS
330
2A
102
}
330
2A
100
AcDbVisualStyle
  2
Dim
 70
    11
 71
     2
 72
     2
 73
     0
 90
        0
 40
-0.6
 41
-30.0
 62
     5
 63
     7
421
 16777215
 74
     1
 91
        4
 64
     7
 65
   257
 75
     1
175
     1
 42
1.0
 92
        8
 66
     7
 43
1.0
 76
     1
 77
     6
 78
     2
 67
     7
 79
     5
170
     0
171
     0
290
     0
174
     0
 93
        1
 44
-50.0
173
     0
291
     1
 45
0.0
1001
ACAD
1000
AcDbSavedByObjectVersion
1070
     0
  0
VISUALSTYLE
  5
39
102
{ACAD_REACTORS
330
2A
102
}
330
2A
100
AcDbVisualStyle
  2
Facepattern
 70
    15
 71
     2
 72
     2
 73
     0
 90
        0
 40
-0.6
 41
-30.0
 62
     5
 63
     7
421
 16777215
 74
     1
 91
        4
 64
     7
 65
   257
 75
     1
175
     1
 42
1.0
 92
        8
 66
     7
 43
1.0
 76
     1
 77
     6
 78
     2
 67
     7
 79
     5
170
     0
171
     0
290
     0
174
     0
 93
        1
 44
0.0
173
     0
291
     1
 45
0.0
1001
ACAD
1000
AcDbSavedByObjectVersion
1070
     0
  0
VISUALSTYLE
  5
2B
102
{ACAD_REACTORS
330
2A
102
}
330
2A
100
AcDbVisualStyle
  2
Flat
 70
     0
 71
     2
 72
     1
 73
     1
 90
        2
 40
-0.6
 41
30.0
 62
     5
 63
     7
421
 16777215
 74
     0
 91
        4
 64
     7
 65
   257
 75
     1
175
     1
 42
1.0
 92
        8
 66
     7
 43
1.0
 76
     1
 77
     6
 78
     2
 67
     7
 79
     5
170
     0
171
     0
290
     0
174
     0
 93
       13
 44
0.0
173
     0
291
     1
 45
0.0
1001
ACAD
1000
AcDbSavedByObjectVersion
1070
     0
  0
VISUALSTYLE
  5
2C
102
{ACAD_REACTORS
330
2A
102
}
330
2A
100
AcDbVisualStyle
  2
FlatWithEdges
 70
     1
 71
     2
 72
     1
 73
     1
 90
        2
 40
-0.6
 41
30.0
 62
     5
 63
     7
421
 16777215
 74
     1
 91
        4
 64
     7
 65
   257
 75
     1
175
     1
 42
1.0
 92
        0
 66
   257
 43
1.0
 76
     1
 77
     6
 78
     2
 67
     7
 79
     5
170
     0
171
     0
290
     0
174
     0
 93
       13
 44
0.0
173
     0
291
     1
 45
0.0
1001
ACAD
1000
AcDbSavedByObjectVersion
1070
     0
  0
VISUALSTYLE
  5
2D
102
{ACAD_REACTORS
330
2A
102
}
330
2A
100
AcDbVisualStyle
  2
Gouraud
 70
     2
 71
     2
 72
     2
 73
     1
 90
        2
 40
-0.6
 41
30.0
 62
     5
 63
     7
421
 16777215
 74
     0
 91
        4
 64
     7
 65
   257
 75
     1
175
     1
 42
1.0
 92
        0
 66
     7
 43
1.0
 76
     1
 77
     6
 78
     2
 67
     7
 79
     5
170
     0
171
     0
290
     0
174
     0
 93
       13
 44
0.0
173
     0
291
     1
 45
0.0
1001
ACAD
1000
AcDbSavedByObjectVersion
1070
     0
  0
VISUALSTYLE
  5
2E
102
{ACAD_REACTORS
330
2A
102
}
330
2A
100
AcDbVisualStyle
  2
GouraudWithEdges
 70
     3
 71
     2
 72
     2
 73
     1
 90
        2
 40
-0.6
 41
30.0
 62
     5
 63
     7
421
 16777215
 74
     1
 91
        4
 64
     7
 65
   257
 75
     1
175
     1
 42
1.0
 92
        0
 66
   257
 43
1.0
 76
     1
 77
     6
 78
     2
 67
     7
 79
     5
170
     0
171
     0
290
     0
174
     0
 93
       13
 44
0.0
173
     0
291
     1
 45
0.0
1001
ACAD
1000
AcDbSavedByObjectVersion
1070
     0
  0
VISUALSTYLE
  5
38
102
{ACAD_REACTORS
330
2A
102
}
330
2A
100
AcDbVisualStyle
  2
Linepattern
 70
    14
 71
     2
 72
     2
 73
     0
 90
        0
 40
-0.6
 41
-30.0
 62
     5
 63
     7
421
 16777215
 74
     1
 91
        4
 64
     7
 65
   257
 75
     7
175
     7
 42
1.0
 92
        8
 66
     7
 43
1.0
 76
     1
 77
     6
 78
     2
 67
     7
 79
     5
170
     0
171
     0
290
     0
174
     0
 93
        1
 44
0.0
173
     0
291
     1
 45
0.0
1001
ACAD
1000
AcDbSavedByObjectVersion
1070
     0
  0
VISUALSTYLE
  5
33
102
{ACAD_REACTORS
330
2A
102
}
330
2A
100
AcDbVisualStyle
  2
Realistic
 70
     8
 71
     2
 72
     2
 73
     0
 90
        0
 40
-0.6
 41
-30.0
 62
     5
 63
     7
421
 16777215
 74
     1
 91
        0
 64
     7
 65
   257
 75
     1
175
     1
 42
1.0
 92
        8
 66
     8
424
  7895160
 43
1.0
 76
     1
 77
     6
 78
     2
 67
     7
 79
     5
170
     0
171
     0
290
     0
174
     0
 93
       13
 44
0.0
173
     0
291
     0
 45
0.0
1001
ACAD
1000
AcDbSavedByObjectVersion
1070
     0
  0
VISUALSTYLE
  5
37
102
{ACAD_REACTORS
330
2A
102
}
330
2A
100
AcDbVisualStyle
  2
Thicken
 70
    13
 71
     2
 72
     2
 73
     0
 90
        0
 40
-0.6
 41
-30.0
 62
     5
 63
     7
421
 16777215
 74
     1
 91
        4
 64
     7
 65
   257
 75
     1
175
     1
 42
1.0
 92
       12
 66
     7
 43
1.0
 76
     1
 77
     6
 78
     2
 67
     7
 79
     5
170
     0
171
     0
290
     0
174
     0
 93
        1
 44
0.0
173
     0
291
     1
 45
0.0
1001
ACAD
1000
AcDbSavedByObjectVersion
1070
     0
  0
ENDSEC
  0
EOF
