  0
SECTION
  2
HEADER
  9
$ACADVER
  1
AC1018
  9
$ACADMAINTVER
 70
     0
  9
$DWGCODEPAGE
  3
ANSI_1252
  9
$INSBASE
 10
0.0
 20
0.0
 30
0.0
  9
$EXTMIN
 10
-39.5335734005706
 20
0.0
 30
0.0
  9
$EXTMAX
 10
98.55009371216622
 20
85.76467375516107
 30
0.0
  9
$LIMMIN
 10
0.0
 20
0.0
  9
$LIMMAX
 10
12.0
 20
9.0
  9
$ORTHOMODE
 70
     0
  9
$REGENMODE
 70
     1
  9
$FILLMODE
 70
     1
  9
$QTEXTMODE
 70
     0
  9
$MIRRTEXT
 70
     1
  9
$LTSCALE
 40
1.0
  9
$ATTMODE
 70
     1
  9
$TEXTSIZE
 40
0.2
  9
$TRACEWID
 40
0.05
  9
$TEXTSTYLE
  7
Standard
  9
$CLAYER
  8
Default
  9
$CELTYPE
  6
ByLayer
  9
$CECOLOR
 62
   256
  9
$CELTSCALE
 40
1.0
  9
$DISPSILH
 70
     0
  9
$DIMSCALE
 40
1.0
  9
$DIMASZ
 40
0.18
  9
$DIMEXO
 40
0.0625
  9
$DIMDLI
 40
0.38
  9
$DIMRND
 40
0.0
  9
$DIMDLE
 40
0.0
  9
$DIMEXE
 40
0.18
  9
$DIMTP
 40
0.0
  9
$DIMTM
 40
0.0
  9
$DIMTXT
 40
0.18
  9
$DIMCEN
 40
0.09
  9
$DIMTSZ
 40
0.0
  9
$DIMTOL
 70
     0
  9
$DIMLIM
 70
     0
  9
$DIMTIH
 70
     1
  9
$DIMTOH
 70
     1
  9
$DIMSE1
 70
     0
  9
$DIMSE2
 70
     0
  9
$DIMTAD
 70
     0
  9
$DIMZIN
 70
     0
  9
$DIMBLK
  1

  9
$DIMASO
 70
     1
  9
$DIMSHO
 70
     1
  9
$DIMPOST
  1

  9
$DIMAPOST
  1

  9
$DIMALT
 70
     0
  9
$DIMALTD
 70
     2
  9
$DIMALTF
 40
25.4
  9
$DIMLFAC
 40
1.0
  9
$DIMTOFL
 70
     0
  9
$DIMTVP
 40
0.0
  9
$DIMTIX
 70
     0
  9
$DIMSOXD
 70
     0
  9
$DIMSAH
 70
     0
  9
$DIMBLK1
  1

  9
$DIMBLK2
  1

  9
$DIMSTYLE
  2
Standard
  9
$DIMCLRD
 70
     0
  9
$DIMCLRE
 70
     0
  9
$DIMCLRT
 70
     0
  9
$DIMTFAC
 40
1.0
  9
$DIMGAP
 40
0.09
  9
$DIMJUST
 70
     0
  9
$DIMSD1
 70
     0
  9
$DIMSD2
 70
     0
  9
$DIMTOLJ
 70
     1
  9
$DIMTZIN
 70
     0
  9
$DIMALTZ
 70
     0
  9
$DIMALTTZ
 70
     0
  9
$DIMUPT
 70
     0
  9
$DIMDEC
 70
     4
  9
$DIMTDEC
 70
     4
  9
$DIMALTU
 70
     2
  9
$DIMALTTD
 70
     2
  9
$DIMTXSTY
  7
Standard
  9
$DIMAUNIT
 70
     0
  9
$DIMADEC
 70
     0
  9
$DIMALTRND
 40
0.0
  9
$DIMAZIN
 70
     0
  9
$DIMDSEP
 70
    46
  9
$DIMATFIT
 70
     3
  9
$DIMFRAC
 70
     0
  9
$DIMLDRBLK
  1

  9
$DIMLUNIT
 70
     2
  9
$DIMLWD
 70
    -2
  9
$DIMLWE
 70
    -2
  9
$DIMTMOVE
 70
     2
  9
$LUNITS
 70
     2
  9
$LUPREC
 70
     3
  9
$SKETCHINC
 40
0.1
  9
$FILLETRAD
 40
0.5
  9
$AUNITS
 70
     0
  9
$AUPREC
 70
     0
  9
$MENU
  1
.
  9
$ELEVATION
 40
0.0
  9
$PELEVATION
 40
0.0
  9
$THICKNESS
 40
0.0
  9
$LIMCHECK
 70
     0
  9
$CHAMFERA
 40
0.5
  9
$CHAMFERB
 40
0.5
  9
$CHAMFERC
 40
1.0
  9
$CHAMFERD
 40
0.0
  9
$SKPOLY
 70
     0
  9
$TDCREATE
 40
2457659.426058021
  9
$TDUCREATE
 40
2457659.592724687
  9
$TDUPDATE
 40
2457659.426058033
  9
$TDUUPDATE
 40
2457659.592724699
  9
$TDINDWG
 40
0.0000000116
  9
$TDUSRTIMER
 40
0.0000000116
  9
$USRTIMER
 70
     1
  9
$ANGBASE
 50
0.0
  9
$ANGDIR
 70
     0
  9
$PDMODE
 70
     0
  9
$PDSIZE
 40
0.0
  9
$PLINEWID
 40
0.0
  9
$SPLFRAME
 70
     0
  9
$SPLINETYPE
 70
     6
  9
$SPLINESEGS
 70
     8
  9
$HANDSEED
  5
194
  9
$SURFTAB1
 70
     6
  9
$SURFTAB2
 70
     6
  9
$SURFTYPE
 70
     6
  9
$SURFU
 70
     6
  9
$SURFV
 70
     6
  9
$UCSBASE
  2

  9
$UCSNAME
  2

  9
$UCSORG
 10
0.0
 20
0.0
 30
0.0
  9
$UCSXDIR
 10
1.0
 20
0.0
 30
0.0
  9
$UCSYDIR
 10
0.0
 20
1.0
 30
0.0
  9
$UCSORTHOREF
  2

  9
$UCSORTHOVIEW
 70
     0
  9
$UCSORGTOP
 10
0.0
 20
0.0
 30
0.0
  9
$UCSORGBOTTOM
 10
0.0
 20
0.0
 30
0.0
  9
$UCSORGLEFT
 10
0.0
 20
0.0
 30
0.0
  9
$UCSORGRIGHT
 10
0.0
 20
0.0
 30
0.0
  9
$UCSORGFRONT
 10
0.0
 20
0.0
 30
0.0
  9
$UCSORGBACK
 10
0.0
 20
0.0
 30
0.0
  9
$PUCSBASE
  2

  9
$PUCSNAME
  2

  9
$PUCSORG
 10
0.0
 20
0.0
 30
0.0
  9
$PUCSXDIR
 10
1.0
 20
0.0
 30
0.0
  9
$PUCSYDIR
 10
0.0
 20
1.0
 30
0.0
  9
$PUCSORTHOREF
  2

  9
$PUCSORTHOVIEW
 70
     0
  9
$PUCSORGTOP
 10
0.0
 20
0.0
 30
0.0
  9
$PUCSORGBOTTOM
 10
0.0
 20
0.0
 30
0.0
  9
$PUCSORGLEFT
 10
0.0
 20
0.0
 30
0.0
  9
$PUCSORGRIGHT
 10
0.0
 20
0.0
 30
0.0
  9
$PUCSORGFRONT
 10
0.0
 20
0.0
 30
0.0
  9
$PUCSORGBACK
 10
0.0
 20
0.0
 30
0.0
  9
$USERI1
 70
     0
  9
$USERI2
 70
     0
  9
$USERI3
 70
     0
  9
$USERI4
 70
     0
  9
$USERI5
 70
     0
  9
$USERR1
 40
0.0
  9
$USERR2
 40
0.0
  9
$USERR3
 40
0.0
  9
$USERR4
 40
0.0
  9
$USERR5
 40
0.0
  9
$WORLDVIEW
 70
     1
  9
$SHADEDGE
 70
     3
  9
$SHADEDIF
 70
    70
  9
$TILEMODE
 70
     1
  9
$MAXACTVP
 70
    64
  9
$PINSBASE
 10
0.0
 20
0.0
 30
0.0
  9
$PLIMCHECK
 70
     0
  9
$PEXTMIN
 10
1.000000000000000E+20
 20
1.000000000000000E+20
 30
1.000000000000000E+20
  9
$PEXTMAX
 10
-1.000000000000000E+20
 20
-1.000000000000000E+20
 30
-1.000000000000000E+20
  9
$PLIMMIN
 10
0.0
 20
0.0
  9
$PLIMMAX
 10
12.0
 20
9.0
  9
$UNITMODE
 70
     0
  9
$VISRETAIN
 70
     1
  9
$PLINEGEN
 70
     0
  9
$PSLTSCALE
 70
     1
  9
$TREEDEPTH
 70
  3020
  9
$CMLSTYLE
  2
Standard
  9
$CMLJUST
 70
     0
  9
$CMLSCALE
 40
1.0
  9
$PROXYGRAPHICS
 70
     1
  9
$MEASUREMENT
 70
     0
  9
$CELWEIGHT
370
    -1
  9
$ENDCAPS
280
     0
  9
$JOINSTYLE
280
     0
  9
$LWDISPLAY
290
     0
  9
$INSUNITS
 70
     4
  9
$HYPERLINKBASE
  1

  9
$STYLESHEET
  1

  9
$XEDIT
290
     1
  9
$CEPSNTYPE
380
     0
  9
$PSTYLEMODE
290
     1
  9
$FINGERPRINTGUID
  2
{01CC185D-7199-478B-B342-89076B74BC85}
  9
$VERSIONGUID
  2
{FAEB1C32-E019-11D5-929B-00C0DF256EC4}
  9
$EXTNAMES
290
     1
  9
$PSVPSCALE
 40
0.0
  9
$OLESTARTUP
290
     0
  9
$SORTENTS
280
   127
  9
$INDEXCTL
280
     0
  9
$HIDETEXT
280
     1
  9
$XCLIPFRAME
290
     0
  9
$HALOGAP
280
     0
  9
$OBSCOLOR
 70
   257
  9
$OBSLTYPE
280
     0
  9
$INTERSECTIONDISPLAY
280
     0
  9
$INTERSECTIONCOLOR
 70
   257
  9
$DIMASSOC
280
     2
  9
$PROJECTNAME
  1

  0
ENDSEC
  0
SECTION
  2
CLASSES
  0
CLASS
  1
ACDBDICTIONARYWDFLT
  2
AcDbDictionaryWithDefault
  3
ObjectDBX Classes
 90
        0
 91
        4
280
     0
281
     0
  0
CLASS
  1
VISUALSTYLE
  2
AcDbVisualStyle
  3
ObjectDBX Classes
 90
     4095
 91
        4
280
     0
281
     0
  0
ENDSEC
  0
SECTION
  2
TABLES
  0
TABLE
  2
VPORT
  5
8
330
0
100
AcDbSymbolTable
 70
     1
  0
VPORT
  5
29
330
8
100
AcDbSymbolTableRecord
100
AcDbViewportTableRecord
  2
*Active
 70
     0
 10
0.0
 20
0.0
 11
1.0
 21
1.0
 12
29.50826015579781
 22
42.88233687758053
 13
0.0
 23
0.0
 14
0.5
 24
0.5
 15
0.5
 25
0.5
 16
0.0
 26
0.0
 36
1.0
 17
0.0
 27
0.0
 37
0.0
 40
87.4799672302643
 41
1.610029643521233
 42
50.0
 43
0.0
 44
0.0
 50
0.0
 51
0.0
 71
     0
 72
   100
 73
     1
 74
     3
 75
     0
 76
     0
 77
     0
 78
     0
281
     0
 65
     1
110
0.0
120
0.0
130
0.0
111
1.0
121
0.0
131
0.0
112
0.0
122
1.0
132
0.0
 79
     0
146
0.0
  0
ENDTAB
  0
TABLE
  2
LTYPE
  5
5
330
0
100
AcDbSymbolTable
 70
     1
  0
LTYPE
  5
14
330
5
100
AcDbSymbolTableRecord
100
AcDbLinetypeTableRecord
  2
ByBlock
 70
     0
  3

 72
    65
 73
     0
 40
0.0
  0
LTYPE
  5
15
330
5
100
AcDbSymbolTableRecord
100
AcDbLinetypeTableRecord
  2
ByLayer
 70
     0
  3

 72
    65
 73
     0
 40
0.0
  0
LTYPE
  5
16
330
5
100
AcDbSymbolTableRecord
100
AcDbLinetypeTableRecord
  2
Continuous
 70
     0
  3
Solid line
 72
    65
 73
     0
 40
0.0
  0
ENDTAB
  0
TABLE
  2
LAYER
  5
2
330
0
100
AcDbSymbolTable
 70
     2
  0
LAYER
  5
10
330
2
100
AcDbSymbolTableRecord
100
AcDbLayerTableRecord
  2
0
 70
     0
 62
     7
  6
Continuous
370
    -3
390
F
  0
LAYER
  5
3B
330
2
100
AcDbSymbolTableRecord
100
AcDbLayerTableRecord
  2
Default
 70
     0
 62
     7
  6
Continuous
370
    -3
390
F
  0
ENDTAB
  0
TABLE
  2
STYLE
  5
3
330
0
100
AcDbSymbolTable
 70
     1
  0
STYLE
  5
11
330
3
100
AcDbSymbolTableRecord
100
AcDbTextStyleTableRecord
  2
Standard
 70
     0
 40
0.0
 41
1.0
 50
0.0
 71
     0
 42
0.2
  3
txt
  4

  0
ENDTAB
  0
TABLE
  2
VIEW
  5
6
330
0
100
AcDbSymbolTable
 70
     0
  0
ENDTAB
  0
TABLE
  2
UCS
  5
7
330
0
100
AcDbSymbolTable
 70
     0
  0
ENDTAB
  0
TABLE
  2
APPID
  5
9
330
0
100
AcDbSymbolTable
 70
     1
  0
APPID
  5
12
330
9
100
AcDbSymbolTableRecord
100
AcDbRegAppTableRecord
  2
ACAD
 70
     0
  0
ENDTAB
  0
TABLE
  2
DIMSTYLE
  5
A
330
0
100
AcDbSymbolTable
 70
     1
100
AcDbDimStyleTable
  0
DIMSTYLE
105
27
330
A
100
AcDbSymbolTableRecord
100
AcDbDimStyleTableRecord
  2
Standard
 70
     0
340
11
  0
ENDTAB
  0
TABLE
  2
BLOCK_RECORD
  5
1
330
0
100
AcDbSymbolTable
 70
     1
  0
BLOCK_RECORD
  5
1F
330
1
100
AcDbSymbolTableRecord
100
AcDbBlockTableRecord
  2
*Model_Space
340
22
  0
BLOCK_RECORD
  5
1B
330
1
100
AcDbSymbolTableRecord
100
AcDbBlockTableRecord
  2
*Paper_Space
340
1E
  0
BLOCK_RECORD
  5
23
330
1
100
AcDbSymbolTableRecord
100
AcDbBlockTableRecord
  2
*Paper_Space0
340
26
  0
ENDTAB
  0
ENDSEC
  0
SECTION
  2
BLOCKS
  0
BLOCK
  5
20
330
1F
100
AcDbEntity
  8
0
100
AcDbBlockBegin
  2
*Model_Space
 70
     0
 10
0.0
 20
0.0
 30
0.0
  3
*Model_Space
  1

  0
ENDBLK
  5
21
330
1F
100
AcDbEntity
  8
0
100
AcDbBlockEnd
  0
BLOCK
  5
1C
330
1B
100
AcDbEntity
 67
     1
  8
0
100
AcDbBlockBegin
  2
*Paper_Space
 70
     0
 10
0.0
 20
0.0
 30
0.0
  3
*Paper_Space
  1

  0
ENDBLK
  5
1D
330
1B
100
AcDbEntity
 67
     1
  8
0
100
AcDbBlockEnd
  0
BLOCK
  5
24
330
23
100
AcDbEntity
  8
0
100
AcDbBlockBegin
  2
*Paper_Space0
 70
     0
 10
0.0
 20
0.0
 30
0.0
  3
*Paper_Space0
  1

  0
ENDBLK
  5
25
330
23
100
AcDbEntity
  8
0
100
AcDbBlockEnd
  0
ENDSEC
  0
SECTION
  2
ENTITIES
  0
LINE
  5
3C
330
1F
100
AcDbEntity
  8
Default
100
AcDbLine
 10
94.41815277876768
 20
10.80180612388881
 30
0.0
 11
97.83836801723186
 21
10.80180612388881
 31
0.0
  0
SPLINE
  5
3D
330
1F
100
AcDbEntity
  8
Default
100
AcDbSpline
210
0.0
220
0.0
230
1.0
 70
     8
 71
     3
 72
     8
 73
     4
 74
     0
 42
0.0000000001
 43
0.0000000001
 40
0.0
 40
0.0
 40
0.0
 40
0.0
 40
1.0
 40
1.0
 40
1.0
 40
1.0
 10
97.83836801723186
 20
10.80180612388881
 30
0.0
 10
98.30316271174291
 20
10.80180612388881
 30
0.0
 10
98.55009371216622
 20
11.0481727105969
 30
0.0
 10
98.55009371216622
 20
11.51296740510796
 30
0.0
  0
LINE
  5
3E
330
1F
100
AcDbEntity
  8
Default
100
AcDbLine
 10
98.55009371216622
 20
11.51296740510796
 30
0.0
 11
98.55009371216622
 21
15.88209397488362
 31
0.0
  0
SPLINE
  5
3F
330
1F
100
AcDbEntity
  8
Default
100
AcDbSpline
210
0.0
220
0.0
230
1.0
 70
     8
 71
     3
 72
     8
 73
     4
 74
     0
 42
0.0000000001
 43
0.0000000001
 40
0.0
 40
0.0
 40
0.0
 40
0.0
 40
1.0
 40
1.0
 40
1.0
 40
1.0
 10
98.55009371216622
 20
15.88209397488362
 30
0.0
 10
98.55009371216622
 20
17.20959503315936
 30
0.0
 10
97.8454231886725
 20
17.91398334979544
 30
0.0
 10
96.51820433725442
 20
17.91398334979544
 30
0.0
  0
LINE
  5
40
330
1F
100
AcDbEntity
  8
Default
100
AcDbLine
 10
96.51820433725442
 20
17.91398334979544
 30
0.0
 11
96.23068423803153
 21
17.91398334979544
 31
0.0
  0
SPLINE
  5
41
330
1F
100
AcDbEntity
  8
Default
100
AcDbSpline
210
0.0
220
0.0
230
1.0
 70
     8
 71
     3
 72
     8
 73
     4
 74
     0
 42
0.0000000001
 43
0.0000000001
 40
0.2352156865430857
 40
0.2352156865430857
 40
0.2352156865430857
 40
0.2352156865430857
 40
1.0
 40
1.0
 40
1.0
 40
1.0
 10
69.19922764151262
 20
18.8547925153552
 30
0.0
 10
69.76843018818927
 20
17.55352837704268
 30
0.0
 10
70.37752614461213
 20
16.2731487253406
 30
0.0
 10
71.05479245634567
 20
15.0198391420912
 30
0.0
  0
SPLINE
  5
42
330
1F
100
AcDbEntity
  8
Default
100
AcDbSpline
210
0.0
220
0.0
230
1.0
 70
     8
 71
     3
 72
     8
 73
     4
 74
     0
 42
0.0000000001
 43
0.0000000001
 40
0.0
 40
0.0
 40
0.0
 40
0.0
 40
1.0
 40
1.0
 40
1.0
 40
1.0
 10
71.05479245634567
 20
15.0198391420912
 30
0.0
 10
71.79332780275459
 20
13.65254691689009
 30
0.0
 10
72.92159081954591
 20
11.53684210526316
 30
0.0
 10
74.63515085905487
 20
10.90582757161005
 30
0.0
  0
SPLINE
  5
43
330
1F
100
AcDbEntity
  8
Default
100
AcDbSpline
210
0.0
220
0.0
230
1.0
 70
     8
 71
     3
 72
     8
 73
     4
 74
     0
 42
0.0000000001
 43
0.0000000001
 40
0.0
 40
0.0
 40
0.0
 40
0.0
 40
1.0
 40
1.0
 40
1.0
 40
1.0
 10
74.63515085905487
 20
10.90582757161005
 30
0.0
 10
75.04350418204064
 20
10.75541131649501
 30
0.0
 10
75.44621336787384
 20
10.73565683646115
 30
0.0
 10
75.8545666908596
 20
10.73565683646115
 30
0.0
  0
SPLINE
  5
44
330
1F
100
AcDbEntity
  8
Default
100
AcDbSpline
210
0.0
220
0.0
230
1.0
 70
     8
 71
     3
 72
     8
 73
     4
 74
     0
 42
0.0000000001
 43
0.0000000001
 40
0.0
 40
0.0
 40
0.0
 40
0.0
 40
1.0
 40
1.0
 40
1.0
 40
1.0
 10
75.8545666908596
 20
10.73565683646115
 30
0.0
 10
76.00216087739832
 20
10.73565683646115
 30
0.0
 10
76.15031947765229
 20
10.73819669817979
 30
0.0
 10
76.29988911219442
 20
10.73819669817979
 30
0.0
  0
LINE
  5
45
330
1F
100
AcDbEntity
  8
Default
100
AcDbLine
 10
76.29988911219442
 20
10.73819669817979
 30
0.0
 11
77.65278878765653
 21
10.73819669817979
 31
0.0
  0
LINE
  5
46
330
1F
100
AcDbEntity
  8
Default
100
AcDbLine
 10
77.65278878765653
 20
10.73819669817979
 30
0.0
 11
80.35858813858081
 21
10.73819669817979
 31
0.0
  0
LINE
  5
47
330
1F
100
AcDbEntity
  8
Default
100
AcDbLine
 10
80.35858813858081
 20
10.73819669817979
 30
0.0
 11
85.76990463357163
 21
10.73819669817979
 31
0.0
  0
LINE
  5
48
330
1F
100
AcDbEntity
  8
Default
100
AcDbLine
 10
85.76990463357163
 20
10.73819669817979
 30
0.0
 11
92.94049867900694
 21
10.73819669817979
 31
0.0
  0
SPLINE
  5
49
330
1F
100
AcDbEntity
  8
Default
100
AcDbSpline
210
0.0
220
0.0
230
1.0
 70
     8
 71
     3
 72
     8
 73
     4
 74
     0
 42
0.0000000001
 43
0.0000000001
 40
0.0
 40
0.0
 40
0.0
 40
0.0
 40
1.0
 40
1.0
 40
1.0
 40
1.0
 10
92.94049867900694
 20
10.73819669817979
 30
0.0
 10
93.61017555215497
 20
10.73819669817979
 30
0.0
 10
94.27223284014707
 20
10.76218428107805
 30
0.0
 10
94.93626557614252
 20
10.86998730069143
 30
0.0
  0
SPLINE
  5
4A
330
1F
100
AcDbEntity
  8
Default
100
AcDbSpline
210
0.0
220
0.0
230
1.0
 70
     8
 71
     3
 72
     8
 73
     4
 74
     0
 42
0.0000000001
 43
0.0000000001
 40
0.0
 40
0.0
 40
0.0
 40
0.0
 40
1.0
 40
1.0
 40
1.0
 40
1.0
 10
94.93626557614252
 20
10.86998730069143
 30
0.0
 10
95.61102217272781
 20
10.9797657683082
 30
0.0
 10
96.20563202174719
 20
11.22726118244674
 30
0.0
 10
96.47090646791622
 20
11.94152673909977
 30
0.0
  0
SPLINE
  5
4B
330
1F
100
AcDbEntity
  8
Default
100
AcDbSpline
210
0.0
220
0.0
230
1.0
 70
     8
 71
     3
 72
     8
 73
     4
 74
     0
 42
0.0000000001
 43
0.0000000001
 40
0.0
 40
0.0
 40
0.0
 40
0.0
 40
1.0
 40
1.0
 40
1.0
 40
1.0
 10
96.47090646791622
 20
11.94152673909977
 30
0.0
 10
96.57108990237367
 20
12.21103428813325
 30
0.0
 10
96.60326148414313
 20
12.47941300973613
 30
0.0
 10
96.60947003501087
 20
12.76274869479332
 30
0.0
  0
SPLINE
  5
4C
330
1F
100
AcDbEntity
  8
Default
100
AcDbSpline
210
0.0
220
0.0
230
1.0
 70
     8
 71
     3
 72
     8
 73
     4
 74
     0
 42
0.0000000001
 43
0.0000000001
 40
0.0
 40
0.0
 40
0.0
 40
0.0
 40
1.0
 40
1.0
 40
1.0
 40
1.0
 10
96.60947003501087
 20
12.76274869479332
 30
0.0
 10
96.61850065445495
 20
13.18944546352478
 30
0.0
 10
96.55980162806861
 20
13.60852264710036
 30
0.0
 10
96.52763004629918
 20
14.03070410610979
 30
0.0
  0
SPLINE
  5
4D
330
1F
100
AcDbEntity
  8
Default
100
AcDbSpline
210
0.0
220
0.0
230
1.0
 70
     8
 71
     3
 72
     8
 73
     4
 74
     0
 42
0.0000000001
 43
0.0000000001
 40
0.0
 40
0.0
 40
0.0
 40
0.0
 40
1.0
 40
1.0
 40
1.0
 40
1.0
 10
96.52763004629918
 20
14.03070410610979
 30
0.0
 10
96.45143419473999
 20
15.03084520953863
 30
0.0
 10
96.37495613632316
 20
16.03126851982506
 30
0.0
 10
96.29847807790634
 20
17.03140962325389
 30
0.0
  0
SPLINE
  5
4E
330
1F
100
AcDbEntity
  8
Default
100
AcDbSpline
210
0.0
220
0.0
230
1.0
 70
     8
 71
     3
 72
     8
 73
     4
 74
     0
 42
0.0000000001
 43
0.0000000001
 40
0.0
 40
0.0
 40
0.0
 40
0.0
 40
1.0
 40
1.0
 40
1.0
 40
1.0
 10
96.29847807790634
 20
17.03140962325389
 30
0.0
 10
96.14495754735745
 20
19.03169183011153
 30
0.0
 10
95.99059039623566
 20
21.03197403696913
 30
0.0
 10
95.83481221082576
 20
23.03197403696913
 30
0.0
  0
SPLINE
  5
4F
330
1F
100
AcDbEntity
  8
Default
100
AcDbSpline
210
0.0
220
0.0
230
1.0
 70
     8
 71
     3
 72
     8
 73
     4
 74
     0
 42
0.0000000001
 43
0.0000000001
 40
0.0
 40
0.0
 40
0.0
 40
0.0
 40
1.0
 40
1.0
 40
1.0
 40
1.0
 10
95.83481221082576
 20
23.03197403696913
 30
0.0
 10
95.76284946213096
 20
23.95817694369975
 30
0.0
 10
95.69060450657855
 20
24.8840976435728
 30
0.0
 10
95.61807734416851
 20
25.81030055030342
 30
0.0
  0
SPLINE
  5
50
330
1F
100
AcDbEntity
  8
Default
100
AcDbSpline
210
0.0
220
0.0
230
1.0
 70
     8
 71
     3
 72
     8
 73
     4
 74
     0
 42
0.0000000001
 43
0.0000000001
 40
0.0
 40
0.0
 40
0.0
 40
0.0
 40
1.0
 40
1.0
 40
1.0
 40
1.0
 10
95.61807734416851
 20
25.81030055030342
 30
0.0
 10
95.5819548663923
 20
26.27311979681113
 30
0.0
 10
95.54555018175844
 20
26.73622125017644
 30
0.0
 10
95.50914549712462
 20
27.19932270354175
 30
0.0
  0
SPLINE
  5
51
330
1F
100
AcDbEntity
  8
Default
100
AcDbSpline
210
0.0
220
0.0
230
1.0
 70
     8
 71
     3
 72
     8
 73
     4
 74
     0
 42
0.0000000001
 43
0.0000000001
 40
0.0
 40
0.0
 40
0.0
 40
0.0
 40
1.0
 40
1.0
 40
1.0
 40
1.0
 10
95.50914549712462
 20
27.19932270354175
 30
0.0
 10
95.47274081249077
 20
27.66552843234098
 30
0.0
 10
95.48092481136197
 20
28.12580781713001
 30
0.0
 10
95.3045455253453
 20
28.58100747848178
 30
0.0
  0
SPLINE
  5
52
330
1F
100
AcDbEntity
  8
Default
100
AcDbSpline
210
0.0
220
0.0
230
1.0
 70
     8
 71
     3
 72
     8
 73
     4
 74
     0
 42
0.0000000001
 43
0.0000000001
 40
0.0
 40
0.0
 40
0.0
 40
0.0
 40
1.0
 40
1.0
 40
1.0
 40
1.0
 10
95.3045455253453
 20
28.58100747848178
 30
0.0
 10
94.92328406069174
 20
29.56365175673776
 30
0.0
 10
94.09839341584905
 20
29.96241004656417
 30
0.0
 10
93.13014168733204
 20
30.07388175532671
 30
0.0
  0
SPLINE
  5
53
330
1F
100
AcDbEntity
  8
Default
100
AcDbSpline
210
0.0
220
0.0
230
1.0
 70
     8
 71
     3
 72
     8
 73
     4
 74
     0
 42
0.0000000001
 43
0.0000000001
 40
0.0
 40
0.0
 40
0.0
 40
0.0
 40
1.0
 40
1.0
 40
1.0
 40
1.0
 10
93.13014168733204
 20
30.07388175532671
 30
0.0
 10
92.43788826557389
 20
30.15374629603505
 30
0.0
 10
91.74676367124621
 20
30.163623536052
 30
0.0
 10
91.05479245634572
 20
30.163623536052
 30
0.0
  0
SPLINE
  5
54
330
1F
100
AcDbEntity
  8
Default
100
AcDbSpline
210
0.0
220
0.0
230
1.0
 70
     8
 71
     3
 72
     8
 73
     4
 74
     0
 42
0.0000000001
 43
0.0000000001
 40
0.0
 40
0.0
 40
0.0
 40
0.0
 40
1.0
 40
1.0
 40
1.0
 40
1.0
 10
91.05479245634572
 20
30.163623536052
 30
0.0
 10
90.82846255652916
 20
30.163623536052
 30
0.0
 10
90.6021326567126
 20
30.16249470862149
 30
0.0
 10
90.3755205500384
 20
30.16249470862149
 30
0.0
  0
SPLINE
  5
55
330
1F
100
AcDbEntity
  8
Default
100
AcDbSpline
210
0.0
220
0.0
230
1.0
 70
    24
 71
     3
 72
     8
 73
     4
 74
     0
 42
0.0000000001
 43
0.0000000001
 40
0.0
 40
0.0
 40
0.0
 40
0.0
 40
1.0
 40
1.0
 40
1.0
 40
1.0
 10
90.3755205500384
 20
30.16249470862149
 30
0.0
 10
90.36564331002145
 20
30.16249470862149
 30
0.0
 10
90.35576607000453
 20
30.16249470862149
 30
0.0
 10
90.34588882998762
 20
30.16249470862149
 30
0.0
  0
SPLINE
  5
56
330
1F
100
AcDbEntity
  8
Default
100
AcDbSpline
210
0.0
220
0.0
230
1.0
 70
     8
 71
     3
 72
     8
 73
     4
 74
     0
 42
0.0000000001
 43
0.0000000001
 40
0.0
 40
0.0
 40
0.0
 40
0.0
 40
1.0
 40
1.0
 40
1.0
 40
1.0
 10
90.34588882998762
 20
30.16249470862149
 30
0.0
 10
82.91679330296628
 20
30.16588119091298
 30
0.0
 10
75.48769777594495
 20
30.16785663891639
 30
0.0
 10
68.05860224892365
 20
30.16870325948926
 30
0.0
  0
SPLINE
  5
57
330
1F
100
AcDbEntity
  8
Default
100
AcDbSpline
210
0.0
220
0.0
230
1.0
 70
     8
 71
     3
 72
     8
 73
     4
 74
     0
 42
0.0000000001
 43
0.0000000001
 40
0.0
 40
0.0
 40
0.0
 40
0.0
 40
1.0
 40
1.0
 40
1.0
 40
1.0
 10
68.05860224892365
 20
30.16870325948926
 30
0.0
 10
67.5559918354906
 20
30.16870325948926
 30
0.0
 10
67.18799409314542
 20
29.82271765203902
 30
0.0
 10
66.9565844698916
 20
29.43016791308034
 30
0.0
  0
SPLINE
  5
58
330
1F
100
AcDbEntity
  8
Default
100
AcDbSpline
210
0.0
220
0.0
230
1.0
 70
     8
 71
     3
 72
     8
 73
     4
 74
     0
 42
0.0000000001
 43
0.0000000001
 40
0.0
 40
0.0
 40
0.0
 40
0.0
 40
1.0
 40
1.0
 40
1.0
 40
1.0
 10
66.9565844698916
 20
29.43016791308034
 30
0.0
 10
66.7037271254581
 20
29.00121348948784
 30
0.0
 10
66.6125743104447
 20
28.56943699731909
 30
0.0
 10
66.58858672754647
 20
28.08263016791315
 30
0.0
  0
SPLINE
  5
59
330
1F
100
AcDbEntity
  8
Default
100
AcDbSpline
210
0.0
220
0.0
230
1.0
 70
     8
 71
     3
 72
     8
 73
     4
 74
     0
 42
0.0000000001
 43
0.0000000001
 40
0.0
 40
0.0
 40
0.0
 40
0.0
 40
1.0
 40
1.0
 40
1.0
 40
1.0
 10
66.58858672754647
 20
28.08263016791315
 30
0.0
 10
66.54230480289567
 20
27.13272188514188
 30
0.0
 10
66.70259829802765
 20
26.2401015944688
 30
0.0
 10
66.92554171555267
 20
25.32970227176526
 30
0.0
  0
SPLINE
  5
5A
330
1F
100
AcDbEntity
  8
Default
100
AcDbSpline
210
0.0
220
0.0
230
1.0
 70
     8
 71
     3
 72
     8
 73
     4
 74
     0
 42
0.0000000001
 43
0.0000000001
 40
0.0
 40
0.0
 40
0.0
 40
0.0
 40
0.6176762401225542
 40
0.6176762401225542
 40
0.6176762401225542
 40
0.6176762401225542
 10
66.92554171555267
 20
25.32970227176526
 30
0.0
 10
67.11536799620552
 20
24.55540627666878
 30
0.0
 10
67.55272455273533
 20
23.18150344975041
 30
0.0
 10
67.97618266650683
 20
21.96374956780241
 30
0.0
  0
LINE
  5
5B
330
1F
100
AcDbEntity
  8
Default
100
AcDbLine
 10
67.23912997574737
 20
8.401890785946136
 30
0.0
 11
67.23912997574737
 21
6.183180471285482
 31
0.0
  0
LINE
  5
5C
330
1F
100
AcDbEntity
  8
Default
100
AcDbLine
 10
67.23912997574737
 20
6.183180471285482
 30
0.0
 11
67.23912997574737
 21
0.9998871172569181
 31
0.0
  0
SPLINE
  5
5D
330
1F
100
AcDbEntity
  8
Default
100
AcDbSpline
210
0.0
220
0.0
230
1.0
 70
     8
 71
     3
 72
     8
 73
     4
 74
     0
 42
0.0000000001
 43
0.0000000001
 40
0.0
 40
0.0
 40
0.0
 40
0.0
 40
1.0
 40
1.0
 40
1.0
 40
1.0
 10
67.23912997574737
 20
0.9998871172569181
 30
0.0
 10
67.23912997574737
 20
0.9090165091011784
 30
0.0
 10
67.24449190604227
 20
0.8181459009453818
 30
0.0
 10
67.258320042066
 20
0.7281219133624859
 30
0.0
  0
SPLINE
  5
5E
330
1F
100
AcDbEntity
  8
Default
100
AcDbSpline
210
0.0
220
0.0
230
1.0
 70
     8
 71
     3
 72
     8
 73
     4
 74
     0
 42
0.0000000001
 43
0.0000000001
 40
0.0
 40
0.0
 40
0.0
 40
0.0
 40
1.0
 40
1.0
 40
1.0
 40
1.0
 10
67.258320042066
 20
0.7281219133624859
 30
0.0
 10
67.27186597123205
 20
0.63809792577959
 30
0.0
 10
67.29387810612693
 20
0.5494849724848336
 30
0.0
 10
67.32887175647264
 20
0.4653873289121009
 30
0.0
  0
SPLINE
  5
5F
330
1F
100
AcDbEntity
  8
Default
100
AcDbSpline
210
0.0
220
0.0
230
1.0
 70
     8
 71
     3
 72
     8
 73
     4
 74
     0
 42
0.0000000001
 43
0.0000000001
 40
0.0
 40
0.0
 40
0.0
 40
0.0
 40
1.0
 40
1.0
 40
1.0
 40
1.0
 10
67.32887175647264
 20
0.4653873289121009
 30
0.0
 10
67.36414761367595
 20
0.3812896853393681
 30
0.0
 10
67.4121227794725
 20
0.3022717652038978
 30
0.0
 10
67.47449049500798
 20
0.2365175673768931
 30
0.0
  0
SPLINE
  5
60
330
1F
100
AcDbEntity
  8
Default
100
AcDbSpline
210
0.0
220
0.0
230
1.0
 70
     8
 71
     3
 72
     8
 73
     4
 74
     0
 42
0.0000000001
 43
0.0000000001
 40
0.0
 40
0.0
 40
0.0
 40
0.0
 40
1.0
 40
1.0
 40
1.0
 40
1.0
 10
67.47449049500798
 20
0.2365175673768931
 30
0.0
 10
67.5371404174011
 20
0.171045576407522
 30
0.0
 10
67.61418288953314
 20
0.1188373077465599
 30
0.0
 10
67.69715170567542
 20
0.0821504162551321
 30
0.0
  0
SPLINE
  5
61
330
1F
100
AcDbEntity
  8
Default
100
AcDbSpline
210
0.0
220
0.0
230
1.0
 70
     8
 71
     3
 72
     8
 73
     4
 74
     0
 42
0.0000000001
 43
0.0000000001
 40
0.0
 40
0.0
 40
0.0
 40
0.0
 40
1.0
 40
1.0
 40
1.0
 40
1.0
 10
67.69715170567542
 20
0.0821504162551321
 30
0.0
 10
67.78040272867526
 20
0.045745731621281
 30
0.0
 10
67.86986230254294
 20
0.0245802172992455
 30
0.0
 10
67.96186173812922
 20
0.0132919429942149
 30
0.0
  0
SPLINE
  5
62
330
1F
100
AcDbEntity
  8
Default
100
AcDbSpline
210
0.0
220
0.0
230
1.0
 70
     8
 71
     3
 72
     8
 73
     4
 74
     0
 42
0.0000000001
 43
0.0000000001
 40
0.0
 40
0.0
 40
0.0
 40
0.0
 40
1.0
 40
1.0
 40
1.0
 40
1.0
 10
67.96186173812922
 20
0.0132919429942149
 30
0.0
 10
68.05414338057312
 20
0.0017214618315506
 30
0.0
 10
68.14868267787801
 20
0.0000282206857491
 30
0.0
 10
68.23955328603381
 20
0.0000282206857491
 30
0.0
  0
SPLINE
  5
63
330
1F
100
AcDbEntity
  8
Default
100
AcDbSpline
210
0.0
220
0.0
230
1.0
 70
     8
 71
     3
 72
     8
 73
     4
 74
     0
 42
0.0000000001
 43
0.0000000001
 40
0.0
 40
0.0
 40
0.0
 40
0.0
 40
1.0
 40
1.0
 40
1.0
 40
1.0
 10
68.23955328603381
 20
0.0000282206857491
 30
0.0
 10
68.33042389418958
 20
0.0000282206857491
 30
0.0
 10
68.42496319149453
 20
0.0017214618315506
 30
0.0
 10
68.5169626270808
 20
0.0132919429942149
 30
0.0
  0
SPLINE
  5
64
330
1F
100
AcDbEntity
  8
Default
100
AcDbSpline
210
0.0
220
0.0
230
1.0
 70
     8
 71
     3
 72
     8
 73
     4
 74
     0
 42
0.0000000001
 43
0.0000000001
 40
0.0
 40
0.0
 40
0.0
 40
0.0
 40
1.0
 40
1.0
 40
1.0
 40
1.0
 10
68.5169626270808
 20
0.0132919429942149
 30
0.0
 10
68.6089620626671
 20
0.0248624241569075
 30
0.0
 10
68.69842163653476
 20
0.0460279384788862
 30
0.0
 10
68.78139045267696
 20
0.0824326231127088
 30
0.0
  0
SPLINE
  5
65
330
1F
100
AcDbEntity
  8
Default
100
AcDbSpline
210
0.0
220
0.0
230
1.0
 70
     8
 71
     3
 72
     8
 73
     4
 74
     0
 42
0.0000000001
 43
0.0000000001
 40
0.0
 40
0.0
 40
0.0
 40
0.0
 40
1.0
 40
1.0
 40
1.0
 40
1.0
 10
68.78139045267696
 20
0.0824326231127088
 30
0.0
 10
68.86464147567685
 20
0.1191195146041935
 30
0.0
 10
68.94140174095128
 20
0.1713277832651272
 30
0.0
 10
69.00376945648676
 20
0.2370819810921319
 30
0.0
  0
SPLINE
  5
66
330
1F
100
AcDbEntity
  8
Default
100
AcDbSpline
210
0.0
220
0.0
230
1.0
 70
     8
 71
     3
 72
     8
 73
     4
 74
     0
 42
0.0000000001
 43
0.0000000001
 40
0.0
 40
0.0
 40
0.0
 40
0.0
 40
1.0
 40
1.0
 40
1.0
 40
1.0
 10
69.00376945648676
 20
0.2370819810921319
 30
0.0
 10
69.06641937887989
 20
0.3025539720615029
 30
0.0
 10
69.1143945446764
 20
0.3818540990546069
 30
0.0
 10
69.14938819502211
 20
0.4656695357697345
 30
0.0
  0
SPLINE
  5
67
330
1F
100
AcDbEntity
  8
Default
100
AcDbSpline
210
0.0
220
0.0
230
1.0
 70
     8
 71
     3
 72
     8
 73
     4
 74
     0
 42
0.0000000001
 43
0.0000000001
 40
0.0
 40
0.0
 40
0.0
 40
0.0
 40
1.0
 40
1.0
 40
1.0
 40
1.0
 10
69.14938819502211
 20
0.4656695357697345
 30
0.0
 10
69.1843818453678
 20
0.5497671793424388
 30
0.0
 10
69.20611177340507
 20
0.6383801326372236
 30
0.0
 10
69.21993990942877
 20
0.728404120220091
 30
0.0
  0
SPLINE
  5
68
330
1F
100
AcDbEntity
  8
Default
100
AcDbSpline
210
0.0
220
0.0
230
1.0
 70
     8
 71
     3
 72
     8
 73
     4
 74
     0
 42
0.0000000001
 43
0.0000000001
 40
0.0
 40
0.0
 40
0.0
 40
0.0
 40
1.0
 40
1.0
 40
1.0
 40
1.0
 10
69.21993990942877
 20
0.728404120220091
 30
0.0
 10
69.23348583859485
 20
0.8181459009453818
 30
0.0
 10
69.23912997574735
 20
0.9090165091011784
 30
0.0
 10
69.23912997574735
 20
0.9998871172569181
 30
0.0
  0
LINE
  5
69
330
1F
100
AcDbEntity
  8
Default
100
AcDbLine
 10
69.23912997574735
 20
0.9998871172569181
 30
0.0
 11
69.23912997574735
 21
8.401890785946136
 31
0.0
  0
LINE
  5
6A
330
1F
100
AcDbEntity
  8
Default
100
AcDbLine
 10
69.23912997574735
 20
8.401890785946136
 30
0.0
 11
67.23912997574737
 21
8.401890785946136
 31
0.0
  0
LINE
  5
6B
330
1F
100
AcDbEntity
  8
Default
100
AcDbLine
 10
88.77348866066347
 20
10.80174968251731
 30
0.0
 11
88.77348866066347
 21
20.98236207139837
 31
0.0
  0
SPLINE
  5
6C
330
1F
100
AcDbEntity
  8
Default
100
AcDbSpline
210
0.0
220
0.0
230
1.0
 70
     8
 71
     3
 72
     8
 73
     4
 74
     0
 42
0.0000000001
 43
0.0000000001
 40
0.0
 40
0.0
 40
0.0
 40
0.0
 40
1.0
 40
1.0
 40
1.0
 40
1.0
 10
88.77348866066347
 20
20.98236207139837
 30
0.0
 10
88.77348866066347
 20
21.63454211937355
 30
0.0
 10
89.12088530240186
 20
21.97968110625092
 30
0.0
 10
89.77334755723467
 20
21.97968110625092
 30
0.0
  0
SPLINE
  5
6D
330
1F
100
AcDbEntity
  8
Default
100
AcDbSpline
210
0.0
220
0.0
230
1.0
 70
     8
 71
     3
 72
     8
 73
     4
 74
     0
 42
0.0000000001
 43
0.0000000001
 40
0.0
 40
0.0
 40
0.0
 40
0.0
 40
1.0
 40
1.0
 40
1.0
 40
1.0
 10
89.77334755723467
 20
21.97968110625092
 30
0.0
 10
90.42609201892509
 20
21.97968110625092
 30
0.0
 10
90.77348866066347
 20
21.63454211937355
 30
0.0
 10
90.77348866066347
 20
20.98236207139837
 30
0.0
  0
SPLINE
  5
6E
330
1F
100
AcDbEntity
  8
Default
100
AcDbSpline
210
0.0
220
0.0
230
1.0
 70
     8
 71
     3
 72
     8
 73
     4
 74
     0
 42
0.0000000001
 43
0.0000000001
 40
0.0
 40
0.0
 40
0.0
 40
0.0
 40
1.0
 40
1.0
 40
1.0
 40
1.0
 10
90.77348866066347
 20
20.98236207139837
 30
0.0
 10
90.77348866066347
 20
17.58882460843802
 30
0.0
 10
90.77348866066347
 20
14.19528714547766
 30
0.0
 10
90.77320645380584
 20
10.80174968251731
 30
0.0
  0
LINE
  5
6F
330
1F
100
AcDbEntity
  8
Default
100
AcDbLine
 10
90.77320645380584
 20
10.80174968251731
 30
0.0
 11
88.77348866066347
 21
10.80174968251731
 31
0.0
  0
LINE
  5
70
330
1F
100
AcDbEntity
  8
Default
100
AcDbLine
 10
67.23912997574737
 20
8.40186256526033
 30
0.0
 11
90.77292424694821
 21
8.40186256526033
 31
0.0
  0
LINE
  5
71
330
1F
100
AcDbEntity
  8
Default
100
AcDbLine
 10
90.77292424694821
 20
8.40186256526033
 30
0.0
 11
90.77292424694821
 21
10.80174968251731
 31
0.0
  0
LINE
  5
72
330
1F
100
AcDbEntity
  8
Default
100
AcDbLine
 10
90.77292424694821
 20
10.80174968251731
 30
0.0
 11
67.23912997574737
 21
10.80174968251731
 31
0.0
  0
LINE
  5
73
330
1F
100
AcDbEntity
  8
Default
100
AcDbLine
 10
67.23912997574737
 20
10.80174968251731
 30
0.0
 11
67.23912997574737
 21
8.40186256526033
 31
0.0
  0
LINE
  5
74
330
1F
100
AcDbEntity
  8
Default
100
AcDbLine
 10
67.23912997574737
 20
10.80174968251731
 30
0.0
 11
67.23912997574737
 21
20.50712572315513
 31
0.0
  0
SPLINE
  5
75
330
1F
100
AcDbEntity
  8
Default
100
AcDbSpline
210
0.0
220
0.0
230
1.0
 70
     8
 71
     3
 72
     8
 73
     4
 74
     0
 42
0.0000000001
 43
0.0000000001
 40
0.0
 40
0.0
 40
0.0
 40
0.0
 40
1.0
 40
1.0
 40
1.0
 40
1.0
 10
67.23912997574737
 20
20.50712572315513
 30
0.0
 10
67.24166983746599
 20
20.73317341611406
 30
0.0
 10
67.23405025231008
 20
20.95273035134761
 30
0.0
 10
67.26565742036428
 20
21.17962466487941
 30
0.0
  0
SPLINE
  5
76
330
1F
100
AcDbEntity
  8
Default
100
AcDbSpline
210
0.0
220
0.0
230
1.0
 70
     8
 71
     3
 72
     8
 73
     4
 74
     0
 42
0.0000000001
 43
0.0000000001
 40
0.0
 40
0.0
 40
0.0
 40
0.0
 40
1.0
 40
1.0
 40
1.0
 40
1.0
 10
67.26565742036428
 20
21.17962466487941
 30
0.0
 10
67.29726458841847
 20
21.40623677155358
 30
0.0
 10
67.36838071654034
 20
21.64018625652608
 30
0.0
 10
67.52641655681128
 20
21.78439396077329
 30
0.0
  0
SPLINE
  5
77
330
1F
100
AcDbEntity
  8
Default
100
AcDbSpline
210
0.0
220
0.0
230
1.0
 70
     8
 71
     3
 72
     8
 73
     4
 74
     0
 42
0.0000000001
 43
0.0000000001
 40
0.0
 40
0.0
 40
0.0
 40
0.0
 40
1.0
 40
1.0
 40
1.0
 40
1.0
 10
67.52641655681128
 20
21.78439396077329
 30
0.0
 10
67.68473460393983
 20
21.92860166502049
 30
0.0
 10
67.92997236321739
 20
21.98306758854244
 30
0.0
 10
68.15827771103733
 20
21.96472414279671
 30
0.0
  0
SPLINE
  5
78
330
1F
100
AcDbEntity
  8
Default
100
AcDbSpline
210
0.0
220
0.0
230
1.0
 70
     8
 71
     3
 72
     8
 73
     4
 74
     0
 42
0.0000000001
 43
0.0000000001
 40
0.0
 40
0.0
 40
0.0
 40
0.0
 40
1.0
 40
1.0
 40
1.0
 40
1.0
 10
68.15827771103733
 20
21.96472414279671
 30
0.0
 10
68.29627686441677
 20
21.95371807534926
 30
0.0
 10
68.42834967378604
 20
21.9159023564273
 30
0.0
 10
68.54800538141973
 20
21.85381684774944
 30
0.0
  0
SPLINE
  5
79
330
1F
100
AcDbEntity
  8
Default
100
AcDbSpline
210
0.0
220
0.0
230
1.0
 70
     8
 71
     3
 72
     8
 73
     4
 74
     0
 42
0.0000000001
 43
0.0000000001
 40
0.0
 40
0.0
 40
0.0
 40
0.0
 40
1.0
 40
1.0
 40
1.0
 40
1.0
 10
68.54800538141973
 20
21.85381684774944
 30
0.0
 10
68.76220038635836
 20
20.86722167348671
 30
0.0
 10
68.9766775981546
 20
19.88034429236635
 30
0.0
 10
69.19087260309323
 20
18.89346691124598
 30
0.0
  0
SPLINE
  5
7A
330
1F
100
AcDbEntity
  8
Default
100
AcDbSpline
210
0.0
220
0.0
230
1.0
 70
     8
 71
     3
 72
     8
 73
     4
 74
     0
 42
0.0000000001
 43
0.0000000001
 40
0.0
 40
0.0
 40
0.0
 40
0.0
 40
1.0
 40
1.0
 40
1.0
 40
1.0
 10
69.19087260309323
 20
18.89346691124598
 30
0.0
 10
69.20582956654744
 20
18.82517285170033
 30
0.0
 10
69.21937549571354
 20
18.75857203330045
 30
0.0
 10
69.22840611515758
 20
18.70636376463952
 30
0.0
  0
SPLINE
  5
7B
330
1F
100
AcDbEntity
  8
Default
100
AcDbSpline
210
0.0
220
0.0
230
1.0
 70
     8
 71
     3
 72
     8
 73
     4
 74
     0
 42
0.0000000001
 43
0.0000000001
 40
0.0
 40
0.0
 40
0.0
 40
0.0
 40
1.0
 40
1.0
 40
1.0
 40
1.0
 10
69.22840611515758
 20
18.70636376463952
 30
0.0
 10
69.23489687288296
 20
18.66883025257519
 30
0.0
 10
69.23912997574735
 20
18.63778749823624
 30
0.0
 10
69.23912997574735
 20
18.62085508677865
 30
0.0
  0
LINE
  5
7C
330
1F
100
AcDbEntity
  8
Default
100
AcDbLine
 10
69.23912997574735
 20
18.62085508677865
 30
0.0
 11
69.23912997574735
 21
10.80174968251731
 31
0.0
  0
LINE
  5
7D
330
1F
100
AcDbEntity
  8
Default
100
AcDbLine
 10
69.23912997574735
 20
10.80174968251731
 30
0.0
 11
67.23912997574737
 21
10.80174968251731
 31
0.0
  0
LINE
  5
7E
330
1F
100
AcDbEntity
  8
Default
100
AcDbLine
 10
88.77309357106282
 20
8.401890785946136
 30
0.0
 11
88.77309357106282
 21
6.183180471285482
 31
0.0
  0
LINE
  5
7F
330
1F
100
AcDbEntity
  8
Default
100
AcDbLine
 10
88.77309357106282
 20
6.183180471285482
 30
0.0
 11
88.77309357106282
 21
0.9998871172569181
 31
0.0
  0
SPLINE
  5
80
330
1F
100
AcDbEntity
  8
Default
100
AcDbSpline
210
0.0
220
0.0
230
1.0
 70
     8
 71
     3
 72
     8
 73
     4
 74
     0
 42
0.0000000001
 43
0.0000000001
 40
0.0
 40
0.0
 40
0.0
 40
0.0
 40
1.0
 40
1.0
 40
1.0
 40
1.0
 10
88.77309357106282
 20
0.9998871172569181
 30
0.0
 10
88.77309357106282
 20
0.9090165091011784
 30
0.0
 10
88.77845550135771
 20
0.8181459009453818
 30
0.0
 10
88.79228363738139
 20
0.7281219133624859
 30
0.0
  0
SPLINE
  5
81
330
1F
100
AcDbEntity
  8
Default
100
AcDbSpline
210
0.0
220
0.0
230
1.0
 70
     8
 71
     3
 72
     8
 73
     4
 74
     0
 42
0.0000000001
 43
0.0000000001
 40
0.0
 40
0.0
 40
0.0
 40
0.0
 40
1.0
 40
1.0
 40
1.0
 40
1.0
 10
88.79228363738139
 20
0.7281219133624859
 30
0.0
 10
88.80582956654749
 20
0.63809792577959
 30
0.0
 10
88.82784170144237
 20
0.5494849724848336
 30
0.0
 10
88.86283535178805
 20
0.4653873289121009
 30
0.0
  0
SPLINE
  5
82
330
1F
100
AcDbEntity
  8
Default
100
AcDbSpline
210
0.0
220
0.0
230
1.0
 70
     8
 71
     3
 72
     8
 73
     4
 74
     0
 42
0.0000000001
 43
0.0000000001
 40
0.0
 40
0.0
 40
0.0
 40
0.0
 40
1.0
 40
1.0
 40
1.0
 40
1.0
 10
88.86283535178805
 20
0.4653873289121009
 30
0.0
 10
88.8981112089914
 20
0.3812896853393681
 30
0.0
 10
88.94608637478794
 20
0.3022717652038978
 30
0.0
 10
89.0084540903234
 20
0.2365175673768931
 30
0.0
  0
SPLINE
  5
83
330
1F
100
AcDbEntity
  8
Default
100
AcDbSpline
210
0.0
220
0.0
230
1.0
 70
     8
 71
     3
 72
     8
 73
     4
 74
     0
 42
0.0000000001
 43
0.0000000001
 40
0.0
 40
0.0
 40
0.0
 40
0.0
 40
1.0
 40
1.0
 40
1.0
 40
1.0
 10
89.0084540903234
 20
0.2365175673768931
 30
0.0
 10
89.07110401271655
 20
0.171045576407522
 30
0.0
 10
89.14814648484858
 20
0.1188373077465599
 30
0.0
 10
89.23111530099084
 20
0.0821504162551321
 30
0.0
  0
SPLINE
  5
84
330
1F
100
AcDbEntity
  8
Default
100
AcDbSpline
210
0.0
220
0.0
230
1.0
 70
     8
 71
     3
 72
     8
 73
     4
 74
     0
 42
0.0000000001
 43
0.0000000001
 40
0.0
 40
0.0
 40
0.0
 40
0.0
 40
1.0
 40
1.0
 40
1.0
 40
1.0
 10
89.23111530099084
 20
0.0821504162551321
 30
0.0
 10
89.3143663239907
 20
0.045745731621281
 30
0.0
 10
89.40382589785835
 20
0.0245802172992455
 30
0.0
 10
89.49582533344463
 20
0.0132919429942149
 30
0.0
  0
SPLINE
  5
85
330
1F
100
AcDbEntity
  8
Default
100
AcDbSpline
210
0.0
220
0.0
230
1.0
 70
     8
 71
     3
 72
     8
 73
     4
 74
     0
 42
0.0000000001
 43
0.0000000001
 40
0.0
 40
0.0
 40
0.0
 40
0.0
 40
1.0
 40
1.0
 40
1.0
 40
1.0
 10
89.49582533344463
 20
0.0132919429942149
 30
0.0
 10
89.58810697588854
 20
0.0017214618315506
 30
0.0
 10
89.68264627319346
 20
0.0000282206857491
 30
0.0
 10
89.77351688134922
 20
0.0000282206857491
 30
0.0
  0
SPLINE
  5
86
330
1F
100
AcDbEntity
  8
Default
100
AcDbSpline
210
0.0
220
0.0
230
1.0
 70
     8
 71
     3
 72
     8
 73
     4
 74
     0
 42
0.0000000001
 43
0.0000000001
 40
0.0
 40
0.0
 40
0.0
 40
0.0
 40
1.0
 40
1.0
 40
1.0
 40
1.0
 10
89.77351688134922
 20
0.0000282206857491
 30
0.0
 10
89.86438748950502
 20
0.0000282206857491
 30
0.0
 10
89.95892678680994
 20
0.0017214618315506
 30
0.0
 10
90.05092622239624
 20
0.0132919429942149
 30
0.0
  0
SPLINE
  5
87
330
1F
100
AcDbEntity
  8
Default
100
AcDbSpline
210
0.0
220
0.0
230
1.0
 70
     8
 71
     3
 72
     8
 73
     4
 74
     0
 42
0.0000000001
 43
0.0000000001
 40
0.0
 40
0.0
 40
0.0
 40
0.0
 40
1.0
 40
1.0
 40
1.0
 40
1.0
 10
90.05092622239624
 20
0.0132919429942149
 30
0.0
 10
90.14292565798254
 20
0.0248624241569075
 30
0.0
 10
90.23238523185017
 20
0.0460279384788862
 30
0.0
 10
90.3153540479924
 20
0.0824326231127088
 30
0.0
  0
SPLINE
  5
88
330
1F
100
AcDbEntity
  8
Default
100
AcDbSpline
210
0.0
220
0.0
230
1.0
 70
     8
 71
     3
 72
     8
 73
     4
 74
     0
 42
0.0000000001
 43
0.0000000001
 40
0.0
 40
0.0
 40
0.0
 40
0.0
 40
1.0
 40
1.0
 40
1.0
 40
1.0
 10
90.3153540479924
 20
0.0824326231127088
 30
0.0
 10
90.39860507099223
 20
0.1191195146041935
 30
0.0
 10
90.47536533626669
 20
0.1713277832651272
 30
0.0
 10
90.5377330518022
 20
0.2370819810921319
 30
0.0
  0
SPLINE
  5
89
330
1F
100
AcDbEntity
  8
Default
100
AcDbSpline
210
0.0
220
0.0
230
1.0
 70
     8
 71
     3
 72
     8
 73
     4
 74
     0
 42
0.0000000001
 43
0.0000000001
 40
0.0
 40
0.0
 40
0.0
 40
0.0
 40
1.0
 40
1.0
 40
1.0
 40
1.0
 10
90.5377330518022
 20
0.2370819810921319
 30
0.0
 10
90.6003829741953
 20
0.3025539720615029
 30
0.0
 10
90.64835813999181
 20
0.3818540990546069
 30
0.0
 10
90.68335179033753
 20
0.4656695357697345
 30
0.0
  0
SPLINE
  5
8A
330
1F
100
AcDbEntity
  8
Default
100
AcDbSpline
210
0.0
220
0.0
230
1.0
 70
     8
 71
     3
 72
     8
 73
     4
 74
     0
 42
0.0000000001
 43
0.0000000001
 40
0.0
 40
0.0
 40
0.0
 40
0.0
 40
1.0
 40
1.0
 40
1.0
 40
1.0
 10
90.68335179033753
 20
0.4656695357697345
 30
0.0
 10
90.71834544068324
 20
0.5497671793424388
 30
0.0
 10
90.74007536872051
 20
0.6383801326372236
 30
0.0
 10
90.75390350474419
 20
0.728404120220091
 30
0.0
  0
SPLINE
  5
8B
330
1F
100
AcDbEntity
  8
Default
100
AcDbSpline
210
0.0
220
0.0
230
1.0
 70
     8
 71
     3
 72
     8
 73
     4
 74
     0
 42
0.0000000001
 43
0.0000000001
 40
0.0
 40
0.0
 40
0.0
 40
0.0
 40
1.0
 40
1.0
 40
1.0
 40
1.0
 10
90.75390350474419
 20
0.728404120220091
 30
0.0
 10
90.76744943391029
 20
0.8181459009453818
 30
0.0
 10
90.77309357106279
 20
0.9090165091011784
 30
0.0
 10
90.77309357106279
 20
0.9998871172569181
 30
0.0
  0
LINE
  5
8C
330
1F
100
AcDbEntity
  8
Default
100
AcDbLine
 10
90.77309357106279
 20
0.9998871172569181
 30
0.0
 11
90.77309357106279
 21
8.401890785946136
 31
0.0
  0
LINE
  5
8D
330
1F
100
AcDbEntity
  8
Default
100
AcDbLine
 10
90.77309357106279
 20
8.401890785946136
 30
0.0
 11
88.77309357106282
 21
8.401890785946136
 31
0.0
  0
SPLINE
  5
8E
330
1F
100
AcDbEntity
  8
Default
100
AcDbSpline
210
0.0
220
0.0
230
1.0
 70
    24
 71
     3
 72
     8
 73
     4
 74
     0
 42
0.0000000001
 43
0.0000000001
 40
0.8700972694923905
 40
0.8700972694923905
 40
0.8700972694923905
 40
0.8700972694923905
 40
1.0
 40
1.0
 40
1.0
 40
1.0
 10
30.06171863976302
 20
15.31445245197253
 30
0.0
 10
30.06171863976302
 20
15.50364354181457
 30
0.0
 10
30.06171863976302
 20
15.69283815658255
 30
0.0
 10
30.06171863976302
 20
15.88203753351209
 30
0.0
  0
SPLINE
  5
8F
330
1F
100
AcDbEntity
  8
Default
100
AcDbSpline
210
0.0
220
0.0
230
1.0
 70
     8
 71
     3
 72
     8
 73
     4
 74
     0
 42
0.0000000001
 43
0.0000000001
 40
0.0
 40
0.0
 40
0.0
 40
0.0
 40
1.0
 40
1.0
 40
1.0
 40
1.0
 10
30.06171863976302
 20
15.88203753351209
 30
0.0
 10
30.06171863976302
 20
17.00437420629325
 30
0.0
 10
29.15188373077472
 20
17.91392690842392
 30
0.0
 10
28.02982926485119
 20
17.91392690842392
 30
0.0
  0
LINE
  5
90
330
1F
100
AcDbEntity
  8
Default
100
AcDbLine
 10
28.02982926485119
 20
17.91392690842392
 30
0.0
 11
-28.02971638210813
 21
17.91392690842392
 31
0.0
  0
SPLINE
  5
91
330
1F
100
AcDbEntity
  8
Default
100
AcDbSpline
210
0.0
220
0.0
230
1.0
 70
     8
 71
     3
 72
     8
 73
     4
 74
     0
 42
0.0000000001
 43
0.0000000001
 40
0.0
 40
0.0
 40
0.0
 40
0.0
 40
1.0
 40
1.0
 40
1.0
 40
1.0
 10
-28.02971638210813
 20
17.91392690842392
 30
0.0
 10
-29.15205305488928
 20
17.91392690842392
 30
0.0
 10
-30.06160575701995
 20
17.00437420629325
 30
0.0
 10
-30.06160575701995
 20
15.88203753351209
 30
0.0
  0
SPLINE
  5
92
330
1F
100
AcDbEntity
  8
Default
100
AcDbSpline
210
0.0
220
0.0
230
1.0
 70
    24
 71
     3
 72
     8
 73
     4
 74
     0
 42
0.0000000001
 43
0.0000000001
 40
0.0
 40
0.0
 40
0.0
 40
0.0
 40
0.1299887068417434
 40
0.1299887068417434
 40
0.1299887068417434
 40
0.1299887068417434
 10
-30.06160575701995
 20
15.88203753351209
 30
0.0
 10
-30.06160575701995
 20
15.69271293466625
 30
0.0
 10
-30.06160575701995
 20
15.50339310428771
 30
0.0
 10
-30.06160575701995
 20
15.31407680268268
 30
0.0
  0
POLYLINE
  5
93
330
1F
100
AcDbEntity
  8
Default
100
AcDb2dPolyline
 66
     1
 10
0.0
 20
0.0
 30
0.0
  0
VERTEX
  5
94
330
93
100
AcDbEntity
  8
Default
100
AcDbVertex
100
AcDb2dVertex
 10
-37.68155778185417
 20
30.16198673627775
 30
0.0
  0
VERTEX
  5
95
330
93
100
AcDbEntity
  8
Default
100
AcDbVertex
100
AcDb2dVertex
 10
37.68178354734029
 20
30.16198673627775
 30
0.0
  0
SEQEND
  5
96
330
93
100
AcDbEntity
  8
Default
  0
LINE
  5
97
330
1F
100
AcDbEntity
  8
Default
100
AcDbLine
 10
-35.52160293495139
 20
17.66984395250986
 30
0.0
 11
-35.52160293495139
 21
10.80180612388881
 31
0.0
  0
LINE
  5
98
330
1F
100
AcDbEntity
  8
Default
100
AcDbLine
 10
-35.52160293495139
 20
10.80180612388881
 30
0.0
 11
-37.52160293495139
 21
10.80180612388881
 31
0.0
  0
LINE
  5
99
330
1F
100
AcDbEntity
  8
Default
100
AcDbLine
 10
-37.52160293495139
 20
10.80180612388881
 30
0.0
 11
-37.52160293495139
 21
20.5418936080147
 31
0.0
  0
SPLINE
  5
9A
330
1F
100
AcDbEntity
  8
Default
100
AcDbSpline
210
0.0
220
0.0
230
1.0
 70
     8
 71
     3
 72
     8
 73
     4
 74
     0
 42
0.0000000001
 43
0.0000000001
 40
0.0
 40
0.0
 40
0.0
 40
0.0
 40
0.9999586455467693
 40
0.9999586455467693
 40
0.9999586455467693
 40
0.9999586455467693
 10
-37.52160293495139
 20
20.5418936080147
 30
0.0
 10
-37.52160293495139
 20
20.94938345821069
 30
0.0
 10
-37.33677273125831
 20
21.33853137979597
 30
0.0
 10
-37.17563731920686
 20
21.71272343494093
 30
0.0
  0
LINE
  5
9B
330
1F
100
AcDbEntity
  8
Default
100
AcDbLine
 10
35.52163115563717
 20
17.6699103910376
 30
0.0
 11
35.52163115563717
 21
17.66987441794839
 31
0.0
  0
LINE
  5
9C
330
1F
100
AcDbEntity
  8
Default
100
AcDbLine
 10
35.52163115563717
 20
17.66987441794839
 30
0.0
 11
35.52163115563717
 21
10.80180612388881
 31
0.0
  0
LINE
  5
9D
330
1F
100
AcDbEntity
  8
Default
100
AcDbLine
 10
35.52163115563717
 20
10.80180612388881
 30
0.0
 11
37.52163115563717
 21
10.80180612388881
 31
0.0
  0
LINE
  5
9E
330
1F
100
AcDbEntity
  8
Default
100
AcDbLine
 10
37.52163115563717
 20
10.80180612388881
 30
0.0
 11
37.52163115563717
 21
20.5418936080147
 31
0.0
  0
SPLINE
  5
9F
330
1F
100
AcDbEntity
  8
Default
100
AcDbSpline
210
0.0
220
0.0
230
1.0
 70
     8
 71
     3
 72
     8
 73
     4
 74
     0
 42
0.0000000001
 43
0.0000000001
 40
0.0
 40
0.0
 40
0.0
 40
0.0
 40
1.0
 40
1.0
 40
1.0
 40
1.0
 10
37.52163115563717
 20
20.5418936080147
 30
0.0
 10
37.52163115563717
 20
20.94940031042756
 30
0.0
 10
37.33678566389172
 20
21.33856356709472
 30
0.0
 10
37.17564554818691
 20
21.71276986030765
 30
0.0
  0
SPLINE
  5
A0
330
1F
100
AcDbEntity
  8
Default
100
AcDbSpline
210
0.0
220
0.0
230
1.0
 70
     8
 71
     3
 72
     8
 73
     4
 74
     0
 42
0.0000000001
 43
0.0000000001
 40
0.427184758493206
 40
0.427184758493206
 40
0.427184758493206
 40
0.427184758493206
 40
1.0
 40
1.0
 40
1.0
 40
1.0
 10
39.03977106954469
 20
60.91942520565118
 30
0.0
 10
39.2930736208896
 20
61.06774687783891
 30
0.0
 10
39.47903657454364
 20
61.32570331379802
 30
0.0
 10
39.52462254832801
 20
61.63866233949497
 30
0.0
  0
SPLINE
  5
A1
330
1F
100
AcDbEntity
  8
Default
100
AcDbSpline
210
0.0
220
0.0
230
1.0
 70
     8
 71
     3
 72
     8
 73
     4
 74
     0
 42
0.0000000001
 43
0.0000000001
 40
0.0
 40
0.0
 40
0.0
 40
0.0
 40
0.9980144544838434
 40
0.9980144544838434
 40
0.9980144544838434
 40
0.9980144544838434
 10
39.52462254832801
 20
61.63866233949497
 30
0.0
 10
39.60404686783259
 20
62.18421165467353
 30
0.0
 10
39.2272664976927
 20
62.69068983500267
 30
0.0
 10
38.68238491546789
 20
62.77180818661731
 30
0.0
  0
SPLINE
  5
A2
330
1F
100
AcDbEntity
  8
Default
100
AcDbSpline
210
0.0
220
0.0
230
1.0
 70
     8
 71
     3
 72
     8
 73
     4
 74
     0
 42
0.0000000001
 43
0.0000000001
 40
0.0888154712825275
 40
0.0888154712825275
 40
0.0888154712825275
 40
0.0888154712825275
 40
1.0
 40
1.0
 40
1.0
 40
1.0
 10
22.98516997623068
 20
84.76626290744
 30
0.0
 10
22.98563441399993
 20
85.25520585348298
 30
0.0
 10
22.62719470357724
 20
85.68292534581695
 30
0.0
 10
22.12910963736424
 20
85.75543953718096
 30
0.0
  0
SPLINE
  5
A3
330
1F
100
AcDbEntity
  8
Default
100
AcDbSpline
210
0.0
220
0.0
230
1.0
 70
     8
 71
     3
 72
     8
 73
     4
 74
     0
 42
0.0000000001
 43
0.0000000001
 40
0.0
 40
0.0
 40
0.0
 40
0.0
 40
0.9728818283083348
 40
0.9728818283083348
 40
0.9728818283083348
 40
0.9728818283083348
 10
22.12910963736424
 20
85.75543953718096
 30
0.0
 10
21.59757324125729
 20
85.83286374363865
 30
0.0
 10
21.10263071282462
 20
85.4767708169916
 30
0.0
 10
21.00289579122828
 20
84.95404214138435
 30
0.0
  0
SPLINE
  5
A4
330
1F
100
AcDbEntity
  8
Default
100
AcDbSpline
210
0.0
220
0.0
230
1.0
 70
     8
 71
     3
 72
     8
 73
     4
 74
     0
 42
0.0000000001
 43
0.0000000001
 40
0.427220585930749
 40
0.427220585930749
 40
0.427220585930749
 40
0.427220585930749
 40
1.0
 40
1.0
 40
1.0
 40
1.0
 10
-39.03981859811817
 20
60.91945303782501
 30
0.0
 10
-39.29309688290618
 20
61.06777914646258
 30
0.0
 10
-39.47903942577472
 20
61.32572288820725
 30
0.0
 10
-39.524622548328
 20
61.63866233949497
 30
0.0
  0
SPLINE
  5
A5
330
1F
100
AcDbEntity
  8
Default
100
AcDbSpline
210
0.0
220
0.0
230
1.0
 70
     8
 71
     3
 72
     8
 73
     4
 74
     0
 42
0.0000000001
 43
0.0000000001
 40
0.0
 40
0.0
 40
0.0
 40
0.0
 40
0.9980005759528199
 40
0.9980005759528199
 40
0.9980005759528199
 40
0.9980005759528199
 10
-39.524622548328
 20
61.63866233949497
 30
0.0
 10
-39.60404576334669
 20
62.18420406818711
 30
0.0
 10
-39.2269958972439
 20
62.69067574867984
 30
0.0
 10
-38.68240596098158
 20
62.77180480224052
 30
0.0
  0
SPLINE
  5
A6
330
1F
100
AcDbEntity
  8
Default
100
AcDbSpline
210
0.0
220
0.0
230
1.0
 70
     8
 71
     3
 72
     8
 73
     4
 74
     0
 42
0.0000000001
 43
0.0000000001
 40
0.0888129954729235
 40
0.0888129954729235
 40
0.0888129954729235
 40
0.0888129954729235
 40
1.0
 40
1.0
 40
1.0
 40
1.0
 10
-22.98513566690823
 20
84.76625892186948
 30
0.0
 10
-22.98556246585039
 20
85.25520352913881
 30
0.0
 10
-22.6269106930336
 20
85.68292514878624
 30
0.0
 10
-22.12908141667846
 20
85.75543953718096
 30
0.0
  0
SPLINE
  5
A7
330
1F
100
AcDbEntity
  8
Default
100
AcDbSpline
210
0.0
220
0.0
230
1.0
 70
     8
 71
     3
 72
     8
 73
     4
 74
     0
 42
0.0000000001
 43
0.0000000001
 40
0.0
 40
0.0
 40
0.0
 40
0.0
 40
0.9728814923740325
 40
0.9728814923740325
 40
0.9728814923740325
 40
0.9728814923740325
 10
-22.12908141667846
 20
85.75543953718096
 30
0.0
 10
-21.59727065028125
 20
85.83286371690423
 30
0.0
 10
-21.10258794296415
 20
85.47677106290803
 30
0.0
 10
-21.00286706812576
 20
84.95404268287604
 30
0.0
  0
SPLINE
  5
A8
330
1F
100
AcDbEntity
  8
Default
100
AcDbSpline
210
0.0
220
0.0
230
1.0
 70
     8
 71
     3
 72
     8
 73
     4
 74
     0
 42
0.0000000001
 43
0.0000000001
 40
0.0
 40
0.0
 40
0.0
 40
0.0
 40
1.0
 40
1.0
 40
1.0
 40
1.0
 10
37.82415690701292
 20
30.16286157753638
 30
0.0
 10
38.11680541837175
 20
30.16286157753638
 30
0.0
 10
38.41453365316785
 20
30.09682517285174
 30
0.0
 10
38.64678989699458
 20
29.93709609143505
 30
0.0
  0
SPLINE
  5
A9
330
1F
100
AcDbEntity
  8
Default
100
AcDbSpline
210
0.0
220
0.0
230
1.0
 70
     8
 71
     3
 72
     8
 73
     4
 74
     0
 42
0.0000000001
 43
0.0000000001
 40
0.0
 40
0.0
 40
0.0
 40
0.0
 40
1.0
 40
1.0
 40
1.0
 40
1.0
 10
38.64678989699458
 20
29.93709609143505
 30
0.0
 10
38.88977000141112
 20
29.77002963172012
 30
0.0
 10
39.06135177084812
 20
29.4999576689714
 30
0.0
 10
39.16915479046149
 20
29.21408212219561
 30
0.0
  0
SPLINE
  5
AA
330
1F
100
AcDbEntity
  8
Default
100
AcDbSpline
210
0.0
220
0.0
230
1.0
 70
     8
 71
     3
 72
     8
 73
     4
 74
     0
 42
0.0000000001
 43
0.0000000001
 40
0.0
 40
0.0
 40
0.0
 40
0.0
 40
1.0
 40
1.0
 40
1.0
 40
1.0
 10
39.16915479046149
 20
29.21408212219561
 30
0.0
 10
39.27667560321724
 20
28.92848878227747
 30
0.0
 10
39.32013545929175
 20
28.62737406518983
 30
0.0
 10
39.32465076901379
 20
28.32569493438695
 30
0.0
  0
SPLINE
  5
AB
330
1F
100
AcDbEntity
  8
Default
100
AcDbSpline
210
0.0
220
0.0
230
1.0
 70
     8
 71
     3
 72
     8
 73
     4
 74
     0
 42
0.0000000001
 43
0.0000000001
 40
0.0
 40
0.0
 40
0.0
 40
0.0
 40
1.0
 40
1.0
 40
1.0
 40
1.0
 10
39.32465076901379
 20
28.32569493438695
 30
0.0
 10
39.32888387187818
 20
28.02373359672643
 30
0.0
 10
39.2941724283901
 20
27.72149005220831
 30
0.0
 10
39.2295470579936
 20
27.42658388598846
 30
0.0
  0
SPLINE
  5
AC
330
1F
100
AcDbEntity
  8
Default
100
AcDbSpline
210
0.0
220
0.0
230
1.0
 70
     8
 71
     3
 72
     8
 73
     4
 74
     0
 42
0.0000000001
 43
0.0000000001
 40
0.0
 40
0.0
 40
0.0
 40
0.0
 40
1.0
 40
1.0
 40
1.0
 40
1.0
 10
39.2295470579936
 20
27.42658388598846
 30
0.0
 10
39.16520389445472
 20
27.13167771976865
 30
0.0
 10
39.07094680400742
 20
26.8441089318471
 30
0.0
 10
38.97245661069574
 20
26.5582333850713
 30
0.0
  0
SPLINE
  5
AD
330
1F
100
AcDbEntity
  8
Default
100
AcDbSpline
210
0.0
220
0.0
230
1.0
 70
     8
 71
     3
 72
     8
 73
     4
 74
     0
 42
0.0000000001
 43
0.0000000001
 40
0.0
 40
0.0
 40
0.0
 40
0.0
 40
1.0
 40
1.0
 40
1.0
 40
1.0
 10
38.97245661069574
 20
26.5582333850713
 30
0.0
 10
38.87424862424166
 20
26.27235783829551
 30
0.0
 10
38.77180753492318
 20
25.98845773952311
 30
0.0
 10
38.67049527303523
 20
25.70399322703543
 30
0.0
  0
SPLINE
  5
AE
330
1F
100
AcDbEntity
  8
Default
100
AcDbSpline
210
0.0
220
0.0
230
1.0
 70
     8
 71
     3
 72
     8
 73
     4
 74
     0
 42
0.0000000001
 43
0.0000000001
 40
0.0
 40
0.0
 40
0.0
 40
0.0
 40
1.0
 40
1.0
 40
1.0
 40
1.0
 10
38.67049527303523
 20
25.70399322703543
 30
0.0
 10
38.56890080428963
 20
25.41952871454779
 30
0.0
 10
38.46871736983218
 20
25.1344997883449
 30
0.0
 10
38.36599407365607
 20
24.85031748271484
 30
0.0
  0
SPLINE
  5
AF
330
1F
100
AcDbEntity
  8
Default
100
AcDbSpline
210
0.0
220
0.0
230
1.0
 70
     8
 71
     3
 72
     8
 73
     4
 74
     0
 42
0.0000000001
 43
0.0000000001
 40
0.0
 40
0.0
 40
0.0
 40
0.0
 40
1.0
 40
1.0
 40
1.0
 40
1.0
 10
38.36599407365607
 20
24.85031748271484
 30
0.0
 10
38.26355298433761
 20
24.56613517708485
 30
0.0
 10
38.1585720333005
 20
24.28308169888533
 30
0.0
 10
38.05274446169049
 20
24.00002822068581
 30
0.0
  0
SPLINE
  5
B0
330
1F
100
AcDbEntity
  8
Default
100
AcDbSpline
210
0.0
220
0.0
230
1.0
 70
     8
 71
     3
 72
     8
 73
     4
 74
     0
 42
0.0000000001
 43
0.0000000001
 40
0.0
 40
0.0
 40
0.0
 40
0.0
 40
1.0
 40
1.0
 40
1.0
 40
1.0
 10
38.05274446169049
 20
24.00002822068581
 30
0.0
 10
37.94691689008052
 20
23.71725694934389
 30
0.0
 10
37.84024269789765
 20
23.43448567800203
 30
0.0
 10
37.73300409199953
 20
23.15227882037539
 30
0.0
  0
SPLINE
  5
B1
330
1F
100
AcDbEntity
  8
Default
100
AcDbSpline
210
0.0
220
0.0
230
1.0
 70
     8
 71
     3
 72
     8
 73
     4
 74
     0
 42
0.0000000001
 43
0.0000000001
 40
0.0
 40
0.0
 40
0.0
 40
0.0
 40
1.0
 40
1.0
 40
1.0
 40
1.0
 10
37.73300409199953
 20
23.15227882037539
 30
0.0
 10
37.62548327924377
 20
22.87007196274874
 30
0.0
 10
37.51711584591513
 20
22.58814731197972
 30
0.0
 10
37.407619585156
 20
22.30650486806834
 30
0.0
  0
SPLINE
  5
B2
330
1F
100
AcDbEntity
  8
Default
100
AcDbSpline
210
0.0
220
0.0
230
1.0
 70
     8
 71
     3
 72
     8
 73
     4
 74
     0
 42
0.0000000001
 43
0.0000000001
 40
0.0
 40
0.0
 40
0.0
 40
0.0
 40
1.0
 40
1.0
 40
1.0
 40
1.0
 10
37.407619585156
 20
22.30650486806834
 30
0.0
 10
37.29840553125449
 20
22.02486242415694
 30
0.0
 10
37.18806264992247
 20
21.74378439396079
 30
0.0
 10
37.0771553548752
 20
21.46270636376468
 30
0.0
  0
SPLINE
  5
B3
330
1F
100
AcDbEntity
  8
Default
100
AcDbSpline
210
0.0
220
0.0
230
1.0
 70
     8
 71
     3
 72
     8
 73
     4
 74
     0
 42
0.0000000001
 43
0.0000000001
 40
0.0
 40
0.0
 40
0.0
 40
0.0
 40
1.0
 40
1.0
 40
1.0
 40
1.0
 10
37.0771553548752
 20
21.46270636376468
 30
0.0
 10
36.9659658529703
 20
21.18191054042614
 30
0.0
 10
36.85421193735016
 20
20.90139692394527
 30
0.0
 10
36.74132919429951
 20
20.62116551432203
 30
0.0
  0
SPLINE
  5
B4
330
1F
100
AcDbEntity
  8
Default
100
AcDbSpline
210
0.0
220
0.0
230
1.0
 70
     8
 71
     3
 72
     8
 73
     4
 74
     0
 42
0.0000000001
 43
0.0000000001
 40
0.0
 40
0.0
 40
0.0
 40
0.0
 40
1.0
 40
1.0
 40
1.0
 40
1.0
 10
36.74132919429951
 20
20.62116551432203
 30
0.0
 10
36.62872865810648
 20
20.34093410469876
 30
0.0
 10
36.51528150134057
 20
20.06098490193318
 30
0.0
 10
36.40098772400178
 20
19.78131790602512
 30
0.0
  0
SPLINE
  5
B5
330
1F
100
AcDbEntity
  8
Default
100
AcDbSpline
210
0.0
220
0.0
230
1.0
 70
     8
 71
     3
 72
     8
 73
     4
 74
     0
 42
0.0000000001
 43
0.0000000001
 40
0.0
 40
0.0
 40
0.0
 40
0.0
 40
1.0
 40
1.0
 40
1.0
 40
1.0
 10
36.40098772400178
 20
19.78131790602512
 30
0.0
 10
36.28669394666298
 20
19.50165091011715
 30
0.0
 10
36.17183575560894
 20
19.22254832792439
 30
0.0
 10
36.05613094398203
 20
18.94344574573165
 30
0.0
  0
SPLINE
  5
B6
330
1F
100
AcDbEntity
  8
Default
100
AcDbSpline
210
0.0
220
0.0
230
1.0
 70
     8
 71
     3
 72
     8
 73
     4
 74
     0
 42
0.0000000001
 43
0.0000000001
 40
0.0
 40
0.0
 40
0.0
 40
0.0
 40
1.0
 40
1.0
 40
1.0
 40
1.0
 10
36.05613094398203
 20
18.94344574573165
 30
0.0
 10
35.9404261323551
 20
18.66434316353889
 30
0.0
 10
35.82387470015529
 20
18.38580499506142
 30
0.0
 10
35.70675885424023
 20
18.10726682658392
 30
0.0
  0
SPLINE
  5
B7
330
1F
100
AcDbEntity
  8
Default
100
AcDbSpline
210
0.0
220
0.0
230
1.0
 70
     8
 71
     3
 72
     8
 73
     4
 74
     0
 42
0.0000000001
 43
0.0000000001
 40
0.0
 40
0.0
 40
0.0
 40
0.0
 40
1.0
 40
1.0
 40
1.0
 40
1.0
 10
35.70675885424023
 20
18.10726682658392
 30
0.0
 10
35.58936080146756
 20
17.82901086496406
 30
0.0
 10
35.47139833497963
 20
17.5510371102018
 30
0.0
 10
35.35258924791881
 20
17.27334556229715
 30
0.0
  0
SPLINE
  5
B8
330
1F
100
AcDbEntity
  8
Default
100
AcDbSpline
210
0.0
220
0.0
230
1.0
 70
     8
 71
     3
 72
     8
 73
     4
 74
     0
 42
0.0000000001
 43
0.0000000001
 40
0.0
 40
0.0
 40
0.0
 40
0.0
 40
1.0
 40
1.0
 40
1.0
 40
1.0
 10
35.35258924791881
 20
17.27334556229715
 30
0.0
 10
35.23378016085799
 20
16.99565401439258
 30
0.0
 10
35.11384224636667
 20
16.71824467334557
 30
0.0
 10
34.99333991816009
 20
16.44139974601384
 30
0.0
  0
SPLINE
  5
B9
330
1F
100
AcDbEntity
  8
Default
100
AcDbSpline
210
0.0
220
0.0
230
1.0
 70
     8
 71
     3
 72
     8
 73
     4
 74
     0
 42
0.0000000001
 43
0.0000000001
 40
0.0
 40
0.0
 40
0.0
 40
0.0
 40
1.0
 40
1.0
 40
1.0
 40
1.0
 10
34.99333991816009
 20
16.44139974601384
 30
0.0
 10
34.87311979681114
 20
16.16427261182452
 30
0.0
 10
34.75177084803168
 20
15.88770989135037
 30
0.0
 10
34.62957527867935
 20
15.61142937773388
 30
0.0
  0
SPLINE
  5
BA
330
1F
100
AcDbEntity
  8
Default
100
AcDbSpline
210
0.0
220
0.0
230
1.0
 70
     8
 71
     3
 72
     8
 73
     4
 74
     0
 42
0.0000000001
 43
0.0000000001
 40
0.0
 40
0.0
 40
0.0
 40
0.0
 40
1.0
 40
1.0
 40
1.0
 40
1.0
 10
34.62957527867935
 20
15.61142937773388
 30
0.0
 10
34.50737970932703
 20
15.33543107097503
 30
0.0
 10
34.38377310568654
 20
15.05971497107382
 30
0.0
 10
34.25847326090033
 20
14.78484549174547
 30
0.0
  0
SPLINE
  5
BB
330
1F
100
AcDbEntity
  8
Default
100
AcDbSpline
210
0.0
220
0.0
230
1.0
 70
     8
 71
     3
 72
     8
 73
     4
 74
     0
 42
0.0000000001
 43
0.0000000001
 40
0.0
 40
0.0
 40
0.0
 40
0.0
 40
1.0
 40
1.0
 40
1.0
 40
1.0
 10
34.25847326090033
 20
14.78484549174547
 30
0.0
 10
34.13289120925646
 20
14.50997601241713
 30
0.0
 10
34.00561591646684
 20
14.23623536051926
 30
0.0
 10
33.88088048539586
 20
13.96108367433331
 30
0.0
  0
SPLINE
  5
BC
330
1F
100
AcDbEntity
  8
Default
100
AcDbSpline
210
0.0
220
0.0
230
1.0
 70
     8
 71
     3
 72
     8
 73
     4
 74
     0
 42
0.0000000001
 43
0.0000000001
 40
0.0
 40
0.0
 40
0.0
 40
0.0
 40
1.0
 40
1.0
 40
1.0
 40
1.0
 10
33.88088048539586
 20
13.96108367433331
 30
0.0
 10
33.7561450543249
 20
13.68593198814733
 30
0.0
 10
33.63394948497256
 20
13.40993368138845
 30
0.0
 10
33.50582757161007
 20
13.13619302949064
 30
0.0
  0
SPLINE
  5
BD
330
1F
100
AcDbEntity
  8
Default
100
AcDbSpline
210
0.0
220
0.0
230
1.0
 70
     8
 71
     3
 72
     8
 73
     4
 74
     0
 42
0.0000000001
 43
0.0000000001
 40
0.0
 40
0.0
 40
0.0
 40
0.0
 40
1.0
 40
1.0
 40
1.0
 40
1.0
 10
33.50582757161007
 20
13.13619302949064
 30
0.0
 10
33.37770565824756
 20
12.8624523775928
 30
0.0
 10
33.24393960773254
 20
12.59125158741361
 30
0.0
 10
33.09070128404127
 20
12.33105686468184
 30
0.0
  0
SPLINE
  5
BE
330
1F
100
AcDbEntity
  8
Default
100
AcDbSpline
210
0.0
220
0.0
230
1.0
 70
     8
 71
     3
 72
     8
 73
     4
 74
     0
 42
0.0000000001
 43
0.0000000001
 40
0.0
 40
0.0
 40
0.0
 40
0.0
 40
1.0
 40
1.0
 40
1.0
 40
1.0
 10
33.09070128404127
 20
12.33105686468184
 30
0.0
 10
32.93746296035002
 20
12.07086214195007
 30
0.0
 10
32.76475236348251
 20
11.82167348666573
 30
0.0
 10
32.56438549456759
 20
11.59534358684917
 30
0.0
  0
SPLINE
  5
BF
330
1F
100
AcDbEntity
  8
Default
100
AcDbSpline
210
0.0
220
0.0
230
1.0
 70
     8
 71
     3
 72
     8
 73
     4
 74
     0
 42
0.0000000001
 43
0.0000000001
 40
0.0
 40
0.0
 40
0.0
 40
0.0
 40
1.0
 40
1.0
 40
1.0
 40
1.0
 10
32.56438549456759
 20
11.59534358684917
 30
0.0
 10
32.36401862565268
 20
11.36873148017497
 30
0.0
 10
32.13571327783274
 20
11.16497812896853
 30
0.0
 10
31.87580076195859
 20
11.01145759841964
 30
0.0
  0
SPLINE
  5
C0
330
1F
100
AcDbEntity
  8
Default
100
AcDbSpline
210
0.0
220
0.0
230
1.0
 70
     8
 71
     3
 72
     8
 73
     4
 74
     0
 42
0.0000000001
 43
0.0000000001
 40
0.0
 40
0.0
 40
0.0
 40
0.0
 40
1.0
 40
1.0
 40
1.0
 40
1.0
 10
31.87580076195859
 20
11.01145759841964
 30
0.0
 10
31.61588824608444
 20
10.85821927472841
 30
0.0
 10
31.32465076901375
 20
10.75549597855229
 30
0.0
 10
31.02043177649225
 20
10.74364329053199
 30
0.0
  0
SPLINE
  5
C1
330
1F
100
AcDbEntity
  8
Default
100
AcDbSpline
210
0.0
220
0.0
230
1.0
 70
     8
 71
     3
 72
     8
 73
     4
 74
     0
 42
0.0000000001
 43
0.0000000001
 40
0.0
 40
0.0
 40
0.0
 40
0.0
 40
1.0
 40
1.0
 40
1.0
 40
1.0
 10
31.02043177649225
 20
10.74364329053199
 30
0.0
 10
31.000959503316
 20
10.74307887681672
 30
0.0
 10
30.9817694369974
 20
10.74279666995909
 30
0.0
 10
30.96229716382115
 20
10.74279666995909
 30
0.0
  0
SPLINE
  5
C2
330
1F
100
AcDbEntity
  8
Default
100
AcDbSpline
210
0.0
220
0.0
230
1.0
 70
     8
 71
     3
 72
     8
 73
     4
 74
     0
 42
0.0000000001
 43
0.0000000001
 40
0.0
 40
0.0
 40
0.0
 40
0.0
 40
1.0
 40
1.0
 40
1.0
 40
1.0
 10
30.96229716382115
 20
10.74279666995909
 30
0.0
 10
30.67613941018773
 20
10.74279666995909
 30
0.0
 10
30.3843375194018
 20
10.82322562438267
 30
0.0
 10
30.1673204458869
 20
10.99339635953154
 30
0.0
  0
SPLINE
  5
C3
330
1F
100
AcDbEntity
  8
Default
100
AcDbSpline
210
0.0
220
0.0
230
1.0
 70
     8
 71
     3
 72
     8
 73
     4
 74
     0
 42
0.0000000001
 43
0.0000000001
 40
0.0
 40
0.0
 40
0.0
 40
0.0
 40
1.0
 40
1.0
 40
1.0
 40
1.0
 10
30.1673204458869
 20
10.99339635953154
 30
0.0
 10
29.93562861577545
 20
11.17513757584308
 30
0.0
 10
29.78916325666721
 20
11.45903767461553
 30
0.0
 10
29.70309016509109
 20
11.75196839283194
 30
0.0
  0
SPLINE
  5
C4
330
1F
100
AcDbEntity
  8
Default
100
AcDbSpline
210
0.0
220
0.0
230
1.0
 70
     8
 71
     3
 72
     8
 73
     4
 74
     0
 42
0.0000000001
 43
0.0000000001
 40
0.0
 40
0.0
 40
0.0
 40
0.0
 40
1.0
 40
1.0
 40
1.0
 40
1.0
 10
29.70309016509109
 20
11.75196839283194
 30
0.0
 10
29.61701707351496
 20
12.0446169041908
 30
0.0
 10
29.5910540426133
 20
12.34657824185126
 30
0.0
 10
29.5879497671794
 20
12.64853957951181
 30
0.0
  0
SPLINE
  5
C5
330
1F
100
AcDbEntity
  8
Default
100
AcDbSpline
210
0.0
220
0.0
230
1.0
 70
     8
 71
     3
 72
     8
 73
     4
 74
     0
 42
0.0000000001
 43
0.0000000001
 40
0.0
 40
0.0
 40
0.0
 40
0.0
 40
1.0
 40
1.0
 40
1.0
 40
1.0
 10
29.5879497671794
 20
12.64853957951181
 30
0.0
 10
29.5848454917455
 20
12.95050091717229
 30
0.0
 10
29.60431776492176
 20
13.25274446169041
 30
0.0
 10
29.64467334556237
 20
13.55188373077468
 30
0.0
  0
SPLINE
  5
C6
330
1F
100
AcDbEntity
  8
Default
100
AcDbSpline
210
0.0
220
0.0
230
1.0
 70
     8
 71
     3
 72
     8
 73
     4
 74
     0
 42
0.0000000001
 43
0.0000000001
 40
0.0
 40
0.0
 40
0.0
 40
0.0
 40
1.0
 40
1.0
 40
1.0
 40
1.0
 10
29.64467334556237
 20
13.55188373077468
 30
0.0
 10
29.68474671934534
 20
13.85130520671655
 30
0.0
 10
29.74570340059271
 20
14.14762240722453
 30
0.0
 10
29.81823056300275
 20
14.44083533229858
 30
0.0
  0
SPLINE
  5
C7
330
1F
100
AcDbEntity
  8
Default
100
AcDbSpline
210
0.0
220
0.0
230
1.0
 70
     8
 71
     3
 72
     8
 73
     4
 74
     0
 42
0.0000000001
 43
0.0000000001
 40
0.0
 40
0.0
 40
0.0
 40
0.0
 40
1.0
 40
1.0
 40
1.0
 40
1.0
 10
29.81823056300275
 20
14.44083533229858
 30
0.0
 10
29.89075772541279
 20
14.73404825737268
 30
0.0
 10
29.97485536898552
 20
15.02415690701284
 30
0.0
 10
30.06149287427691
 20
15.31370114293779
 30
0.0
  0
SPLINE
  5
C8
330
1F
100
AcDbEntity
  8
Default
100
AcDbSpline
210
0.0
220
0.0
230
1.0
 70
     8
 71
     3
 72
     8
 73
     4
 74
     0
 42
0.0000000001
 43
0.0000000001
 40
0.0
 40
0.0
 40
0.0
 40
0.0
 40
1.0
 40
1.0
 40
1.0
 40
1.0
 10
30.06149287427691
 20
15.31370114293779
 30
0.0
 10
30.14841258642591
 20
15.6029631720051
 30
0.0
 10
30.23787216029357
 20
15.89137858049952
 30
0.0
 10
30.32987159587985
 20
16.17922957527873
 30
0.0
  0
SPLINE
  5
C9
330
1F
100
AcDbEntity
  8
Default
100
AcDbSpline
210
0.0
220
0.0
230
1.0
 70
     8
 71
     3
 72
     8
 73
     4
 74
     0
 42
0.0000000001
 43
0.0000000001
 40
0.0
 40
0.0
 40
0.0
 40
0.0
 40
1.0
 40
1.0
 40
1.0
 40
1.0
 10
30.32987159587985
 20
16.17922957527873
 30
0.0
 10
30.42187103146613
 20
16.46679836320027
 30
0.0
 10
30.51612812191344
 20
16.75380273740655
 30
0.0
 10
30.61292507407936
 20
17.03996049103992
 30
0.0
  0
SPLINE
  5
CA
330
1F
100
AcDbEntity
  8
Default
100
AcDbSpline
210
0.0
220
0.0
230
1.0
 70
     8
 71
     3
 72
     8
 73
     4
 74
     0
 42
0.0000000001
 43
0.0000000001
 40
0.0
 40
0.0
 40
0.0
 40
0.0
 40
1.0
 40
1.0
 40
1.0
 40
1.0
 10
30.61292507407936
 20
17.03996049103992
 30
0.0
 10
30.70943981938769
 20
17.32611824467338
 30
0.0
 10
30.80849442641462
 20
17.61142937773391
 30
0.0
 10
30.90924227458736
 20
17.89617609707918
 30
0.0
  0
SPLINE
  5
CB
330
1F
100
AcDbEntity
  8
Default
100
AcDbSpline
210
0.0
220
0.0
230
1.0
 70
     8
 71
     3
 72
     8
 73
     4
 74
     0
 42
0.0000000001
 43
0.0000000001
 40
0.0
 40
0.0
 40
0.0
 40
0.0
 40
1.0
 40
1.0
 40
1.0
 40
1.0
 10
30.90924227458736
 20
17.89617609707918
 30
0.0
 10
31.01027232961768
 20
18.18092281642447
 30
0.0
 10
31.11299562579378
 20
18.46482291519686
 30
0.0
 10
31.21712995625802
 20
18.74844080711162
 30
0.0
  0
SPLINE
  5
CC
330
1F
100
AcDbEntity
  8
Default
100
AcDbSpline
210
0.0
220
0.0
230
1.0
 70
     8
 71
     3
 72
     8
 73
     4
 74
     0
 42
0.0000000001
 43
0.0000000001
 40
0.0
 40
0.0
 40
0.0
 40
0.0
 40
1.0
 40
1.0
 40
1.0
 40
1.0
 10
31.21712995625802
 20
18.74844080711162
 30
0.0
 10
31.32154649357986
 20
19.0317764921688
 30
0.0
 10
31.42709185833222
 20
19.31482997036829
 30
0.0
 10
31.53433046423035
 20
19.59731903485257
 30
0.0
  0
SPLINE
  5
CD
330
1F
100
AcDbEntity
  8
Default
100
AcDbSpline
210
0.0
220
0.0
230
1.0
 70
     8
 71
     3
 72
     8
 73
     4
 74
     0
 42
0.0000000001
 43
0.0000000001
 40
0.0
 40
0.0
 40
0.0
 40
0.0
 40
1.0
 40
1.0
 40
1.0
 40
1.0
 10
31.53433046423035
 20
19.59731903485257
 30
0.0
 10
31.64156907012847
 20
19.87952589247922
 30
0.0
 10
31.75021871031473
 20
20.16145054324824
 30
0.0
 10
31.86027938478913
 20
20.44281078030198
 30
0.0
  0
SPLINE
  5
CE
330
1F
100
AcDbEntity
  8
Default
100
AcDbSpline
210
0.0
220
0.0
230
1.0
 70
     8
 71
     3
 72
     8
 73
     4
 74
     0
 42
0.0000000001
 43
0.0000000001
 40
0.0
 40
0.0
 40
0.0
 40
0.0
 40
1.0
 40
1.0
 40
1.0
 40
1.0
 10
31.86027938478913
 20
20.44281078030198
 30
0.0
 10
31.97034005926351
 20
20.72388881049812
 30
0.0
 10
32.08209397488366
 20
21.00468463383663
 30
0.0
 10
32.19525892479193
 20
21.28463383660224
 30
0.0
  0
SPLINE
  5
CF
330
1F
100
AcDbEntity
  8
Default
100
AcDbSpline
210
0.0
220
0.0
230
1.0
 70
     8
 71
     3
 72
     8
 73
     4
 74
     0
 42
0.0000000001
 43
0.0000000001
 40
0.0
 40
0.0
 40
0.0
 40
0.0
 40
1.0
 40
1.0
 40
1.0
 40
1.0
 10
32.19525892479193
 20
21.28463383660224
 30
0.0
 10
32.30842387470022
 20
21.56486524622554
 30
0.0
 10
32.42328206575426
 20
21.84425003527588
 30
0.0
 10
32.53926908423882
 20
22.12307041061104
 30
0.0
  0
SPLINE
  5
D0
330
1F
100
AcDbEntity
  8
Default
100
AcDbSpline
210
0.0
220
0.0
230
1.0
 70
     8
 71
     3
 72
     8
 73
     4
 74
     0
 42
0.0000000001
 43
0.0000000001
 40
0.0
 40
0.0
 40
0.0
 40
0.0
 40
1.0
 40
1.0
 40
1.0
 40
1.0
 10
32.53926908423882
 20
22.12307041061104
 30
0.0
 10
32.65553830958099
 20
22.40189078594611
 30
0.0
 10
32.77321856921131
 20
22.680146747566
 30
0.0
 10
32.89230986312974
 20
22.95755608861296
 30
0.0
  0
SPLINE
  5
D1
330
1F
100
AcDbEntity
  8
Default
100
AcDbSpline
210
0.0
220
0.0
230
1.0
 70
     8
 71
     3
 72
     8
 73
     4
 74
     0
 42
0.0000000001
 43
0.0000000001
 40
0.0
 40
0.0
 40
0.0
 40
0.0
 40
1.0
 40
1.0
 40
1.0
 40
1.0
 10
32.89230986312974
 20
22.95755608861296
 30
0.0
 10
33.0114011570482
 20
23.23524763651758
 30
0.0
 10
33.13190348525475
 20
23.51209256384931
 30
0.0
 10
33.25381684774948
 20
23.78837307746582
 30
0.0
  0
SPLINE
  5
D2
330
1F
100
AcDbEntity
  8
Default
100
AcDbSpline
210
0.0
220
0.0
230
1.0
 70
     8
 71
     3
 72
     8
 73
     4
 74
     0
 42
0.0000000001
 43
0.0000000001
 40
0.0
 40
0.0
 40
0.0
 40
0.0
 40
1.0
 40
1.0
 40
1.0
 40
1.0
 10
33.25381684774948
 20
23.78837307746582
 30
0.0
 10
33.3760124171018
 20
24.0646535910823
 30
0.0
 10
33.49933681388465
 20
24.34036969098352
 30
0.0
 10
33.62463665867088
 20
24.61523917031187
 30
0.0
  0
SPLINE
  5
D3
330
1F
100
AcDbEntity
  8
Default
100
AcDbSpline
210
0.0
220
0.0
230
1.0
 70
     8
 71
     3
 72
     8
 73
     4
 74
     0
 42
0.0000000001
 43
0.0000000001
 40
0.0
 40
0.0
 40
0.0
 40
0.0
 40
1.0
 40
1.0
 40
1.0
 40
1.0
 10
33.62463665867088
 20
24.61523917031187
 30
0.0
 10
33.74965429659949
 20
24.89010864964024
 30
0.0
 10
33.87636517567385
 20
25.16441371525335
 30
0.0
 10
34.00561591646684
 20
25.43730774657828
 30
0.0
  0
SPLINE
  5
D4
330
1F
100
AcDbEntity
  8
Default
100
AcDbSpline
210
0.0
220
0.0
230
1.0
 70
     8
 71
     3
 72
     8
 73
     4
 74
     0
 42
0.0000000001
 43
0.0000000001
 40
0.0
 40
0.0
 40
0.0
 40
0.0
 40
1.0
 40
1.0
 40
1.0
 40
1.0
 10
34.00561591646684
 20
25.43730774657828
 30
0.0
 10
34.13514886411747
 20
25.71020177790322
 30
0.0
 10
34.26693946662911
 20
25.98224918865535
 30
0.0
 10
34.4012699308594
 20
26.25260335826164
 30
0.0
  0
SPLINE
  5
D5
330
1F
100
AcDbEntity
  8
Default
100
AcDbSpline
210
0.0
220
0.0
230
1.0
 70
     8
 71
     3
 72
     8
 73
     4
 74
     0
 42
0.0000000001
 43
0.0000000001
 40
0.0
 40
0.0
 40
0.0
 40
0.0
 40
1.0
 40
1.0
 40
1.0
 40
1.0
 10
34.4012699308594
 20
26.25260335826164
 30
0.0
 10
34.53560039508967
 20
26.52323973472559
 30
0.0
 10
34.67247072103859
 20
26.79246507690141
 30
0.0
 10
34.80905884012988
 20
27.06169041907719
 30
0.0
  0
SPLINE
  5
D6
330
1F
100
AcDbEntity
  8
Default
100
AcDbSpline
210
0.0
220
0.0
230
1.0
 70
     8
 71
     3
 72
     8
 73
     4
 74
     0
 42
0.0000000001
 43
0.0000000001
 40
0.0
 40
0.0
 40
0.0
 40
0.0
 40
1.0
 40
1.0
 40
1.0
 40
1.0
 10
34.80905884012988
 20
27.06169041907719
 30
0.0
 10
34.94592916607881
 20
27.33119796811067
 30
0.0
 10
35.08223507831248
 20
27.60042331028646
 30
0.0
 10
35.22079864540714
 20
27.86908423874706
 30
0.0
  0
SPLINE
  5
D7
330
1F
100
AcDbEntity
  8
Default
100
AcDbSpline
210
0.0
220
0.0
230
1.0
 70
     8
 71
     3
 72
     8
 73
     4
 74
     0
 42
0.0000000001
 43
0.0000000001
 40
0.0
 40
0.0
 40
0.0
 40
0.0
 40
1.0
 40
1.0
 40
1.0
 40
1.0
 10
35.22079864540714
 20
27.86908423874706
 30
0.0
 10
35.35936221250184
 20
28.13746296034998
 30
0.0
 10
35.50018343445754
 20
28.40527726823768
 30
0.0
 10
35.65963030901659
 20
28.66152109496267
 30
0.0
  0
SPLINE
  5
D8
330
1F
100
AcDbEntity
  8
Default
100
AcDbSpline
210
0.0
220
0.0
230
1.0
 70
     8
 71
     3
 72
     8
 73
     4
 74
     0
 42
0.0000000001
 43
0.0000000001
 40
0.0
 40
0.0
 40
0.0
 40
0.0
 40
1.0
 40
1.0
 40
1.0
 40
1.0
 10
35.65963030901659
 20
28.66152109496267
 30
0.0
 10
35.81935939043328
 20
28.91748271483002
 30
0.0
 10
35.99771412445331
 20
29.16215606039233
 30
0.0
 10
36.20485395795126
 20
29.38340623677158
 30
0.0
  0
SPLINE
  5
D9
330
1F
100
AcDbEntity
  8
Default
100
AcDbSpline
210
0.0
220
0.0
230
1.0
 70
     8
 71
     3
 72
     8
 73
     4
 74
     0
 42
0.0000000001
 43
0.0000000001
 40
0.0
 40
0.0
 40
0.0
 40
0.0
 40
1.0
 40
1.0
 40
1.0
 40
1.0
 10
36.20485395795126
 20
29.38340623677158
 30
0.0
 10
36.41199379144921
 20
29.60493862000854
 30
0.0
 10
36.64791872442508
 20
29.80304783406245
 30
0.0
 10
36.914039791167
 20
29.94104698744184
 30
0.0
  0
SPLINE
  5
DA
330
1F
100
AcDbEntity
  8
Default
100
AcDbSpline
210
0.0
220
0.0
230
1.0
 70
     8
 71
     3
 72
     8
 73
     4
 74
     0
 42
0.0000000001
 43
0.0000000001
 40
0.0
 40
0.0
 40
0.0
 40
0.0
 40
1.0
 40
1.0
 40
1.0
 40
1.0
 10
36.914039791167
 20
29.94104698744184
 30
0.0
 10
37.18044306476655
 20
30.07876393396364
 30
0.0
 10
37.47704247213215
 20
30.15608861295331
 30
0.0
 10
37.78295470579943
 20
30.16229716382114
 30
0.0
  0
SPLINE
  5
DB
330
1F
100
AcDbEntity
  8
Default
100
AcDbSpline
210
0.0
220
0.0
230
1.0
 70
     8
 71
     3
 72
     8
 73
     4
 74
     0
 42
0.0000000001
 43
0.0000000001
 40
0.0
 40
0.0
 40
0.0
 40
0.0
 40
1.0
 40
1.0
 40
1.0
 40
1.0
 10
37.78295470579943
 20
30.16229716382114
 30
0.0
 10
37.79678284182314
 20
30.1625793706788
 30
0.0
 10
37.81032877098923
 20
30.16286157753638
 30
0.0
 10
37.82415690701292
 20
30.16286157753638
 30
0.0
  0
LINE
  5
DC
330
1F
100
AcDbEntity
  8
Default
100
AcDbLine
 10
-35.52160293495139
 20
8.40186256526033
 30
0.0
 11
-35.52160293495139
 21
6.183152250599704
 31
0.0
  0
LINE
  5
DD
330
1F
100
AcDbEntity
  8
Default
100
AcDbLine
 10
-35.52160293495139
 20
6.183152250599704
 30
0.0
 11
-35.52160293495139
 21
0.999858896571169
 31
0.0
  0
SPLINE
  5
DE
330
1F
100
AcDbEntity
  8
Default
100
AcDbSpline
210
0.0
220
0.0
230
1.0
 70
     8
 71
     3
 72
     8
 73
     4
 74
     0
 42
0.0000000001
 43
0.0000000001
 40
0.0
 40
0.0
 40
0.0
 40
0.0
 40
1.0
 40
1.0
 40
1.0
 40
1.0
 10
-35.52160293495139
 20
0.999858896571169
 30
0.0
 10
-35.52160293495139
 20
0.9089882884154008
 30
0.0
 10
-35.5269648652463
 20
0.8181176802596326
 30
0.0
 10
-35.54079300127
 20
0.7280936926767367
 30
0.0
  0
SPLINE
  5
DF
330
1F
100
AcDbEntity
  8
Default
100
AcDbSpline
210
0.0
220
0.0
230
1.0
 70
     8
 71
     3
 72
     8
 73
     4
 74
     0
 42
0.0000000001
 43
0.0000000001
 40
0.0
 40
0.0
 40
0.0
 40
0.0
 40
1.0
 40
1.0
 40
1.0
 40
1.0
 10
-35.54079300127
 20
0.7280936926767367
 30
0.0
 10
-35.55433893043608
 20
0.6380697050938409
 30
0.0
 10
-35.57635106533095
 20
0.5494567517990561
 30
0.0
 10
-35.61162692253428
 20
0.4653591082263233
 30
0.0
  0
SPLINE
  5
E0
330
1F
100
AcDbEntity
  8
Default
100
AcDbSpline
210
0.0
220
0.0
230
1.0
 70
     8
 71
     3
 72
     8
 73
     4
 74
     0
 42
0.0000000001
 43
0.0000000001
 40
0.0
 40
0.0
 40
0.0
 40
0.0
 40
1.0
 40
1.0
 40
1.0
 40
1.0
 10
-35.61162692253428
 20
0.4653591082263233
 30
0.0
 10
-35.64662057287999
 20
0.3812614646535621
 30
0.0
 10
-35.69459573867651
 20
0.3022435445181486
 30
0.0
 10
-35.756963454212
 20
0.236489346691144
 30
0.0
  0
SPLINE
  5
E1
330
1F
100
AcDbEntity
  8
Default
100
AcDbSpline
210
0.0
220
0.0
230
1.0
 70
     8
 71
     3
 72
     8
 73
     4
 74
     0
 42
0.0000000001
 43
0.0000000001
 40
0.0
 40
0.0
 40
0.0
 40
0.0
 40
1.0
 40
1.0
 40
1.0
 40
1.0
 10
-35.756963454212
 20
0.236489346691144
 30
0.0
 10
-35.81961337660512
 20
0.1710173557217161
 30
0.0
 10
-35.89665584873718
 20
0.1188090870608107
 30
0.0
 10
-35.97962466487942
 20
0.0821221955693545
 30
0.0
  0
SPLINE
  5
E2
330
1F
100
AcDbEntity
  8
Default
100
AcDbSpline
210
0.0
220
0.0
230
1.0
 70
     8
 71
     3
 72
     8
 73
     4
 74
     0
 42
0.0000000001
 43
0.0000000001
 40
0.0
 40
0.0
 40
0.0
 40
0.0
 40
1.0
 40
1.0
 40
1.0
 40
1.0
 10
-35.97962466487942
 20
0.0821221955693545
 30
0.0
 10
-36.06287568787928
 20
0.0457175109355319
 30
0.0
 10
-36.15233526174693
 20
0.0245519966134964
 30
0.0
 10
-36.24433469733322
 20
0.0132637223084373
 30
0.0
  0
SPLINE
  5
E3
330
1F
100
AcDbEntity
  8
Default
100
AcDbSpline
210
0.0
220
0.0
230
1.0
 70
     8
 71
     3
 72
     8
 73
     4
 74
     0
 42
0.0000000001
 43
0.0000000001
 40
0.0
 40
0.0
 40
0.0
 40
0.0
 40
1.0
 40
1.0
 40
1.0
 40
1.0
 10
-36.24433469733322
 20
0.0132637223084373
 30
0.0
 10
-36.33661633977712
 20
0.0016932411457447
 30
0.0
 10
-36.43115563708204
 20
0.0
 30
0.0
 10
-36.52202624523783
 20
0.0
 30
0.0
  0
SPLINE
  5
E4
330
1F
100
AcDbEntity
  8
Default
100
AcDbSpline
210
0.0
220
0.0
230
1.0
 70
     8
 71
     3
 72
     8
 73
     4
 74
     0
 42
0.0000000001
 43
0.0000000001
 40
0.0
 40
0.0
 40
0.0
 40
0.0
 40
1.0
 40
1.0
 40
1.0
 40
1.0
 10
-36.52202624523783
 20
0.0
 30
0.0
 10
-36.61289685339361
 20
0.0
 30
0.0
 10
-36.70743615069853
 20
0.0016932411457447
 30
0.0
 10
-36.79943558628482
 20
0.0132637223084373
 30
0.0
  0
SPLINE
  5
E5
330
1F
100
AcDbEntity
  8
Default
100
AcDbSpline
210
0.0
220
0.0
230
1.0
 70
     8
 71
     3
 72
     8
 73
     4
 74
     0
 42
0.0000000001
 43
0.0000000001
 40
0.0
 40
0.0
 40
0.0
 40
0.0
 40
1.0
 40
1.0
 40
1.0
 40
1.0
 10
-36.79943558628482
 20
0.0132637223084373
 30
0.0
 10
-36.8914350218711
 20
0.02483420347113
 30
0.0
 10
-36.98089459573875
 20
0.0459997177931371
 30
0.0
 10
-37.06386341188097
 20
0.0824044024269881
 30
0.0
  0
SPLINE
  5
E6
330
1F
100
AcDbEntity
  8
Default
100
AcDbSpline
210
0.0
220
0.0
230
1.0
 70
     8
 71
     3
 72
     8
 73
     4
 74
     0
 42
0.0000000001
 43
0.0000000001
 40
0.0
 40
0.0
 40
0.0
 40
0.0
 40
1.0
 40
1.0
 40
1.0
 40
1.0
 10
-37.06386341188097
 20
0.0824044024269881
 30
0.0
 10
-37.14711443488083
 20
0.1190912939184443
 30
0.0
 10
-37.22387470015528
 20
0.1712995625793781
 30
0.0
 10
-37.28624241569078
 20
0.2370537604063827
 30
0.0
  0
SPLINE
  5
E7
330
1F
100
AcDbEntity
  8
Default
100
AcDbSpline
210
0.0
220
0.0
230
1.0
 70
     8
 71
     3
 72
     8
 73
     4
 74
     0
 42
0.0000000001
 43
0.0000000001
 40
0.0
 40
0.0
 40
0.0
 40
0.0
 40
1.0
 40
1.0
 40
1.0
 40
1.0
 10
-37.28624241569078
 20
0.2370537604063827
 30
0.0
 10
-37.34889233808389
 20
0.3025257513757538
 30
0.0
 10
-37.39686750388042
 20
0.3818258783688293
 30
0.0
 10
-37.43186115422613
 20
0.4656413150839853
 30
0.0
  0
SPLINE
  5
E8
330
1F
100
AcDbEntity
  8
Default
100
AcDbSpline
210
0.0
220
0.0
230
1.0
 70
     8
 71
     3
 72
     8
 73
     4
 74
     0
 42
0.0000000001
 43
0.0000000001
 40
0.0
 40
0.0
 40
0.0
 40
0.0
 40
1.0
 40
1.0
 40
1.0
 40
1.0
 10
-37.43186115422613
 20
0.4656413150839853
 30
0.0
 10
-37.46685480457182
 20
0.5497389586567181
 30
0.0
 10
-37.48858473260907
 20
0.6383519119514744
 30
0.0
 10
-37.50241286863277
 20
0.7283758995343419
 30
0.0
  0
SPLINE
  5
E9
330
1F
100
AcDbEntity
  8
Default
100
AcDbSpline
210
0.0
220
0.0
230
1.0
 70
     8
 71
     3
 72
     8
 73
     4
 74
     0
 42
0.0000000001
 43
0.0000000001
 40
0.0
 40
0.0
 40
0.0
 40
0.0
 40
1.0
 40
1.0
 40
1.0
 40
1.0
 10
-37.50241286863277
 20
0.7283758995343419
 30
0.0
 10
-37.51595879779886
 20
0.8181176802596326
 30
0.0
 10
-37.52160293495139
 20
0.9089882884154008
 30
0.0
 10
-37.52160293495139
 20
0.999858896571169
 30
0.0
  0
LINE
  5
EA
330
1F
100
AcDbEntity
  8
Default
100
AcDbLine
 10
-37.52160293495139
 20
0.999858896571169
 30
0.0
 11
-37.52160293495139
 21
8.40186256526033
 31
0.0
  0
LINE
  5
EB
330
1F
100
AcDbEntity
  8
Default
100
AcDbLine
 10
-37.52160293495139
 20
8.40186256526033
 30
0.0
 11
-35.52160293495139
 21
8.40186256526033
 31
0.0
  0
LINE
  5
EC
330
1F
100
AcDbEntity
  8
Default
100
AcDbLine
 10
37.52151827289411
 20
8.40186256526033
 30
0.0
 11
37.52151827289411
 21
6.183152250599704
 31
0.0
  0
LINE
  5
ED
330
1F
100
AcDbEntity
  8
Default
100
AcDbLine
 10
37.52151827289411
 20
6.183152250599704
 30
0.0
 11
37.52151827289411
 21
0.999858896571169
 31
0.0
  0
SPLINE
  5
EE
330
1F
100
AcDbEntity
  8
Default
100
AcDbSpline
210
0.0
220
0.0
230
1.0
 70
     8
 71
     3
 72
     8
 73
     4
 74
     0
 42
0.0000000001
 43
0.0000000001
 40
0.0
 40
0.0
 40
0.0
 40
0.0
 40
1.0
 40
1.0
 40
1.0
 40
1.0
 10
37.52151827289411
 20
0.999858896571169
 30
0.0
 10
37.52151827289411
 20
0.9089882884154008
 30
0.0
 10
37.5161563425992
 20
0.8181176802596326
 30
0.0
 10
37.5023282065755
 20
0.7280936926767367
 30
0.0
  0
SPLINE
  5
EF
330
1F
100
AcDbEntity
  8
Default
100
AcDbSpline
210
0.0
220
0.0
230
1.0
 70
     8
 71
     3
 72
     8
 73
     4
 74
     0
 42
0.0000000001
 43
0.0000000001
 40
0.0
 40
0.0
 40
0.0
 40
0.0
 40
1.0
 40
1.0
 40
1.0
 40
1.0
 10
37.5023282065755
 20
0.7280936926767367
 30
0.0
 10
37.48878227740943
 20
0.6380697050938409
 30
0.0
 10
37.46677014251453
 20
0.5494567517990561
 30
0.0
 10
37.43149428531122
 20
0.4653591082263233
 30
0.0
  0
SPLINE
  5
F0
330
1F
100
AcDbEntity
  8
Default
100
AcDbSpline
210
0.0
220
0.0
230
1.0
 70
     8
 71
     3
 72
     8
 73
     4
 74
     0
 42
0.0000000001
 43
0.0000000001
 40
0.0
 40
0.0
 40
0.0
 40
0.0
 40
1.0
 40
1.0
 40
1.0
 40
1.0
 10
37.43149428531122
 20
0.4653591082263233
 30
0.0
 10
37.39650063496552
 20
0.3812614646535621
 30
0.0
 10
37.34852546916899
 20
0.3022435445181486
 30
0.0
 10
37.28615775363349
 20
0.236489346691144
 30
0.0
  0
SPLINE
  5
F1
330
1F
100
AcDbEntity
  8
Default
100
AcDbSpline
210
0.0
220
0.0
230
1.0
 70
     8
 71
     3
 72
     8
 73
     4
 74
     0
 42
0.0000000001
 43
0.0000000001
 40
0.0
 40
0.0
 40
0.0
 40
0.0
 40
1.0
 40
1.0
 40
1.0
 40
1.0
 10
37.28615775363349
 20
0.236489346691144
 30
0.0
 10
37.22350783124037
 20
0.1710173557217161
 30
0.0
 10
37.1464653591083
 20
0.1188090870608107
 30
0.0
 10
37.06349654296608
 20
0.0821221955693545
 30
0.0
  0
SPLINE
  5
F2
330
1F
100
AcDbEntity
  8
Default
100
AcDbSpline
210
0.0
220
0.0
230
1.0
 70
     8
 71
     3
 72
     8
 73
     4
 74
     0
 42
0.0000000001
 43
0.0000000001
 40
0.0
 40
0.0
 40
0.0
 40
0.0
 40
1.0
 40
1.0
 40
1.0
 40
1.0
 10
37.06349654296608
 20
0.0821221955693545
 30
0.0
 10
36.98024551996622
 20
0.0457175109355319
 30
0.0
 10
36.89078594609856
 20
0.0245519966134964
 30
0.0
 10
36.79878651051229
 20
0.0132637223084373
 30
0.0
  0
SPLINE
  5
F3
330
1F
100
AcDbEntity
  8
Default
100
AcDbSpline
210
0.0
220
0.0
230
1.0
 70
     8
 71
     3
 72
     8
 73
     4
 74
     0
 42
0.0000000001
 43
0.0000000001
 40
0.0
 40
0.0
 40
0.0
 40
0.0
 40
1.0
 40
1.0
 40
1.0
 40
1.0
 10
36.79878651051229
 20
0.0132637223084373
 30
0.0
 10
36.70650486806838
 20
0.0016932411457447
 30
0.0
 10
36.61196557076343
 20
0.0
 30
0.0
 10
36.52109496260766
 20
0.0
 30
0.0
  0
SPLINE
  5
F4
330
1F
100
AcDbEntity
  8
Default
100
AcDbSpline
210
0.0
220
0.0
230
1.0
 70
     8
 71
     3
 72
     8
 73
     4
 74
     0
 42
0.0000000001
 43
0.0000000001
 40
0.0
 40
0.0
 40
0.0
 40
0.0
 40
1.0
 40
1.0
 40
1.0
 40
1.0
 10
36.52109496260766
 20
0.0
 30
0.0
 10
36.43022435445188
 20
0.0
 30
0.0
 10
36.33568505714696
 20
0.0016932411457447
 30
0.0
 10
36.24368562156069
 20
0.0132637223084373
 30
0.0
  0
SPLINE
  5
F5
330
1F
100
AcDbEntity
  8
Default
100
AcDbSpline
210
0.0
220
0.0
230
1.0
 70
     8
 71
     3
 72
     8
 73
     4
 74
     0
 42
0.0000000001
 43
0.0000000001
 40
0.0
 40
0.0
 40
0.0
 40
0.0
 40
1.0
 40
1.0
 40
1.0
 40
1.0
 10
36.24368562156069
 20
0.0132637223084373
 30
0.0
 10
36.1516861859744
 20
0.02483420347113
 30
0.0
 10
36.06222661210676
 20
0.0459997177931371
 30
0.0
 10
35.97925779596453
 20
0.0824044024269881
 30
0.0
  0
SPLINE
  5
F6
330
1F
100
AcDbEntity
  8
Default
100
AcDbSpline
210
0.0
220
0.0
230
1.0
 70
     8
 71
     3
 72
     8
 73
     4
 74
     0
 42
0.0000000001
 43
0.0000000001
 40
0.0
 40
0.0
 40
0.0
 40
0.0
 40
1.0
 40
1.0
 40
1.0
 40
1.0
 10
35.97925779596453
 20
0.0824044024269881
 30
0.0
 10
35.89600677296465
 20
0.1190912939184443
 30
0.0
 10
35.81924650769021
 20
0.1712995625793781
 30
0.0
 10
35.75687879215474
 20
0.2370537604063827
 30
0.0
  0
SPLINE
  5
F7
330
1F
100
AcDbEntity
  8
Default
100
AcDbSpline
210
0.0
220
0.0
230
1.0
 70
     8
 71
     3
 72
     8
 73
     4
 74
     0
 42
0.0000000001
 43
0.0000000001
 40
0.0
 40
0.0
 40
0.0
 40
0.0
 40
1.0
 40
1.0
 40
1.0
 40
1.0
 10
35.75687879215474
 20
0.2370537604063827
 30
0.0
 10
35.6942288697616
 20
0.3025257513757538
 30
0.0
 10
35.64625370396509
 20
0.3818258783688293
 30
0.0
 10
35.61126005361938
 20
0.4656413150839853
 30
0.0
  0
SPLINE
  5
F8
330
1F
100
AcDbEntity
  8
Default
100
AcDbSpline
210
0.0
220
0.0
230
1.0
 70
     8
 71
     3
 72
     8
 73
     4
 74
     0
 42
0.0000000001
 43
0.0000000001
 40
0.0
 40
0.0
 40
0.0
 40
0.0
 40
1.0
 40
1.0
 40
1.0
 40
1.0
 10
35.61126005361938
 20
0.4656413150839853
 30
0.0
 10
35.57626640327368
 20
0.5497389586567181
 30
0.0
 10
35.55453647523642
 20
0.6383519119514744
 30
0.0
 10
35.54070833921271
 20
0.7283758995343419
 30
0.0
  0
SPLINE
  5
F9
330
1F
100
AcDbEntity
  8
Default
100
AcDbSpline
210
0.0
220
0.0
230
1.0
 70
     8
 71
     3
 72
     8
 73
     4
 74
     0
 42
0.0000000001
 43
0.0000000001
 40
0.0
 40
0.0
 40
0.0
 40
0.0
 40
1.0
 40
1.0
 40
1.0
 40
1.0
 10
35.54070833921271
 20
0.7283758995343419
 30
0.0
 10
35.52716241004663
 20
0.8181176802596326
 30
0.0
 10
35.5215182728941
 20
0.9089882884154008
 30
0.0
 10
35.5215182728941
 20
0.999858896571169
 30
0.0
  0
LINE
  5
FA
330
1F
100
AcDbEntity
  8
Default
100
AcDbLine
 10
35.5215182728941
 20
0.999858896571169
 30
0.0
 11
35.5215182728941
 21
8.40186256526033
 31
0.0
  0
LINE
  5
FB
330
1F
100
AcDbEntity
  8
Default
100
AcDbLine
 10
35.5215182728941
 20
8.40186256526033
 30
0.0
 11
37.52151827289411
 21
8.40186256526033
 31
0.0
  0
SPLINE
  5
FC
330
1F
100
AcDbEntity
  8
Default
100
AcDbSpline
210
0.0
220
0.0
230
1.0
 70
     8
 71
     3
 72
     8
 73
     4
 74
     0
 42
0.0000000001
 43
0.0000000001
 40
0.0
 40
0.0
 40
0.0
 40
0.0
 40
1.0
 40
1.0
 40
1.0
 40
1.0
 10
-29.81828700437426
 20
56.82963172005091
 30
0.0
 10
-28.95558064060963
 20
61.00262452377603
 30
0.0
 10
-28.0931564837026
 20
65.17561732750124
 30
0.0
 10
-27.23045011993797
 20
69.348892338084
 30
0.0
  0
SPLINE
  5
FD
330
1F
100
AcDbEntity
  8
Default
100
AcDbSpline
210
0.0
220
0.0
230
1.0
 70
     8
 71
     3
 72
     8
 73
     4
 74
     0
 42
0.0000000001
 43
0.0000000001
 40
0.0
 40
0.0
 40
0.0
 40
0.0
 40
1.0
 40
1.0
 40
1.0
 40
1.0
 10
-27.23045011993797
 20
69.348892338084
 30
0.0
 10
-27.07805841681958
 20
70.1337096091437
 30
0.0
 10
-26.78907859460989
 20
70.89228164244412
 30
0.0
 10
-26.38072527162414
 20
71.57973754762259
 30
0.0
  0
SPLINE
  5
FE
330
1F
100
AcDbEntity
  8
Default
100
AcDbSpline
210
0.0
220
0.0
230
1.0
 70
     8
 71
     3
 72
     8
 73
     4
 74
     0
 42
0.0000000001
 43
0.0000000001
 40
0.0
 40
0.0
 40
0.0
 40
0.0
 40
1.0
 40
1.0
 40
1.0
 40
1.0
 10
-26.38072527162414
 20
71.57973754762259
 30
0.0
 10
-25.97237194863839
 20
72.26719345280105
 30
0.0
 10
-25.44436291801896
 20
72.88381543671528
 30
0.0
 10
-24.82774093410475
 20
73.39291660787376
 30
0.0
  0
SPLINE
  5
FF
330
1F
100
AcDbEntity
  8
Default
100
AcDbSpline
210
0.0
220
0.0
230
1.0
 70
     8
 71
     3
 72
     8
 73
     4
 74
     0
 42
0.0000000001
 43
0.0000000001
 40
0.0
 40
0.0
 40
0.0
 40
0.0
 40
1.0
 40
1.0
 40
1.0
 40
1.0
 10
-24.82774093410475
 20
73.39291660787376
 30
0.0
 10
-24.21111895019053
 20
73.90173557217457
 30
0.0
 10
-23.50588401298156
 20
74.3033159305773
 30
0.0
 10
-22.7532383236913
 20
74.57395230704122
 30
0.0
  0
SPLINE
  5
100
330
1F
100
AcDbEntity
  8
Default
100
AcDbSpline
210
0.0
220
0.0
230
1.0
 70
     8
 71
     3
 72
     8
 73
     4
 74
     0
 42
0.0000000001
 43
0.0000000001
 40
0.0
 40
0.0
 40
0.0
 40
0.0
 40
1.0
 40
1.0
 40
1.0
 40
1.0
 10
-22.7532383236913
 20
74.57395230704122
 30
0.0
 10
-22.00087484125868
 20
74.84458868350521
 30
0.0
 10
-21.20110060674478
 20
74.98399887117273
 30
0.0
 10
-20.40132637223088
 20
74.98399887117273
 30
0.0
  0
LINE
  5
101
330
1F
100
AcDbEntity
  8
Default
100
AcDbLine
 10
-20.40132637223088
 20
74.98399887117273
 30
0.0
 11
20.40126993085937
 21
74.98399887117273
 31
0.0
  0
SPLINE
  5
102
330
1F
100
AcDbEntity
  8
Default
100
AcDbSpline
210
0.0
220
0.0
230
1.0
 70
     8
 71
     3
 72
     8
 73
     4
 74
     0
 42
0.0000000001
 43
0.0000000001
 40
0.0
 40
0.0
 40
0.0
 40
0.0
 40
1.0
 40
1.0
 40
1.0
 40
1.0
 10
20.40126993085937
 20
74.98399887117273
 30
0.0
 10
21.20104416537326
 20
74.98399887117273
 30
0.0
 10
22.00081839988718
 20
74.84458868350521
 30
0.0
 10
22.75346408917745
 20
74.57395230704122
 30
0.0
  0
SPLINE
  5
103
330
1F
100
AcDbEntity
  8
Default
100
AcDbSpline
210
0.0
220
0.0
230
1.0
 70
     8
 71
     3
 72
     8
 73
     4
 74
     0
 42
0.0000000001
 43
0.0000000001
 40
0.0
 40
0.0
 40
0.0
 40
0.0
 40
1.0
 40
1.0
 40
1.0
 40
1.0
 10
22.75346408917745
 20
74.57395230704122
 30
0.0
 10
23.50582757161004
 20
74.3033159305773
 30
0.0
 10
24.21134471567665
 20
73.90173557217457
 30
0.0
 10
24.82796669959086
 20
73.39291660787376
 30
0.0
  0
SPLINE
  5
104
330
1F
100
AcDbEntity
  8
Default
100
AcDbSpline
210
0.0
220
0.0
230
1.0
 70
     8
 71
     3
 72
     8
 73
     4
 74
     0
 42
0.0000000001
 43
0.0000000001
 40
0.0
 40
0.0
 40
0.0
 40
0.0
 40
1.0
 40
1.0
 40
1.0
 40
1.0
 10
24.82796669959086
 20
73.39291660787376
 30
0.0
 10
25.44458868350506
 20
72.88381543671528
 30
0.0
 10
25.97231550726689
 20
72.26719345280105
 30
0.0
 10
26.38095103711025
 20
71.57973754762259
 30
0.0
  0
SPLINE
  5
105
330
1F
100
AcDbEntity
  8
Default
100
AcDbSpline
210
0.0
220
0.0
230
1.0
 70
     8
 71
     3
 72
     8
 73
     4
 74
     0
 42
0.0000000001
 43
0.0000000001
 40
0.0
 40
0.0
 40
0.0
 40
0.0
 40
1.0
 40
1.0
 40
1.0
 40
1.0
 10
26.38095103711025
 20
71.57973754762259
 30
0.0
 10
26.78930436009601
 20
70.89228164244412
 30
0.0
 10
27.07800197544806
 20
70.1337096091437
 30
0.0
 10
27.23039367856643
 20
69.348892338084
 30
0.0
  0
SPLINE
  5
106
330
1F
100
AcDbEntity
  8
Default
100
AcDbSpline
210
0.0
220
0.0
230
1.0
 70
     8
 71
     3
 72
     8
 73
     4
 74
     0
 42
0.0000000001
 43
0.0000000001
 40
0.0
 40
0.0
 40
0.0
 40
0.0
 40
1.0
 40
1.0
 40
1.0
 40
1.0
 10
27.23039367856643
 20
69.348892338084
 30
0.0
 10
28.09310004233108
 20
65.17561732750124
 30
0.0
 10
28.95580640609574
 20
61.00262452377603
 30
0.0
 10
29.81823056300275
 20
56.82963172005091
 30
0.0
  0
SPLINE
  5
107
330
1F
100
AcDbEntity
  8
Default
100
AcDbSpline
210
0.0
220
0.0
230
1.0
 70
     8
 71
     3
 72
     8
 73
     4
 74
     0
 42
0.0000000001
 43
0.0000000001
 40
0.0
 40
0.0
 40
0.0
 40
0.0
 40
1.0
 40
1.0
 40
1.0
 40
1.0
 10
29.81823056300275
 20
56.82963172005091
 30
0.0
 10
29.90740793001278
 20
56.59398899393267
 30
0.0
 10
30.01492874276852
 20
56.36511923239743
 30
0.0
 10
30.14220403555813
 20
56.14781995202495
 30
0.0
  0
SPLINE
  5
108
330
1F
100
AcDbEntity
  8
Default
100
AcDbSpline
210
0.0
220
0.0
230
1.0
 70
     8
 71
     3
 72
     8
 73
     4
 74
     0
 42
0.0000000001
 43
0.0000000001
 40
0.0
 40
0.0
 40
0.0
 40
0.0
 40
1.0
 40
1.0
 40
1.0
 40
1.0
 10
30.14220403555813
 20
56.14781995202495
 30
0.0
 10
30.26947932834773
 20
55.93052067165246
 30
0.0
 10
30.41594468745597
 20
55.72479187244261
 30
0.0
 10
30.58724425003534
 20
55.53881755326663
 30
0.0
  0
SPLINE
  5
109
330
1F
100
AcDbEntity
  8
Default
100
AcDbSpline
210
0.0
220
0.0
230
1.0
 70
     8
 71
     3
 72
     8
 73
     4
 74
     0
 42
0.0000000001
 43
0.0000000001
 40
0.0
 40
0.0
 40
0.0
 40
0.0
 40
1.0
 40
1.0
 40
1.0
 40
1.0
 10
30.58724425003534
 20
55.53881755326663
 30
0.0
 10
30.75854381261472
 20
55.35256102723307
 30
0.0
 10
30.95439537180761
 20
55.18605898123334
 30
0.0
 10
31.18128968533941
 20
55.07853816847762
 30
0.0
  0
SPLINE
  5
10A
330
1F
100
AcDbEntity
  8
Default
100
AcDbSpline
210
0.0
220
0.0
230
1.0
 70
     8
 71
     3
 72
     8
 73
     4
 74
     0
 42
0.0000000001
 43
0.0000000001
 40
0.0
 40
0.0
 40
0.0
 40
0.0
 40
1.0
 40
1.0
 40
1.0
 40
1.0
 10
31.18128968533941
 20
55.07853816847762
 30
0.0
 10
31.40818399887124
 20
54.97101735572184
 30
0.0
 10
31.66640327359962
 20
54.92304218992533
 30
0.0
 10
31.91672075631445
 20
54.95860025398628
 30
0.0
  0
LINE
  5
10B
330
1F
100
AcDbEntity
  8
Default
100
AcDbLine
 10
31.91672075631445
 20
54.95860025398628
 30
0.0
 11
38.15546775786662
 21
56.13935374629617
 31
0.0
  0
SPLINE
  5
10C
330
1F
100
AcDbEntity
  8
Default
100
AcDbSpline
210
0.0
220
0.0
230
1.0
 70
     8
 71
     3
 72
     8
 73
     4
 74
     0
 42
0.0000000001
 43
0.0000000001
 40
0.0
 40
0.0
 40
0.0
 40
0.0
 40
1.0
 40
1.0
 40
1.0
 40
1.0
 10
38.15546775786662
 20
56.13935374629617
 30
0.0
 10
38.54152673909985
 20
56.20821221955705
 30
0.0
 10
38.81667842528583
 20
56.50452942006504
 30
0.0
 10
38.9891068152957
 20
56.8412022012136
 30
0.0
  0
SPLINE
  5
10D
330
1F
100
AcDbEntity
  8
Default
100
AcDbSpline
210
0.0
220
0.0
230
1.0
 70
     8
 71
     3
 72
     8
 73
     4
 74
     0
 42
0.0000000001
 43
0.0000000001
 40
0.0
 40
0.0
 40
0.0
 40
0.0
 40
1.0
 40
1.0
 40
1.0
 40
1.0
 10
38.9891068152957
 20
56.8412022012136
 30
0.0
 10
39.16153520530557
 20
57.17787498236217
 30
0.0
 10
39.23152250599699
 20
57.5549033441514
 30
0.0
 10
39.2687738112037
 20
57.93164949908294
 30
0.0
  0
SPLINE
  5
10E
330
1F
100
AcDbEntity
  8
Default
100
AcDbSpline
210
0.0
220
0.0
230
1.0
 70
     8
 71
     3
 72
     8
 73
     4
 74
     0
 42
0.0000000001
 43
0.0000000001
 40
0.0
 40
0.0
 40
0.0
 40
0.0
 40
1.0
 40
1.0
 40
1.0
 40
1.0
 10
39.2687738112037
 20
57.93164949908294
 30
0.0
 10
39.30602511641042
 20
58.30839565401453
 30
0.0
 10
39.31054042613243
 20
58.68485960208847
 30
0.0
 10
39.29727670382398
 20
59.06188796387764
 30
0.0
  0
SPLINE
  5
10F
330
1F
100
AcDbEntity
  8
Default
100
AcDbSpline
210
0.0
220
0.0
230
1.0
 70
     8
 71
     3
 72
     8
 73
     4
 74
     0
 42
0.0000000001
 43
0.0000000001
 40
0.0
 40
0.0
 40
0.0
 40
0.0
 40
1.0
 40
1.0
 40
1.0
 40
1.0
 10
39.29727670382398
 20
59.06188796387764
 30
0.0
 10
39.28401298151553
 20
59.43863411880923
 30
0.0
 10
39.25268802031897
 20
59.81594468745604
 30
0.0
 10
39.18128968533945
 20
60.18591787780457
 30
0.0
  0
SPLINE
  5
110
330
1F
100
AcDbEntity
  8
Default
100
AcDbSpline
210
0.0
220
0.0
230
1.0
 70
     8
 71
     3
 72
     8
 73
     4
 74
     0
 42
0.0000000001
 43
0.0000000001
 40
0.0
 40
0.0
 40
0.0
 40
0.0
 40
1.0
 40
1.0
 40
1.0
 40
1.0
 10
39.18128968533945
 20
60.18591787780457
 30
0.0
 10
38.47690136870334
 20
63.83682799492044
 30
0.0
 10
37.77251305206725
 20
67.48802031889392
 30
0.0
 10
37.06784252857352
 20
71.13893043600979
 30
0.0
  0
SPLINE
  5
111
330
1F
100
AcDbEntity
  8
Default
100
AcDbSpline
210
0.0
220
0.0
230
1.0
 70
     8
 71
     3
 72
     8
 73
     4
 74
     0
 42
0.0000000001
 43
0.0000000001
 40
0.0
 40
0.0
 40
0.0
 40
0.0
 40
1.0
 40
1.0
 40
1.0
 40
1.0
 10
37.06784252857352
 20
71.13893043600979
 30
0.0
 10
36.69617609707923
 20
73.06499223931155
 30
0.0
 10
35.9889657118669
 20
74.91598701848477
 30
0.0
 10
34.99813743473973
 20
76.60132637223103
 30
0.0
  0
SPLINE
  5
112
330
1F
100
AcDbEntity
  8
Default
100
AcDbSpline
210
0.0
220
0.0
230
1.0
 70
     8
 71
     3
 72
     8
 73
     4
 74
     0
 42
0.0000000001
 43
0.0000000001
 40
0.0
 40
0.0
 40
0.0
 40
0.0
 40
1.0
 40
1.0
 40
1.0
 40
1.0
 10
34.99813743473973
 20
76.60132637223103
 30
0.0
 10
34.00702695075498
 20
78.28666572597734
 30
0.0
 10
32.7320163679978
 20
79.80606744743915
 30
0.0
 10
31.23039367856646
 20
81.05793706787097
 30
0.0
  0
SPLINE
  5
113
330
1F
100
AcDbEntity
  8
Default
100
AcDbSpline
210
0.0
220
0.0
230
1.0
 70
     8
 71
     3
 72
     8
 73
     4
 74
     0
 42
0.0000000001
 43
0.0000000001
 40
0.0
 40
0.0
 40
0.0
 40
0.0
 40
1.0
 40
1.0
 40
1.0
 40
1.0
 10
31.23039367856646
 20
81.05793706787097
 30
0.0
 10
29.72848878227748
 20
82.30980668830273
 30
0.0
 10
27.99940736559906
 20
83.29386200084684
 30
0.0
 10
26.15716099901232
 20
83.95789473684232
 30
0.0
  0
SPLINE
  5
114
330
1F
100
AcDbEntity
  8
Default
100
AcDbSpline
210
0.0
220
0.0
230
1.0
 70
     8
 71
     3
 72
     8
 73
     4
 74
     0
 42
0.0000000001
 43
0.0000000001
 40
0.0
 40
0.0
 40
0.0
 40
0.0
 40
1.0
 40
1.0
 40
1.0
 40
1.0
 10
26.15716099901232
 20
83.95789473684232
 30
0.0
 10
24.31491463242562
 20
84.6219274728378
 30
0.0
 10
22.35950331593061
 20
84.96565542542703
 30
0.0
 10
20.40126993085937
 20
84.96452659799655
 30
0.0
  0
LINE
  5
115
330
1F
100
AcDbEntity
  8
Default
100
AcDbLine
 10
20.40126993085937
 20
84.96452659799655
 30
0.0
 11
-20.40132637223088
 21
84.96452659799655
 31
0.0
  0
SPLINE
  5
116
330
1F
100
AcDbEntity
  8
Default
100
AcDbSpline
210
0.0
220
0.0
230
1.0
 70
     8
 71
     3
 72
     8
 73
     4
 74
     0
 42
0.0000000001
 43
0.0000000001
 40
0.0
 40
0.0
 40
0.0
 40
0.0
 40
1.0
 40
1.0
 40
1.0
 40
1.0
 10
-20.40132637223088
 20
84.96452659799655
 30
0.0
 10
-22.35927755044451
 20
84.96565542542703
 30
0.0
 10
-24.31497107379713
 20
84.6219274728378
 30
0.0
 10
-26.15721744038385
 20
83.95789473684232
 30
0.0
  0
SPLINE
  5
117
330
1F
100
AcDbEntity
  8
Default
100
AcDbSpline
210
0.0
220
0.0
230
1.0
 70
     8
 71
     3
 72
     8
 73
     4
 74
     0
 42
0.0000000001
 43
0.0000000001
 40
0.0
 40
0.0
 40
0.0
 40
0.0
 40
1.0
 40
1.0
 40
1.0
 40
1.0
 10
-26.15721744038385
 20
83.95789473684232
 30
0.0
 10
-27.99946380697056
 20
83.29386200084684
 30
0.0
 10
-29.72826301679137
 20
82.30980668830273
 30
0.0
 10
-31.23016791308035
 20
81.05793706787097
 30
0.0
  0
SPLINE
  5
118
330
1F
100
AcDbEntity
  8
Default
100
AcDbSpline
210
0.0
220
0.0
230
1.0
 70
     8
 71
     3
 72
     8
 73
     4
 74
     0
 42
0.0000000001
 43
0.0000000001
 40
0.0
 40
0.0
 40
0.0
 40
0.0
 40
1.0
 40
1.0
 40
1.0
 40
1.0
 10
-31.23016791308035
 20
81.05793706787097
 30
0.0
 10
-32.73207280936933
 20
79.80606744743915
 30
0.0
 10
-34.00708339212649
 20
78.28666572597734
 30
0.0
 10
-34.99791166925363
 20
76.60132637223103
 30
0.0
  0
SPLINE
  5
119
330
1F
100
AcDbEntity
  8
Default
100
AcDbSpline
210
0.0
220
0.0
230
1.0
 70
     8
 71
     3
 72
     8
 73
     4
 74
     0
 42
0.0000000001
 43
0.0000000001
 40
0.0
 40
0.0
 40
0.0
 40
0.0
 40
1.0
 40
1.0
 40
1.0
 40
1.0
 10
-34.99791166925363
 20
76.60132637223103
 30
0.0
 10
-35.98902215323839
 20
74.91598701848477
 30
0.0
 10
-36.69623253845074
 20
73.06499223931155
 30
0.0
 10
-37.06789896994503
 20
71.13893043600979
 30
0.0
  0
SPLINE
  5
11A
330
1F
100
AcDbEntity
  8
Default
100
AcDbSpline
210
0.0
220
0.0
230
1.0
 70
     8
 71
     3
 72
     8
 73
     4
 74
     0
 42
0.0000000001
 43
0.0000000001
 40
0.0
 40
0.0
 40
0.0
 40
0.0
 40
1.0
 40
1.0
 40
1.0
 40
1.0
 10
-37.06789896994503
 20
71.13893043600979
 30
0.0
 10
-37.77228728658113
 20
67.48802031889392
 30
0.0
 10
-38.47695781007485
 20
63.83682799492044
 30
0.0
 10
-39.18134612671095
 20
60.18591787780457
 30
0.0
  0
SPLINE
  5
11B
330
1F
100
AcDbEntity
  8
Default
100
AcDbSpline
210
0.0
220
0.0
230
1.0
 70
     8
 71
     3
 72
     8
 73
     4
 74
     0
 42
0.0000000001
 43
0.0000000001
 40
0.0
 40
0.0
 40
0.0
 40
0.0
 40
1.0
 40
1.0
 40
1.0
 40
1.0
 10
-39.18134612671095
 20
60.18591787780457
 30
0.0
 10
-39.2527444616905
 20
59.81594468745604
 30
0.0
 10
-39.28378721602942
 20
59.43863411880923
 30
0.0
 10
-39.29705093833788
 20
59.06188796387764
 30
0.0
  0
SPLINE
  5
11C
330
1F
100
AcDbEntity
  8
Default
100
AcDbSpline
210
0.0
220
0.0
230
1.0
 70
     8
 71
     3
 72
     8
 73
     4
 74
     0
 42
0.0000000001
 43
0.0000000001
 40
0.0
 40
0.0
 40
0.0
 40
0.0
 40
1.0
 40
1.0
 40
1.0
 40
1.0
 10
-39.29705093833788
 20
59.06188796387764
 30
0.0
 10
-39.31059686750396
 20
58.68485960208847
 30
0.0
 10
-39.3057993509243
 20
58.30839565401453
 30
0.0
 10
-39.26854804571758
 20
57.93164949908294
 30
0.0
  0
SPLINE
  5
11D
330
1F
100
AcDbEntity
  8
Default
100
AcDbSpline
210
0.0
220
0.0
230
1.0
 70
     8
 71
     3
 72
     8
 73
     4
 74
     0
 42
0.0000000001
 43
0.0000000001
 40
0.0
 40
0.0
 40
0.0
 40
0.0
 40
1.0
 40
1.0
 40
1.0
 40
1.0
 10
-39.26854804571758
 20
57.93164949908294
 30
0.0
 10
-39.23129674051087
 20
57.5549033441514
 30
0.0
 10
-39.16159164667708
 20
57.17787498236217
 30
0.0
 10
-38.9891632566672
 20
56.8412022012136
 30
0.0
  0
SPLINE
  5
11E
330
1F
100
AcDbEntity
  8
Default
100
AcDbSpline
210
0.0
220
0.0
230
1.0
 70
     8
 71
     3
 72
     8
 73
     4
 74
     0
 42
0.0000000001
 43
0.0000000001
 40
0.0
 40
0.0
 40
0.0
 40
0.0
 40
1.0
 40
1.0
 40
1.0
 40
1.0
 10
-38.9891632566672
 20
56.8412022012136
 30
0.0
 10
-38.81645265979971
 20
56.50452942006504
 30
0.0
 10
-38.54130097361373
 20
56.20821221955705
 30
0.0
 10
-38.15552419923812
 20
56.13935374629617
 30
0.0
  0
SPLINE
  5
11F
330
1F
100
AcDbEntity
  8
Default
100
AcDbSpline
210
0.0
220
0.0
230
1.0
 70
     8
 71
     3
 72
     8
 73
     4
 74
     0
 42
0.0000000001
 43
0.0000000001
 40
0.0
 40
0.0
 40
0.0
 40
0.0
 40
1.0
 40
1.0
 40
1.0
 40
1.0
 10
-38.15552419923812
 20
56.13935374629617
 30
0.0
 10
-36.07594186538739
 20
55.74567517990698
 30
0.0
 10
-33.99635953153668
 20
55.35227882037546
 30
0.0
 10
-31.91649499082834
 20
54.95860025398628
 30
0.0
  0
SPLINE
  5
120
330
1F
100
AcDbEntity
  8
Default
100
AcDbSpline
210
0.0
220
0.0
230
1.0
 70
     8
 71
     3
 72
     8
 73
     4
 74
     0
 42
0.0000000001
 43
0.0000000001
 40
0.0
 40
0.0
 40
0.0
 40
0.0
 40
1.0
 40
1.0
 40
1.0
 40
1.0
 10
-31.91649499082834
 20
54.95860025398628
 30
0.0
 10
-31.66617750811351
 20
54.92304218992533
 30
0.0
 10
-31.40824044024275
 20
54.97101735572184
 30
0.0
 10
-31.18134612671094
 20
55.07853816847762
 30
0.0
  0
SPLINE
  5
121
330
1F
100
AcDbEntity
  8
Default
100
AcDbSpline
210
0.0
220
0.0
230
1.0
 70
     8
 71
     3
 72
     8
 73
     4
 74
     0
 42
0.0000000001
 43
0.0000000001
 40
0.0
 40
0.0
 40
0.0
 40
0.0
 40
1.0
 40
1.0
 40
1.0
 40
1.0
 10
-31.18134612671094
 20
55.07853816847762
 30
0.0
 10
-30.95445181317912
 20
55.18605898123334
 30
0.0
 10
-30.75860025398623
 20
55.35256102723307
 30
0.0
 10
-30.58730069140685
 20
55.53881755326663
 30
0.0
  0
SPLINE
  5
122
330
1F
100
AcDbEntity
  8
Default
100
AcDbSpline
210
0.0
220
0.0
230
1.0
 70
     8
 71
     3
 72
     8
 73
     4
 74
     0
 42
0.0000000001
 43
0.0000000001
 40
0.0
 40
0.0
 40
0.0
 40
0.0
 40
1.0
 40
1.0
 40
1.0
 40
1.0
 10
-30.58730069140685
 20
55.53881755326663
 30
0.0
 10
-30.41600112882748
 20
55.72479187244261
 30
0.0
 10
-30.26925356286163
 20
55.93052067165246
 30
0.0
 10
-30.14226047692964
 20
56.14781995202495
 30
0.0
  0
SPLINE
  5
123
330
1F
100
AcDbEntity
  8
Default
100
AcDbSpline
210
0.0
220
0.0
230
1.0
 70
     8
 71
     3
 72
     8
 73
     4
 74
     0
 42
0.0000000001
 43
0.0000000001
 40
0.0
 40
0.0
 40
0.0
 40
0.0
 40
1.0
 40
1.0
 40
1.0
 40
1.0
 10
-30.14226047692964
 20
56.14781995202495
 30
0.0
 10
-30.01498518414003
 20
56.36511923239743
 30
0.0
 10
-29.90746437138428
 20
56.59398899393267
 30
0.0
 10
-29.81828700437426
 20
56.82963172005091
 30
0.0
  0
LINE
  5
124
330
1F
100
AcDbEntity
  8
Default
100
AcDbLine
 10
-20.98557922957532
 20
8.40186256526033
 30
0.0
 11
-20.98557922957532
 21
6.183152250599704
 31
0.0
  0
LINE
  5
125
330
1F
100
AcDbEntity
  8
Default
100
AcDbLine
 10
-20.98557922957532
 20
6.183152250599704
 30
0.0
 11
-20.98557922957532
 21
0.999858896571169
 31
0.0
  0
SPLINE
  5
126
330
1F
100
AcDbEntity
  8
Default
100
AcDbSpline
210
0.0
220
0.0
230
1.0
 70
     8
 71
     3
 72
     8
 73
     4
 74
     0
 42
0.0000000001
 43
0.0000000001
 40
0.0
 40
0.0
 40
0.0
 40
0.0
 40
1.0
 40
1.0
 40
1.0
 40
1.0
 10
-20.98557922957532
 20
0.999858896571169
 30
0.0
 10
-20.98557922957532
 20
0.9089882884154008
 30
0.0
 10
-20.99094115987022
 20
0.8181176802596326
 30
0.0
 10
-21.00476929589393
 20
0.7280936926767367
 30
0.0
  0
SPLINE
  5
127
330
1F
100
AcDbEntity
  8
Default
100
AcDbSpline
210
0.0
220
0.0
230
1.0
 70
     8
 71
     3
 72
     8
 73
     4
 74
     0
 42
0.0000000001
 43
0.0000000001
 40
0.0
 40
0.0
 40
0.0
 40
0.0
 40
1.0
 40
1.0
 40
1.0
 40
1.0
 10
-21.00476929589393
 20
0.7280936926767367
 30
0.0
 10
-21.01831522506001
 20
0.6380697050938409
 30
0.0
 10
-21.04032735995488
 20
0.5494567517990561
 30
0.0
 10
-21.07532101030059
 20
0.4653591082263233
 30
0.0
  0
SPLINE
  5
128
330
1F
100
AcDbEntity
  8
Default
100
AcDbSpline
210
0.0
220
0.0
230
1.0
 70
     8
 71
     3
 72
     8
 73
     4
 74
     0
 42
0.0000000001
 43
0.0000000001
 40
0.0
 40
0.0
 40
0.0
 40
0.0
 40
1.0
 40
1.0
 40
1.0
 40
1.0
 10
-21.07532101030059
 20
0.4653591082263233
 30
0.0
 10
-21.11059686750392
 20
0.3812614646535621
 30
0.0
 10
-21.15857203330045
 20
0.3022435445181486
 30
0.0
 10
-21.22093974883594
 20
0.236489346691144
 30
0.0
  0
SPLINE
  5
129
330
1F
100
AcDbEntity
  8
Default
100
AcDbSpline
210
0.0
220
0.0
230
1.0
 70
     8
 71
     3
 72
     8
 73
     4
 74
     0
 42
0.0000000001
 43
0.0000000001
 40
0.0
 40
0.0
 40
0.0
 40
0.0
 40
1.0
 40
1.0
 40
1.0
 40
1.0
 10
-21.22093974883594
 20
0.236489346691144
 30
0.0
 10
-21.28358967122906
 20
0.1710173557217161
 30
0.0
 10
-21.36063214336112
 20
0.1188090870608107
 30
0.0
 10
-21.44360095950335
 20
0.0821221955693545
 30
0.0
  0
SPLINE
  5
12A
330
1F
100
AcDbEntity
  8
Default
100
AcDbSpline
210
0.0
220
0.0
230
1.0
 70
     8
 71
     3
 72
     8
 73
     4
 74
     0
 42
0.0000000001
 43
0.0000000001
 40
0.0
 40
0.0
 40
0.0
 40
0.0
 40
1.0
 40
1.0
 40
1.0
 40
1.0
 10
-21.44360095950335
 20
0.0821221955693545
 30
0.0
 10
-21.52685198250321
 20
0.0457175109355319
 30
0.0
 10
-21.61631155637086
 20
0.0245519966134964
 30
0.0
 10
-21.70831099195715
 20
0.0132637223084373
 30
0.0
  0
SPLINE
  5
12B
330
1F
100
AcDbEntity
  8
Default
100
AcDbSpline
210
0.0
220
0.0
230
1.0
 70
     8
 71
     3
 72
     8
 73
     4
 74
     0
 42
0.0000000001
 43
0.0000000001
 40
0.0
 40
0.0
 40
0.0
 40
0.0
 40
1.0
 40
1.0
 40
1.0
 40
1.0
 10
-21.70831099195715
 20
0.0132637223084373
 30
0.0
 10
-21.80031042754343
 20
0.0016932411457447
 30
0.0
 10
-21.89513193170598
 20
0.0
 30
0.0
 10
-21.98600253986175
 20
0.0
 30
0.0
  0
SPLINE
  5
12C
330
1F
100
AcDbEntity
  8
Default
100
AcDbSpline
210
0.0
220
0.0
230
1.0
 70
     8
 71
     3
 72
     8
 73
     4
 74
     0
 42
0.0000000001
 43
0.0000000001
 40
0.0
 40
0.0
 40
0.0
 40
0.0
 40
1.0
 40
1.0
 40
1.0
 40
1.0
 10
-21.98600253986175
 20
0.0
 30
0.0
 10
-22.07687314801754
 20
0.0
 30
0.0
 10
-22.17141244532246
 20
0.0016932411457447
 30
0.0
 10
-22.26341188090874
 20
0.0132637223084373
 30
0.0
  0
SPLINE
  5
12D
330
1F
100
AcDbEntity
  8
Default
100
AcDbSpline
210
0.0
220
0.0
230
1.0
 70
     8
 71
     3
 72
     8
 73
     4
 74
     0
 42
0.0000000001
 43
0.0000000001
 40
0.0
 40
0.0
 40
0.0
 40
0.0
 40
1.0
 40
1.0
 40
1.0
 40
1.0
 10
-22.26341188090874
 20
0.0132637223084373
 30
0.0
 10
-22.35541131649504
 20
0.02483420347113
 30
0.0
 10
-22.44487089036267
 20
0.0459997177931371
 30
0.0
 10
-22.5278397065049
 20
0.0824044024269881
 30
0.0
  0
SPLINE
  5
12E
330
1F
100
AcDbEntity
  8
Default
100
AcDbSpline
210
0.0
220
0.0
230
1.0
 70
     8
 71
     3
 72
     8
 73
     4
 74
     0
 42
0.0000000001
 43
0.0000000001
 40
0.0
 40
0.0
 40
0.0
 40
0.0
 40
1.0
 40
1.0
 40
1.0
 40
1.0
 10
-22.5278397065049
 20
0.0824044024269881
 30
0.0
 10
-22.61109072950476
 20
0.1190912939184443
 30
0.0
 10
-22.68785099477921
 20
0.1712995625793781
 30
0.0
 10
-22.7502187103147
 20
0.2370537604063827
 30
0.0
  0
SPLINE
  5
12F
330
1F
100
AcDbEntity
  8
Default
100
AcDbSpline
210
0.0
220
0.0
230
1.0
 70
     8
 71
     3
 72
     8
 73
     4
 74
     0
 42
0.0000000001
 43
0.0000000001
 40
0.0
 40
0.0
 40
0.0
 40
0.0
 40
1.0
 40
1.0
 40
1.0
 40
1.0
 10
-22.7502187103147
 20
0.2370537604063827
 30
0.0
 10
-22.81286863270781
 20
0.3025257513757538
 30
0.0
 10
-22.86084379850435
 20
0.3818258783688293
 30
0.0
 10
-22.89583744885005
 20
0.4656413150839853
 30
0.0
  0
SPLINE
  5
130
330
1F
100
AcDbEntity
  8
Default
100
AcDbSpline
210
0.0
220
0.0
230
1.0
 70
     8
 71
     3
 72
     8
 73
     4
 74
     0
 42
0.0000000001
 43
0.0000000001
 40
0.0
 40
0.0
 40
0.0
 40
0.0
 40
1.0
 40
1.0
 40
1.0
 40
1.0
 10
-22.89583744885005
 20
0.4656413150839853
 30
0.0
 10
-22.93083109919575
 20
0.5497389586567181
 30
0.0
 10
-22.952561027233
 20
0.6383519119514744
 30
0.0
 10
-22.96638916325671
 20
0.7283758995343419
 30
0.0
  0
SPLINE
  5
131
330
1F
100
AcDbEntity
  8
Default
100
AcDbSpline
210
0.0
220
0.0
230
1.0
 70
     8
 71
     3
 72
     8
 73
     4
 74
     0
 42
0.0000000001
 43
0.0000000001
 40
0.0
 40
0.0
 40
0.0
 40
0.0
 40
1.0
 40
1.0
 40
1.0
 40
1.0
 10
-22.96638916325671
 20
0.7283758995343419
 30
0.0
 10
-22.97993509242279
 20
0.8181176802596326
 30
0.0
 10
-22.98557922957532
 20
0.9089882884154008
 30
0.0
 10
-22.98557922957532
 20
0.999858896571169
 30
0.0
  0
LINE
  5
132
330
1F
100
AcDbEntity
  8
Default
100
AcDbLine
 10
-22.98557922957532
 20
0.999858896571169
 30
0.0
 11
-22.98557922957532
 21
8.40186256526033
 31
0.0
  0
LINE
  5
133
330
1F
100
AcDbEntity
  8
Default
100
AcDbLine
 10
-22.98557922957532
 20
8.40186256526033
 30
0.0
 11
-20.98557922957532
 21
8.40186256526033
 31
0.0
  0
SPLINE
  5
134
330
1F
100
AcDbEntity
  8
Default
100
AcDbSpline
210
0.0
220
0.0
230
1.0
 70
     8
 71
     3
 72
     8
 73
     4
 74
     0
 42
0.0000000001
 43
0.0000000001
 40
0.0
 40
0.0
 40
0.0
 40
0.0
 40
1.0
 40
1.0
 40
1.0
 40
1.0
 10
20.40143925497395
 20
74.98399887117273
 30
0.0
 10
21.20093128263024
 20
74.98399887117273
 30
0.0
 10
22.00098772400176
 20
74.84458868350521
 30
0.0
 10
22.75335120643438
 20
74.57395230704122
 30
0.0
  0
SPLINE
  5
135
330
1F
100
AcDbEntity
  8
Default
100
AcDbSpline
210
0.0
220
0.0
230
1.0
 70
     8
 71
     3
 72
     8
 73
     4
 74
     0
 42
0.0000000001
 43
0.0000000001
 40
0.0
 40
0.0
 40
0.0
 40
0.0
 40
1.0
 40
1.0
 40
1.0
 40
1.0
 10
22.75335120643438
 20
74.57395230704122
 30
0.0
 10
23.50599689572462
 20
74.3033159305773
 30
0.0
 10
24.2112318329336
 20
73.90173557217457
 30
0.0
 10
24.82785381684782
 20
73.39291660787376
 30
0.0
  0
SPLINE
  5
136
330
1F
100
AcDbEntity
  8
Default
100
AcDbSpline
210
0.0
220
0.0
230
1.0
 70
     8
 71
     3
 72
     8
 73
     4
 74
     0
 42
0.0000000001
 43
0.0000000001
 40
0.0
 40
0.0
 40
0.0
 40
0.0
 40
1.0
 40
1.0
 40
1.0
 40
1.0
 10
24.82785381684782
 20
73.39291660787376
 30
0.0
 10
25.44447580076202
 20
72.88381543671528
 30
0.0
 10
25.97248483138147
 20
72.26719345280105
 30
0.0
 10
26.38083815436721
 20
71.57973754762259
 30
0.0
  0
SPLINE
  5
137
330
1F
100
AcDbEntity
  8
Default
100
AcDbSpline
210
0.0
220
0.0
230
1.0
 70
     8
 71
     3
 72
     8
 73
     4
 74
     0
 42
0.0000000001
 43
0.0000000001
 40
0.0
 40
0.0
 40
0.0
 40
0.0
 40
1.0
 40
1.0
 40
1.0
 40
1.0
 10
26.38083815436721
 20
71.57973754762259
 30
0.0
 10
26.78919147735296
 20
70.89228164244412
 30
0.0
 10
27.07788909270502
 20
70.13370960914364
 30
0.0
 10
27.23056300268104
 20
69.348892338084
 30
0.0
  0
SPLINE
  5
138
330
1F
100
AcDbEntity
  8
Default
100
AcDbSpline
210
0.0
220
0.0
230
1.0
 70
     8
 71
     3
 72
     8
 73
     4
 74
     0
 42
0.0000000001
 43
0.0000000001
 40
0.0
 40
0.0
 40
0.0
 40
0.0
 40
1.0
 40
1.0
 40
1.0
 40
1.0
 10
27.23056300268104
 20
69.348892338084
 30
0.0
 10
28.15733032312692
 20
64.86547199096952
 30
0.0
 10
29.08381543671519
 20
60.38233385071268
 30
0.0
 10
30.01058275716109
 20
55.89891350359827
 30
0.0
  0
SPLINE
  5
139
330
1F
100
AcDbEntity
  8
Default
100
AcDbSpline
210
0.0
220
0.0
230
1.0
 70
     8
 71
     3
 72
     8
 73
     4
 74
     0
 42
0.0000000001
 43
0.0000000001
 40
0.0
 40
0.0
 40
0.0
 40
0.0
 40
1.0
 40
1.0
 40
1.0
 40
1.0
 10
30.01058275716109
 20
55.89891350359827
 30
0.0
 10
30.09214053901518
 20
55.51426555665316
 30
0.0
 10
30.07577254127284
 20
55.10873430224365
 30
0.0
 10
29.96514745308319
 20
54.73170594045448
 30
0.0
  0
SPLINE
  5
13A
330
1F
100
AcDbEntity
  8
Default
100
AcDbSpline
210
0.0
220
0.0
230
1.0
 70
     8
 71
     3
 72
     8
 73
     4
 74
     0
 42
0.0000000001
 43
0.0000000001
 40
0.0
 40
0.0
 40
0.0
 40
0.0
 40
1.0
 40
1.0
 40
1.0
 40
1.0
 10
29.96514745308319
 20
54.73170594045448
 30
0.0
 10
29.85452236489354
 20
54.3546775786653
 30
0.0
 10
29.64964018625661
 20
54.00643431635399
 30
0.0
 10
29.37392408635536
 20
53.72422745872734
 30
0.0
  0
SPLINE
  5
13B
330
1F
100
AcDbEntity
  8
Default
100
AcDbSpline
210
0.0
220
0.0
230
1.0
 70
     8
 71
     3
 72
     8
 73
     4
 74
     0
 42
0.0000000001
 43
0.0000000001
 40
0.0
 40
0.0
 40
0.0
 40
0.0
 40
1.0
 40
1.0
 40
1.0
 40
1.0
 10
29.37392408635536
 20
53.72422745872734
 30
0.0
 10
29.09820798645415
 20
53.44230280795836
 30
0.0
 10
28.75165796528863
 20
53.22697897558919
 30
0.0
 10
28.37688725836047
 20
53.11578947368432
 30
0.0
  0
SPLINE
  5
13C
330
1F
100
AcDbEntity
  8
Default
100
AcDbSpline
210
0.0
220
0.0
230
1.0
 70
     8
 71
     3
 72
     8
 73
     4
 74
     0
 42
0.0000000001
 43
0.0000000001
 40
0.0
 40
0.0
 40
0.0
 40
0.0
 40
1.0
 40
1.0
 40
1.0
 40
1.0
 10
28.37688725836047
 20
53.11578947368432
 30
0.0
 10
28.06956399040505
 20
53.02463665867089
 30
0.0
 10
27.74305065613102
 20
53.00375335120654
 30
0.0
 10
27.42020601100613
 20
53.00375335120654
 30
0.0
  0
SPLINE
  5
13D
330
1F
100
AcDbEntity
  8
Default
100
AcDbSpline
210
0.0
220
0.0
230
1.0
 70
     8
 71
     3
 72
     8
 73
     4
 74
     0
 42
0.0000000001
 43
0.0000000001
 40
0.0
 40
0.0
 40
0.0
 40
0.0
 40
1.0
 40
1.0
 40
1.0
 40
1.0
 10
27.42020601100613
 20
53.00375335120654
 30
0.0
 10
27.34937208974185
 20
53.00375335120654
 30
0.0
 10
27.27853816847754
 20
53.00459997177941
 30
0.0
 10
27.20798645407091
 20
53.00629321292516
 30
0.0
  0
LINE
  5
13E
330
1F
100
AcDbEntity
  8
Default
100
AcDbLine
 10
27.20798645407091
 20
53.00629321292516
 30
0.0
 11
-27.20798645407088
 21
53.00629321292516
 31
0.0
  0
SPLINE
  5
13F
330
1F
100
AcDbEntity
  8
Default
100
AcDbSpline
210
0.0
220
0.0
230
1.0
 70
     8
 71
     3
 72
     8
 73
     4
 74
     0
 42
0.0000000001
 43
0.0000000001
 40
0.0
 40
0.0
 40
0.0
 40
0.0
 40
1.0
 40
1.0
 40
1.0
 40
1.0
 10
-27.20798645407088
 20
53.00629321292516
 30
0.0
 10
-27.27853816847754
 20
53.00459997177941
 30
0.0
 10
-27.34937208974182
 20
53.00375335120654
 30
0.0
 10
-27.4202060110061
 20
53.00375335120654
 30
0.0
  0
SPLINE
  5
140
330
1F
100
AcDbEntity
  8
Default
100
AcDbSpline
210
0.0
220
0.0
230
1.0
 70
     8
 71
     3
 72
     8
 73
     4
 74
     0
 42
0.0000000001
 43
0.0000000001
 40
0.0
 40
0.0
 40
0.0
 40
0.0
 40
1.0
 40
1.0
 40
1.0
 40
1.0
 10
-27.4202060110061
 20
53.00375335120654
 30
0.0
 10
-27.74305065613098
 20
53.00375335120654
 30
0.0
 10
-28.06956399040501
 20
53.02463665867089
 30
0.0
 10
-28.37688725836042
 20
53.11578947368432
 30
0.0
  0
SPLINE
  5
141
330
1F
100
AcDbEntity
  8
Default
100
AcDbSpline
210
0.0
220
0.0
230
1.0
 70
     8
 71
     3
 72
     8
 73
     4
 74
     0
 42
0.0000000001
 43
0.0000000001
 40
0.0
 40
0.0
 40
0.0
 40
0.0
 40
1.0
 40
1.0
 40
1.0
 40
1.0
 10
-28.37688725836042
 20
53.11578947368432
 30
0.0
 10
-28.75194017214623
 20
53.22697897558919
 30
0.0
 10
-29.09820798645411
 20
53.44230280795836
 30
0.0
 10
-29.37392408635534
 20
53.72422745872734
 30
0.0
  0
SPLINE
  5
142
330
1F
100
AcDbEntity
  8
Default
100
AcDbSpline
210
0.0
220
0.0
230
1.0
 70
     8
 71
     3
 72
     8
 73
     4
 74
     0
 42
0.0000000001
 43
0.0000000001
 40
0.0
 40
0.0
 40
0.0
 40
0.0
 40
1.0
 40
1.0
 40
1.0
 40
1.0
 10
-29.37392408635534
 20
53.72422745872734
 30
0.0
 10
-29.64964018625657
 20
54.00643431635399
 30
0.0
 10
-29.85452236489351
 20
54.3546775786653
 30
0.0
 10
-29.96514745308315
 20
54.73170594045448
 30
0.0
  0
SPLINE
  5
143
330
1F
100
AcDbEntity
  8
Default
100
AcDbSpline
210
0.0
220
0.0
230
1.0
 70
     8
 71
     3
 72
     8
 73
     4
 74
     0
 42
0.0000000001
 43
0.0000000001
 40
0.0
 40
0.0
 40
0.0
 40
0.0
 40
1.0
 40
1.0
 40
1.0
 40
1.0
 10
-29.96514745308315
 20
54.73170594045448
 30
0.0
 10
-30.0757725412728
 20
55.10873430224365
 30
0.0
 10
-30.09214053901515
 20
55.51426555665316
 30
0.0
 10
-30.01058275716104
 20
55.89891350359827
 30
0.0
  0
SPLINE
  5
144
330
1F
100
AcDbEntity
  8
Default
100
AcDbSpline
210
0.0
220
0.0
230
1.0
 70
     8
 71
     3
 72
     8
 73
     4
 74
     0
 42
0.0000000001
 43
0.0000000001
 40
0.0
 40
0.0
 40
0.0
 40
0.0
 40
1.0
 40
1.0
 40
1.0
 40
1.0
 10
-30.01058275716104
 20
55.89891350359827
 30
0.0
 10
-29.08409764357279
 20
60.38233385071268
 30
0.0
 10
-28.1573303231269
 20
64.86547199096952
 30
0.0
 10
-27.230563002681
 20
69.348892338084
 30
0.0
  0
SPLINE
  5
145
330
1F
100
AcDbEntity
  8
Default
100
AcDbSpline
210
0.0
220
0.0
230
1.0
 70
     8
 71
     3
 72
     8
 73
     4
 74
     0
 42
0.0000000001
 43
0.0000000001
 40
0.0
 40
0.0
 40
0.0
 40
0.0
 40
1.0
 40
1.0
 40
1.0
 40
1.0
 10
-27.230563002681
 20
69.348892338084
 30
0.0
 10
-27.07817129956262
 20
70.13370960914364
 30
0.0
 10
-26.78919147735294
 20
70.89228164244412
 30
0.0
 10
-26.38083815436719
 20
71.57973754762259
 30
0.0
  0
SPLINE
  5
146
330
1F
100
AcDbEntity
  8
Default
100
AcDbSpline
210
0.0
220
0.0
230
1.0
 70
     8
 71
     3
 72
     8
 73
     4
 74
     0
 42
0.0000000001
 43
0.0000000001
 40
0.0
 40
0.0
 40
0.0
 40
0.0
 40
1.0
 40
1.0
 40
1.0
 40
1.0
 10
-26.38083815436719
 20
71.57973754762259
 30
0.0
 10
-25.97248483138144
 20
72.26719345280105
 30
0.0
 10
-25.444475800762
 20
72.88381543671528
 30
0.0
 10
-24.82785381684779
 20
73.39291660787376
 30
0.0
  0
SPLINE
  5
147
330
1F
100
AcDbEntity
  8
Default
100
AcDbSpline
210
0.0
220
0.0
230
1.0
 70
     8
 71
     3
 72
     8
 73
     4
 74
     0
 42
0.0000000001
 43
0.0000000001
 40
0.0
 40
0.0
 40
0.0
 40
0.0
 40
1.0
 40
1.0
 40
1.0
 40
1.0
 10
-24.82785381684779
 20
73.39291660787376
 30
0.0
 10
-24.21123183293357
 20
73.90173557217457
 30
0.0
 10
-23.5059968957246
 20
74.3033159305773
 30
0.0
 10
-22.75335120643435
 20
74.57395230704122
 30
0.0
  0
SPLINE
  5
148
330
1F
100
AcDbEntity
  8
Default
100
AcDbSpline
210
0.0
220
0.0
230
1.0
 70
     8
 71
     3
 72
     8
 73
     4
 74
     0
 42
0.0000000001
 43
0.0000000001
 40
0.0
 40
0.0
 40
0.0
 40
0.0
 40
1.0
 40
1.0
 40
1.0
 40
1.0
 10
-22.75335120643435
 20
74.57395230704122
 30
0.0
 10
-22.0007055171441
 20
74.84458868350521
 30
0.0
 10
-21.20093128263019
 20
74.98399887117273
 30
0.0
 10
-20.40143925497392
 20
74.98399887117273
 30
0.0
  0
LINE
  5
149
330
1F
100
AcDbEntity
  8
Default
100
AcDbLine
 10
-20.40143925497392
 20
74.98399887117273
 30
0.0
 11
20.40143925497395
 21
74.98399887117273
 31
0.0
  0
LINE
  5
14A
330
1F
100
AcDbEntity
  8
Default
100
AcDbLine
 10
37.52151827289411
 20
8.40186256526033
 30
0.0
 11
-37.52151827289411
 21
8.40186256526033
 31
0.0
  0
LINE
  5
14B
330
1F
100
AcDbEntity
  8
Default
100
AcDbLine
 10
-37.52151827289411
 20
8.40186256526033
 30
0.0
 11
-37.52151827289411
 21
10.80174968251731
 31
0.0
  0
LINE
  5
14C
330
1F
100
AcDbEntity
  8
Default
100
AcDbLine
 10
-37.52151827289411
 20
10.80174968251731
 30
0.0
 11
37.52151827289411
 21
10.80174968251731
 31
0.0
  0
LINE
  5
14D
330
1F
100
AcDbEntity
  8
Default
100
AcDbLine
 10
37.52151827289411
 20
10.80174968251731
 30
0.0
 11
37.52151827289411
 21
8.40186256526033
 31
0.0
  0
LINE
  5
14E
330
1F
100
AcDbEntity
  8
Default
100
AcDbLine
 10
22.98549456751804
 20
8.40186256526033
 30
0.0
 11
22.98549456751804
 21
6.183152250599704
 31
0.0
  0
LINE
  5
14F
330
1F
100
AcDbEntity
  8
Default
100
AcDbLine
 10
22.98549456751804
 20
6.183152250599704
 30
0.0
 11
22.98549456751804
 21
0.999858896571169
 31
0.0
  0
SPLINE
  5
150
330
1F
100
AcDbEntity
  8
Default
100
AcDbSpline
210
0.0
220
0.0
230
1.0
 70
     8
 71
     3
 72
     8
 73
     4
 74
     0
 42
0.0000000001
 43
0.0000000001
 40
0.0
 40
0.0
 40
0.0
 40
0.0
 40
1.0
 40
1.0
 40
1.0
 40
1.0
 10
22.98549456751804
 20
0.999858896571169
 30
0.0
 10
22.98549456751804
 20
0.9089882884154008
 30
0.0
 10
22.98013263722313
 20
0.8181176802596326
 30
0.0
 10
22.96630450119945
 20
0.7280936926767367
 30
0.0
  0
SPLINE
  5
151
330
1F
100
AcDbEntity
  8
Default
100
AcDbSpline
210
0.0
220
0.0
230
1.0
 70
     8
 71
     3
 72
     8
 73
     4
 74
     0
 42
0.0000000001
 43
0.0000000001
 40
0.0
 40
0.0
 40
0.0
 40
0.0
 40
1.0
 40
1.0
 40
1.0
 40
1.0
 10
22.96630450119945
 20
0.7280936926767367
 30
0.0
 10
22.95275857203335
 20
0.6380697050938409
 30
0.0
 10
22.93074643713846
 20
0.5494567517990561
 30
0.0
 10
22.89575278679279
 20
0.4653591082263233
 30
0.0
  0
SPLINE
  5
152
330
1F
100
AcDbEntity
  8
Default
100
AcDbSpline
210
0.0
220
0.0
230
1.0
 70
     8
 71
     3
 72
     8
 73
     4
 74
     0
 42
0.0000000001
 43
0.0000000001
 40
0.0
 40
0.0
 40
0.0
 40
0.0
 40
1.0
 40
1.0
 40
1.0
 40
1.0
 10
22.89575278679279
 20
0.4653591082263233
 30
0.0
 10
22.86047692958944
 20
0.3812614646535621
 30
0.0
 10
22.81250176379291
 20
0.3022435445181486
 30
0.0
 10
22.75013404825743
 20
0.236489346691144
 30
0.0
  0
SPLINE
  5
153
330
1F
100
AcDbEntity
  8
Default
100
AcDbSpline
210
0.0
220
0.0
230
1.0
 70
     8
 71
     3
 72
     8
 73
     4
 74
     0
 42
0.0000000001
 43
0.0000000001
 40
0.0
 40
0.0
 40
0.0
 40
0.0
 40
1.0
 40
1.0
 40
1.0
 40
1.0
 10
22.75013404825743
 20
0.236489346691144
 30
0.0
 10
22.68748412586432
 20
0.1710173557217161
 30
0.0
 10
22.61044165373223
 20
0.1188090870608107
 30
0.0
 10
22.52747283759001
 20
0.0821221955693545
 30
0.0
  0
SPLINE
  5
154
330
1F
100
AcDbEntity
  8
Default
100
AcDbSpline
210
0.0
220
0.0
230
1.0
 70
     8
 71
     3
 72
     8
 73
     4
 74
     0
 42
0.0000000001
 43
0.0000000001
 40
0.0
 40
0.0
 40
0.0
 40
0.0
 40
1.0
 40
1.0
 40
1.0
 40
1.0
 10
22.52747283759001
 20
0.0821221955693545
 30
0.0
 10
22.44422181459014
 20
0.0457175109355319
 30
0.0
 10
22.3547622407225
 20
0.0245519966134964
 30
0.0
 10
22.26276280513622
 20
0.0132637223084373
 30
0.0
  0
SPLINE
  5
155
330
1F
100
AcDbEntity
  8
Default
100
AcDbSpline
210
0.0
220
0.0
230
1.0
 70
     8
 71
     3
 72
     8
 73
     4
 74
     0
 42
0.0000000001
 43
0.0000000001
 40
0.0
 40
0.0
 40
0.0
 40
0.0
 40
1.0
 40
1.0
 40
1.0
 40
1.0
 10
22.26276280513622
 20
0.0132637223084373
 30
0.0
 10
22.17076336954992
 20
0.0016932411457447
 30
0.0
 10
22.07594186538738
 20
0.0
 30
0.0
 10
21.9850712572316
 20
0.0
 30
0.0
  0
SPLINE
  5
156
330
1F
100
AcDbEntity
  8
Default
100
AcDbSpline
210
0.0
220
0.0
230
1.0
 70
     8
 71
     3
 72
     8
 73
     4
 74
     0
 42
0.0000000001
 43
0.0000000001
 40
0.0
 40
0.0
 40
0.0
 40
0.0
 40
1.0
 40
1.0
 40
1.0
 40
1.0
 10
21.9850712572316
 20
0.0
 30
0.0
 10
21.8942006490758
 20
0.0
 30
0.0
 10
21.7996613517709
 20
0.0016932411457447
 30
0.0
 10
21.70766191618461
 20
0.0132637223084373
 30
0.0
  0
SPLINE
  5
157
330
1F
100
AcDbEntity
  8
Default
100
AcDbSpline
210
0.0
220
0.0
230
1.0
 70
     8
 71
     3
 72
     8
 73
     4
 74
     0
 42
0.0000000001
 43
0.0000000001
 40
0.0
 40
0.0
 40
0.0
 40
0.0
 40
1.0
 40
1.0
 40
1.0
 40
1.0
 10
21.70766191618461
 20
0.0132637223084373
 30
0.0
 10
21.61566248059832
 20
0.02483420347113
 30
0.0
 10
21.52620290673068
 20
0.0459997177931371
 30
0.0
 10
21.44323409058845
 20
0.0824044024269881
 30
0.0
  0
SPLINE
  5
158
330
1F
100
AcDbEntity
  8
Default
100
AcDbSpline
210
0.0
220
0.0
230
1.0
 70
     8
 71
     3
 72
     8
 73
     4
 74
     0
 42
0.0000000001
 43
0.0000000001
 40
0.0
 40
0.0
 40
0.0
 40
0.0
 40
1.0
 40
1.0
 40
1.0
 40
1.0
 10
21.44323409058845
 20
0.0824044024269881
 30
0.0
 10
21.3599830675886
 20
0.1190912939184443
 30
0.0
 10
21.28322280231416
 20
0.1712995625793781
 30
0.0
 10
21.22085508677866
 20
0.2370537604063827
 30
0.0
  0
SPLINE
  5
159
330
1F
100
AcDbEntity
  8
Default
100
AcDbSpline
210
0.0
220
0.0
230
1.0
 70
     8
 71
     3
 72
     8
 73
     4
 74
     0
 42
0.0000000001
 43
0.0000000001
 40
0.0
 40
0.0
 40
0.0
 40
0.0
 40
1.0
 40
1.0
 40
1.0
 40
1.0
 10
21.22085508677866
 20
0.2370537604063827
 30
0.0
 10
21.15820516438554
 20
0.3025257513757538
 30
0.0
 10
21.11022999858902
 20
0.3818258783688293
 30
0.0
 10
21.0752363482433
 20
0.4656413150839853
 30
0.0
  0
SPLINE
  5
15A
330
1F
100
AcDbEntity
  8
Default
100
AcDbSpline
210
0.0
220
0.0
230
1.0
 70
     8
 71
     3
 72
     8
 73
     4
 74
     0
 42
0.0000000001
 43
0.0000000001
 40
0.0
 40
0.0
 40
0.0
 40
0.0
 40
1.0
 40
1.0
 40
1.0
 40
1.0
 10
21.0752363482433
 20
0.4656413150839853
 30
0.0
 10
21.04024269789761
 20
0.5497389586567181
 30
0.0
 10
21.01851276986034
 20
0.6383519119514744
 30
0.0
 10
21.00468463383665
 20
0.7283758995343419
 30
0.0
  0
SPLINE
  5
15B
330
1F
100
AcDbEntity
  8
Default
100
AcDbSpline
210
0.0
220
0.0
230
1.0
 70
     8
 71
     3
 72
     8
 73
     4
 74
     0
 42
0.0000000001
 43
0.0000000001
 40
0.0
 40
0.0
 40
0.0
 40
0.0
 40
1.0
 40
1.0
 40
1.0
 40
1.0
 10
21.00468463383665
 20
0.7283758995343419
 30
0.0
 10
20.99113870467056
 20
0.8181176802596326
 30
0.0
 10
20.98549456751805
 20
0.9089882884154008
 30
0.0
 10
20.98549456751805
 20
0.999858896571169
 30
0.0
  0
LINE
  5
15C
330
1F
100
AcDbEntity
  8
Default
100
AcDbLine
 10
20.98549456751805
 20
0.999858896571169
 30
0.0
 11
20.98549456751805
 21
8.40186256526033
 31
0.0
  0
LINE
  5
15D
330
1F
100
AcDbEntity
  8
Default
100
AcDbLine
 10
20.98549456751805
 20
8.40186256526033
 30
0.0
 11
22.98549456751804
 21
8.40186256526033
 31
0.0
  0
SPLINE
  5
15E
330
1F
100
AcDbEntity
  8
Default
100
AcDbSpline
210
0.0
220
0.0
230
1.0
 70
     8
 71
     3
 72
     8
 73
     4
 74
     0
 42
0.0000000001
 43
0.0000000001
 40
0.0
 40
0.0
 40
0.0
 40
0.0
 40
1.0
 40
1.0
 40
1.0
 40
1.0
 10
-37.82415690701291
 20
30.16286157753638
 30
0.0
 10
-37.8103287709892
 20
30.16286157753638
 30
0.0
 10
-37.79678284182312
 20
30.1625793706788
 30
0.0
 10
-37.78295470579943
 20
30.16229716382114
 30
0.0
  0
SPLINE
  5
15F
330
1F
100
AcDbEntity
  8
Default
100
AcDbSpline
210
0.0
220
0.0
230
1.0
 70
     8
 71
     3
 72
     8
 73
     4
 74
     0
 42
0.0000000001
 43
0.0000000001
 40
0.0
 40
0.0
 40
0.0
 40
0.0
 40
1.0
 40
1.0
 40
1.0
 40
1.0
 10
-37.78295470579943
 20
30.16229716382114
 30
0.0
 10
-37.47704247213214
 20
30.15608861295331
 30
0.0
 10
-37.18044306476654
 20
30.07876393396364
 30
0.0
 10
-36.91403979116699
 20
29.94104698744184
 30
0.0
  0
SPLINE
  5
160
330
1F
100
AcDbEntity
  8
Default
100
AcDbSpline
210
0.0
220
0.0
230
1.0
 70
     8
 71
     3
 72
     8
 73
     4
 74
     0
 42
0.0000000001
 43
0.0000000001
 40
0.0
 40
0.0
 40
0.0
 40
0.0
 40
1.0
 40
1.0
 40
1.0
 40
1.0
 10
-36.91403979116699
 20
29.94104698744184
 30
0.0
 10
-36.64791872442507
 20
29.80304783406245
 30
0.0
 10
-36.41199379144919
 20
29.60493862000854
 30
0.0
 10
-36.20485395795124
 20
29.38340623677158
 30
0.0
  0
SPLINE
  5
161
330
1F
100
AcDbEntity
  8
Default
100
AcDbSpline
210
0.0
220
0.0
230
1.0
 70
     8
 71
     3
 72
     8
 73
     4
 74
     0
 42
0.0000000001
 43
0.0000000001
 40
0.0
 40
0.0
 40
0.0
 40
0.0
 40
1.0
 40
1.0
 40
1.0
 40
1.0
 10
-36.20485395795124
 20
29.38340623677158
 30
0.0
 10
-35.9977141244533
 20
29.16215606039233
 30
0.0
 10
-35.81935939043325
 20
28.91748271483002
 30
0.0
 10
-35.65963030901658
 20
28.66152109496267
 30
0.0
  0
SPLINE
  5
162
330
1F
100
AcDbEntity
  8
Default
100
AcDbSpline
210
0.0
220
0.0
230
1.0
 70
     8
 71
     3
 72
     8
 73
     4
 74
     0
 42
0.0000000001
 43
0.0000000001
 40
0.0
 40
0.0
 40
0.0
 40
0.0
 40
1.0
 40
1.0
 40
1.0
 40
1.0
 10
-35.65963030901658
 20
28.66152109496267
 30
0.0
 10
-35.50018343445751
 20
28.40527726823768
 30
0.0
 10
-35.35936221250182
 20
28.13746296034998
 30
0.0
 10
-35.22079864540716
 20
27.86908423874706
 30
0.0
  0
SPLINE
  5
163
330
1F
100
AcDbEntity
  8
Default
100
AcDbSpline
210
0.0
220
0.0
230
1.0
 70
     8
 71
     3
 72
     8
 73
     4
 74
     0
 42
0.0000000001
 43
0.0000000001
 40
0.0
 40
0.0
 40
0.0
 40
0.0
 40
1.0
 40
1.0
 40
1.0
 40
1.0
 10
-35.22079864540716
 20
27.86908423874706
 30
0.0
 10
-35.08223507831246
 20
27.60042331028646
 30
0.0
 10
-34.9459291660788
 20
27.33119796811067
 30
0.0
 10
-34.80905884012988
 20
27.06169041907719
 30
0.0
  0
SPLINE
  5
164
330
1F
100
AcDbEntity
  8
Default
100
AcDbSpline
210
0.0
220
0.0
230
1.0
 70
     8
 71
     3
 72
     8
 73
     4
 74
     0
 42
0.0000000001
 43
0.0000000001
 40
0.0
 40
0.0
 40
0.0
 40
0.0
 40
1.0
 40
1.0
 40
1.0
 40
1.0
 10
-34.80905884012988
 20
27.06169041907719
 30
0.0
 10
-34.67247072103858
 20
26.79246507690141
 30
0.0
 10
-34.53560039508966
 20
26.52323973472559
 30
0.0
 10
-34.40126993085939
 20
26.25260335826164
 30
0.0
  0
SPLINE
  5
165
330
1F
100
AcDbEntity
  8
Default
100
AcDbSpline
210
0.0
220
0.0
230
1.0
 70
     8
 71
     3
 72
     8
 73
     4
 74
     0
 42
0.0000000001
 43
0.0000000001
 40
0.0
 40
0.0
 40
0.0
 40
0.0
 40
1.0
 40
1.0
 40
1.0
 40
1.0
 10
-34.40126993085939
 20
26.25260335826164
 30
0.0
 10
-34.2669394666291
 20
25.98224918865535
 30
0.0
 10
-34.13514886411745
 20
25.71020177790322
 30
0.0
 10
-34.00561591646682
 20
25.43730774657828
 30
0.0
  0
SPLINE
  5
166
330
1F
100
AcDbEntity
  8
Default
100
AcDbSpline
210
0.0
220
0.0
230
1.0
 70
     8
 71
     3
 72
     8
 73
     4
 74
     0
 42
0.0000000001
 43
0.0000000001
 40
0.0
 40
0.0
 40
0.0
 40
0.0
 40
1.0
 40
1.0
 40
1.0
 40
1.0
 10
-34.00561591646682
 20
25.43730774657828
 30
0.0
 10
-33.87636517567383
 20
25.16441371525335
 30
0.0
 10
-33.74965429659947
 20
24.89010864964024
 30
0.0
 10
-33.62463665867087
 20
24.61523917031187
 30
0.0
  0
SPLINE
  5
167
330
1F
100
AcDbEntity
  8
Default
100
AcDbSpline
210
0.0
220
0.0
230
1.0
 70
     8
 71
     3
 72
     8
 73
     4
 74
     0
 42
0.0000000001
 43
0.0000000001
 40
0.0
 40
0.0
 40
0.0
 40
0.0
 40
1.0
 40
1.0
 40
1.0
 40
1.0
 10
-33.62463665867087
 20
24.61523917031187
 30
0.0
 10
-33.49933681388464
 20
24.34036969098352
 30
0.0
 10
-33.37601241710179
 20
24.0646535910823
 30
0.0
 10
-33.25381684774946
 20
23.78837307746582
 30
0.0
  0
SPLINE
  5
168
330
1F
100
AcDbEntity
  8
Default
100
AcDbSpline
210
0.0
220
0.0
230
1.0
 70
     8
 71
     3
 72
     8
 73
     4
 74
     0
 42
0.0000000001
 43
0.0000000001
 40
0.0
 40
0.0
 40
0.0
 40
0.0
 40
1.0
 40
1.0
 40
1.0
 40
1.0
 10
-33.25381684774946
 20
23.78837307746582
 30
0.0
 10
-33.13190348525475
 20
23.51209256384931
 30
0.0
 10
-33.01140115704817
 20
23.23524763651758
 30
0.0
 10
-32.89230986312973
 20
22.95755608861296
 30
0.0
  0
SPLINE
  5
169
330
1F
100
AcDbEntity
  8
Default
100
AcDbSpline
210
0.0
220
0.0
230
1.0
 70
     8
 71
     3
 72
     8
 73
     4
 74
     0
 42
0.0000000001
 43
0.0000000001
 40
0.0
 40
0.0
 40
0.0
 40
0.0
 40
1.0
 40
1.0
 40
1.0
 40
1.0
 10
-32.89230986312973
 20
22.95755608861296
 30
0.0
 10
-32.77321856921129
 20
22.680146747566
 30
0.0
 10
-32.65553830958098
 20
22.40189078594611
 30
0.0
 10
-32.5392690842388
 20
22.12307041061104
 30
0.0
  0
SPLINE
  5
16A
330
1F
100
AcDbEntity
  8
Default
100
AcDbSpline
210
0.0
220
0.0
230
1.0
 70
     8
 71
     3
 72
     8
 73
     4
 74
     0
 42
0.0000000001
 43
0.0000000001
 40
0.0
 40
0.0
 40
0.0
 40
0.0
 40
1.0
 40
1.0
 40
1.0
 40
1.0
 10
-32.5392690842388
 20
22.12307041061104
 30
0.0
 10
-32.42328206575425
 20
21.84425003527588
 30
0.0
 10
-32.30842387470021
 20
21.56486524622554
 30
0.0
 10
-32.19525892479193
 20
21.28463383660224
 30
0.0
  0
SPLINE
  5
16B
330
1F
100
AcDbEntity
  8
Default
100
AcDbSpline
210
0.0
220
0.0
230
1.0
 70
     8
 71
     3
 72
     8
 73
     4
 74
     0
 42
0.0000000001
 43
0.0000000001
 40
0.0
 40
0.0
 40
0.0
 40
0.0
 40
1.0
 40
1.0
 40
1.0
 40
1.0
 10
-32.19525892479193
 20
21.28463383660224
 30
0.0
 10
-32.08209397488365
 20
21.00468463383663
 30
0.0
 10
-31.9703400592635
 20
20.72388881049812
 30
0.0
 10
-31.86027938478911
 20
20.44281078030198
 30
0.0
  0
SPLINE
  5
16C
330
1F
100
AcDbEntity
  8
Default
100
AcDbSpline
210
0.0
220
0.0
230
1.0
 70
     8
 71
     3
 72
     8
 73
     4
 74
     0
 42
0.0000000001
 43
0.0000000001
 40
0.0
 40
0.0
 40
0.0
 40
0.0
 40
1.0
 40
1.0
 40
1.0
 40
1.0
 10
-31.86027938478911
 20
20.44281078030198
 30
0.0
 10
-31.75021871031472
 20
20.16145054324824
 30
0.0
 10
-31.64156907012845
 20
19.87952589247922
 30
0.0
 10
-31.53433046423033
 20
19.59731903485257
 30
0.0
  0
SPLINE
  5
16D
330
1F
100
AcDbEntity
  8
Default
100
AcDbSpline
210
0.0
220
0.0
230
1.0
 70
     8
 71
     3
 72
     8
 73
     4
 74
     0
 42
0.0000000001
 43
0.0000000001
 40
0.0
 40
0.0
 40
0.0
 40
0.0
 40
1.0
 40
1.0
 40
1.0
 40
1.0
 10
-31.53433046423033
 20
19.59731903485257
 30
0.0
 10
-31.42709185833221
 20
19.31482997036829
 30
0.0
 10
-31.32154649357985
 20
19.0317764921688
 30
0.0
 10
-31.21712995625798
 20
18.74844080711162
 30
0.0
  0
SPLINE
  5
16E
330
1F
100
AcDbEntity
  8
Default
100
AcDbSpline
210
0.0
220
0.0
230
1.0
 70
     8
 71
     3
 72
     8
 73
     4
 74
     0
 42
0.0000000001
 43
0.0000000001
 40
0.0
 40
0.0
 40
0.0
 40
0.0
 40
1.0
 40
1.0
 40
1.0
 40
1.0
 10
-31.21712995625798
 20
18.74844080711162
 30
0.0
 10
-31.11299562579376
 20
18.46482291519686
 30
0.0
 10
-31.01027232961766
 20
18.18092281642447
 30
0.0
 10
-30.90924227458733
 20
17.89617609707918
 30
0.0
  0
SPLINE
  5
16F
330
1F
100
AcDbEntity
  8
Default
100
AcDbSpline
210
0.0
220
0.0
230
1.0
 70
     8
 71
     3
 72
     8
 73
     4
 74
     0
 42
0.0000000001
 43
0.0000000001
 40
0.0
 40
0.0
 40
0.0
 40
0.0
 40
1.0
 40
1.0
 40
1.0
 40
1.0
 10
-30.90924227458733
 20
17.89617609707918
 30
0.0
 10
-30.80849442641461
 20
17.61142937773391
 30
0.0
 10
-30.70943981938766
 20
17.32611824467338
 30
0.0
 10
-30.61292507407935
 20
17.03996049103992
 30
0.0
  0
SPLINE
  5
170
330
1F
100
AcDbEntity
  8
Default
100
AcDbSpline
210
0.0
220
0.0
230
1.0
 70
     8
 71
     3
 72
     8
 73
     4
 74
     0
 42
0.0000000001
 43
0.0000000001
 40
0.0
 40
0.0
 40
0.0
 40
0.0
 40
1.0
 40
1.0
 40
1.0
 40
1.0
 10
-30.61292507407935
 20
17.03996049103992
 30
0.0
 10
-30.51612812191341
 20
16.75380273740655
 30
0.0
 10
-30.42187103146612
 20
16.46679836320027
 30
0.0
 10
-30.32987159587983
 20
16.17922957527873
 30
0.0
  0
SPLINE
  5
171
330
1F
100
AcDbEntity
  8
Default
100
AcDbSpline
210
0.0
220
0.0
230
1.0
 70
     8
 71
     3
 72
     8
 73
     4
 74
     0
 42
0.0000000001
 43
0.0000000001
 40
0.0
 40
0.0
 40
0.0
 40
0.0
 40
1.0
 40
1.0
 40
1.0
 40
1.0
 10
-30.32987159587983
 20
16.17922957527873
 30
0.0
 10
-30.23787216029354
 20
15.89137858049952
 30
0.0
 10
-30.1484125864259
 20
15.6029631720051
 30
0.0
 10
-30.06149287427689
 20
15.31370114293779
 30
0.0
  0
SPLINE
  5
172
330
1F
100
AcDbEntity
  8
Default
100
AcDbSpline
210
0.0
220
0.0
230
1.0
 70
     8
 71
     3
 72
     8
 73
     4
 74
     0
 42
0.0000000001
 43
0.0000000001
 40
0.0
 40
0.0
 40
0.0
 40
0.0
 40
1.0
 40
1.0
 40
1.0
 40
1.0
 10
-30.06149287427689
 20
15.31370114293779
 30
0.0
 10
-29.97485536898552
 20
15.02415690701284
 30
0.0
 10
-29.89075772541278
 20
14.73404825737268
 30
0.0
 10
-29.81823056300274
 20
14.44083533229858
 30
0.0
  0
SPLINE
  5
173
330
1F
100
AcDbEntity
  8
Default
100
AcDbSpline
210
0.0
220
0.0
230
1.0
 70
     8
 71
     3
 72
     8
 73
     4
 74
     0
 42
0.0000000001
 43
0.0000000001
 40
0.0
 40
0.0
 40
0.0
 40
0.0
 40
1.0
 40
1.0
 40
1.0
 40
1.0
 10
-29.81823056300274
 20
14.44083533229858
 30
0.0
 10
-29.74570340059269
 20
14.14762240722453
 30
0.0
 10
-29.68474671934534
 20
13.85130520671655
 30
0.0
 10
-29.64467334556235
 20
13.55188373077468
 30
0.0
  0
SPLINE
  5
174
330
1F
100
AcDbEntity
  8
Default
100
AcDbSpline
210
0.0
220
0.0
230
1.0
 70
     8
 71
     3
 72
     8
 73
     4
 74
     0
 42
0.0000000001
 43
0.0000000001
 40
0.0
 40
0.0
 40
0.0
 40
0.0
 40
1.0
 40
1.0
 40
1.0
 40
1.0
 10
-29.64467334556235
 20
13.55188373077468
 30
0.0
 10
-29.60431776492174
 20
13.25274446169041
 30
0.0
 10
-29.5848454917455
 20
12.95050091717229
 30
0.0
 10
-29.58794976717939
 20
12.64853957951181
 30
0.0
  0
SPLINE
  5
175
330
1F
100
AcDbEntity
  8
Default
100
AcDbSpline
210
0.0
220
0.0
230
1.0
 70
     8
 71
     3
 72
     8
 73
     4
 74
     0
 42
0.0000000001
 43
0.0000000001
 40
0.0
 40
0.0
 40
0.0
 40
0.0
 40
1.0
 40
1.0
 40
1.0
 40
1.0
 10
-29.58794976717939
 20
12.64853957951181
 30
0.0
 10
-29.59105404261328
 20
12.34657824185126
 30
0.0
 10
-29.61701707351494
 20
12.0446169041908
 30
0.0
 10
-29.70309016509107
 20
11.75196839283194
 30
0.0
  0
SPLINE
  5
176
330
1F
100
AcDbEntity
  8
Default
100
AcDbSpline
210
0.0
220
0.0
230
1.0
 70
     8
 71
     3
 72
     8
 73
     4
 74
     0
 42
0.0000000001
 43
0.0000000001
 40
0.0
 40
0.0
 40
0.0
 40
0.0
 40
1.0
 40
1.0
 40
1.0
 40
1.0
 10
-29.70309016509107
 20
11.75196839283194
 30
0.0
 10
-29.78916325666718
 20
11.45903767461553
 30
0.0
 10
-29.93562861577541
 20
11.17513757584308
 30
0.0
 10
-30.16732044588689
 20
10.99339635953154
 30
0.0
  0
SPLINE
  5
177
330
1F
100
AcDbEntity
  8
Default
100
AcDbSpline
210
0.0
220
0.0
230
1.0
 70
     8
 71
     3
 72
     8
 73
     4
 74
     0
 42
0.0000000001
 43
0.0000000001
 40
0.0
 40
0.0
 40
0.0
 40
0.0
 40
1.0
 40
1.0
 40
1.0
 40
1.0
 10
-30.16732044588689
 20
10.99339635953154
 30
0.0
 10
-30.38433751940178
 20
10.82322562438267
 30
0.0
 10
-30.67613941018772
 20
10.74279666995909
 30
0.0
 10
-30.96229716382113
 20
10.74279666995909
 30
0.0
  0
SPLINE
  5
178
330
1F
100
AcDbEntity
  8
Default
100
AcDbSpline
210
0.0
220
0.0
230
1.0
 70
     8
 71
     3
 72
     8
 73
     4
 74
     0
 42
0.0000000001
 43
0.0000000001
 40
0.0
 40
0.0
 40
0.0
 40
0.0
 40
1.0
 40
1.0
 40
1.0
 40
1.0
 10
-30.96229716382113
 20
10.74279666995909
 30
0.0
 10
-30.98176943699737
 20
10.74279666995909
 30
0.0
 10
-31.00095950331599
 20
10.74307887681672
 30
0.0
 10
-31.02043177649222
 20
10.74364329053199
 30
0.0
  0
SPLINE
  5
179
330
1F
100
AcDbEntity
  8
Default
100
AcDbSpline
210
0.0
220
0.0
230
1.0
 70
     8
 71
     3
 72
     8
 73
     4
 74
     0
 42
0.0000000001
 43
0.0000000001
 40
0.0
 40
0.0
 40
0.0
 40
0.0
 40
1.0
 40
1.0
 40
1.0
 40
1.0
 10
-31.02043177649222
 20
10.74364329053199
 30
0.0
 10
-31.32465076901374
 20
10.75549597855229
 30
0.0
 10
-31.61588824608444
 20
10.85821927472841
 30
0.0
 10
-31.87580076195857
 20
11.01145759841964
 30
0.0
  0
SPLINE
  5
17A
330
1F
100
AcDbEntity
  8
Default
100
AcDbSpline
210
0.0
220
0.0
230
1.0
 70
     8
 71
     3
 72
     8
 73
     4
 74
     0
 42
0.0000000001
 43
0.0000000001
 40
0.0
 40
0.0
 40
0.0
 40
0.0
 40
1.0
 40
1.0
 40
1.0
 40
1.0
 10
-31.87580076195857
 20
11.01145759841964
 30
0.0
 10
-32.13571327783271
 20
11.16497812896853
 30
0.0
 10
-32.36401862565266
 20
11.36873148017497
 30
0.0
 10
-32.56438549456757
 20
11.59534358684917
 30
0.0
  0
SPLINE
  5
17B
330
1F
100
AcDbEntity
  8
Default
100
AcDbSpline
210
0.0
220
0.0
230
1.0
 70
     8
 71
     3
 72
     8
 73
     4
 74
     0
 42
0.0000000001
 43
0.0000000001
 40
0.0
 40
0.0
 40
0.0
 40
0.0
 40
1.0
 40
1.0
 40
1.0
 40
1.0
 10
-32.56438549456757
 20
11.59534358684917
 30
0.0
 10
-32.76475236348249
 20
11.82167348666573
 30
0.0
 10
-32.93746296035
 20
12.07086214195007
 30
0.0
 10
-33.09070128404126
 20
12.33105686468184
 30
0.0
  0
SPLINE
  5
17C
330
1F
100
AcDbEntity
  8
Default
100
AcDbSpline
210
0.0
220
0.0
230
1.0
 70
     8
 71
     3
 72
     8
 73
     4
 74
     0
 42
0.0000000001
 43
0.0000000001
 40
0.0
 40
0.0
 40
0.0
 40
0.0
 40
1.0
 40
1.0
 40
1.0
 40
1.0
 10
-33.09070128404126
 20
12.33105686468184
 30
0.0
 10
-33.24393960773253
 20
12.59125158741361
 30
0.0
 10
-33.37770565824755
 20
12.8624523775928
 30
0.0
 10
-33.50582757161006
 20
13.13619302949064
 30
0.0
  0
SPLINE
  5
17D
330
1F
100
AcDbEntity
  8
Default
100
AcDbSpline
210
0.0
220
0.0
230
1.0
 70
     8
 71
     3
 72
     8
 73
     4
 74
     0
 42
0.0000000001
 43
0.0000000001
 40
0.0
 40
0.0
 40
0.0
 40
0.0
 40
1.0
 40
1.0
 40
1.0
 40
1.0
 10
-33.50582757161006
 20
13.13619302949064
 30
0.0
 10
-33.63394948497255
 20
13.40993368138845
 30
0.0
 10
-33.75614505432488
 20
13.68593198814733
 30
0.0
 10
-33.88088048539585
 20
13.96108367433331
 30
0.0
  0
SPLINE
  5
17E
330
1F
100
AcDbEntity
  8
Default
100
AcDbSpline
210
0.0
220
0.0
230
1.0
 70
     8
 71
     3
 72
     8
 73
     4
 74
     0
 42
0.0000000001
 43
0.0000000001
 40
0.0
 40
0.0
 40
0.0
 40
0.0
 40
1.0
 40
1.0
 40
1.0
 40
1.0
 10
-33.88088048539585
 20
13.96108367433331
 30
0.0
 10
-34.00561591646682
 20
14.23623536051926
 30
0.0
 10
-34.13289120925644
 20
14.50997601241713
 30
0.0
 10
-34.2584732609003
 20
14.78484549174547
 30
0.0
  0
SPLINE
  5
17F
330
1F
100
AcDbEntity
  8
Default
100
AcDbSpline
210
0.0
220
0.0
230
1.0
 70
     8
 71
     3
 72
     8
 73
     4
 74
     0
 42
0.0000000001
 43
0.0000000001
 40
0.0
 40
0.0
 40
0.0
 40
0.0
 40
1.0
 40
1.0
 40
1.0
 40
1.0
 10
-34.2584732609003
 20
14.78484549174547
 30
0.0
 10
-34.38377310568653
 20
15.05971497107382
 30
0.0
 10
-34.507379709327
 20
15.33543107097503
 30
0.0
 10
-34.62957527867933
 20
15.61142937773388
 30
0.0
  0
SPLINE
  5
180
330
1F
100
AcDbEntity
  8
Default
100
AcDbSpline
210
0.0
220
0.0
230
1.0
 70
     8
 71
     3
 72
     8
 73
     4
 74
     0
 42
0.0000000001
 43
0.0000000001
 40
0.0
 40
0.0
 40
0.0
 40
0.0
 40
1.0
 40
1.0
 40
1.0
 40
1.0
 10
-34.62957527867933
 20
15.61142937773388
 30
0.0
 10
-34.75177084803167
 20
15.88770989135037
 30
0.0
 10
-34.87311979681112
 20
16.16427261182452
 30
0.0
 10
-34.99333991816007
 20
16.44139974601384
 30
0.0
  0
SPLINE
  5
181
330
1F
100
AcDbEntity
  8
Default
100
AcDbSpline
210
0.0
220
0.0
230
1.0
 70
     8
 71
     3
 72
     8
 73
     4
 74
     0
 42
0.0000000001
 43
0.0000000001
 40
0.0
 40
0.0
 40
0.0
 40
0.0
 40
1.0
 40
1.0
 40
1.0
 40
1.0
 10
-34.99333991816007
 20
16.44139974601384
 30
0.0
 10
-35.11384224636666
 20
16.71824467334557
 30
0.0
 10
-35.23378016085798
 20
16.99565401439258
 30
0.0
 10
-35.35258924791879
 20
17.27334556229715
 30
0.0
  0
SPLINE
  5
182
330
1F
100
AcDbEntity
  8
Default
100
AcDbSpline
210
0.0
220
0.0
230
1.0
 70
     8
 71
     3
 72
     8
 73
     4
 74
     0
 42
0.0000000001
 43
0.0000000001
 40
0.0
 40
0.0
 40
0.0
 40
0.0
 40
1.0
 40
1.0
 40
1.0
 40
1.0
 10
-35.35258924791879
 20
17.27334556229715
 30
0.0
 10
-35.47139833497961
 20
17.5510371102018
 30
0.0
 10
-35.58936080146754
 20
17.82901086496406
 30
0.0
 10
-35.70675885424022
 20
18.10726682658392
 30
0.0
  0
SPLINE
  5
183
330
1F
100
AcDbEntity
  8
Default
100
AcDbSpline
210
0.0
220
0.0
230
1.0
 70
     8
 71
     3
 72
     8
 73
     4
 74
     0
 42
0.0000000001
 43
0.0000000001
 40
0.0
 40
0.0
 40
0.0
 40
0.0
 40
1.0
 40
1.0
 40
1.0
 40
1.0
 10
-35.70675885424022
 20
18.10726682658392
 30
0.0
 10
-35.82387470015527
 20
18.38580499506142
 30
0.0
 10
-35.94042613235509
 20
18.66434316353889
 30
0.0
 10
-36.056130943982
 20
18.94344574573165
 30
0.0
  0
SPLINE
  5
184
330
1F
100
AcDbEntity
  8
Default
100
AcDbSpline
210
0.0
220
0.0
230
1.0
 70
     8
 71
     3
 72
     8
 73
     4
 74
     0
 42
0.0000000001
 43
0.0000000001
 40
0.0
 40
0.0
 40
0.0
 40
0.0
 40
1.0
 40
1.0
 40
1.0
 40
1.0
 10
-36.056130943982
 20
18.94344574573165
 30
0.0
 10
-36.17183575560892
 20
19.22254832792439
 30
0.0
 10
-36.28669394666296
 20
19.50165091011715
 30
0.0
 10
-36.40098772400175
 20
19.78131790602512
 30
0.0
  0
SPLINE
  5
185
330
1F
100
AcDbEntity
  8
Default
100
AcDbSpline
210
0.0
220
0.0
230
1.0
 70
     8
 71
     3
 72
     8
 73
     4
 74
     0
 42
0.0000000001
 43
0.0000000001
 40
0.0
 40
0.0
 40
0.0
 40
0.0
 40
1.0
 40
1.0
 40
1.0
 40
1.0
 10
-36.40098772400175
 20
19.78131790602512
 30
0.0
 10
-36.51528150134055
 20
20.06098490193318
 30
0.0
 10
-36.62872865810646
 20
20.34093410469876
 30
0.0
 10
-36.7413291942995
 20
20.62116551432203
 30
0.0
  0
SPLINE
  5
186
330
1F
100
AcDbEntity
  8
Default
100
AcDbSpline
210
0.0
220
0.0
230
1.0
 70
     8
 71
     3
 72
     8
 73
     4
 74
     0
 42
0.0000000001
 43
0.0000000001
 40
0.0
 40
0.0
 40
0.0
 40
0.0
 40
1.0
 40
1.0
 40
1.0
 40
1.0
 10
-36.7413291942995
 20
20.62116551432203
 30
0.0
 10
-36.85421193735014
 20
20.90139692394527
 30
0.0
 10
-36.96596585297029
 20
21.18191054042614
 30
0.0
 10
-37.07715535487519
 20
21.46270636376468
 30
0.0
  0
SPLINE
  5
187
330
1F
100
AcDbEntity
  8
Default
100
AcDbSpline
210
0.0
220
0.0
230
1.0
 70
     8
 71
     3
 72
     8
 73
     4
 74
     0
 42
0.0000000001
 43
0.0000000001
 40
0.0
 40
0.0
 40
0.0
 40
0.0
 40
1.0
 40
1.0
 40
1.0
 40
1.0
 10
-37.07715535487519
 20
21.46270636376468
 30
0.0
 10
-37.18806264992246
 20
21.74378439396079
 30
0.0
 10
-37.29840553125447
 20
22.02486242415694
 30
0.0
 10
-37.40761958515598
 20
22.30650486806834
 30
0.0
  0
SPLINE
  5
188
330
1F
100
AcDbEntity
  8
Default
100
AcDbSpline
210
0.0
220
0.0
230
1.0
 70
     8
 71
     3
 72
     8
 73
     4
 74
     0
 42
0.0000000001
 43
0.0000000001
 40
0.0
 40
0.0
 40
0.0
 40
0.0
 40
1.0
 40
1.0
 40
1.0
 40
1.0
 10
-37.40761958515598
 20
22.30650486806834
 30
0.0
 10
-37.51711584591513
 20
22.58814731197972
 30
0.0
 10
-37.62548327924375
 20
22.87007196274874
 30
0.0
 10
-37.7330040919995
 20
23.15227882037539
 30
0.0
  0
SPLINE
  5
189
330
1F
100
AcDbEntity
  8
Default
100
AcDbSpline
210
0.0
220
0.0
230
1.0
 70
     8
 71
     3
 72
     8
 73
     4
 74
     0
 42
0.0000000001
 43
0.0000000001
 40
0.0
 40
0.0
 40
0.0
 40
0.0
 40
1.0
 40
1.0
 40
1.0
 40
1.0
 10
-37.7330040919995
 20
23.15227882037539
 30
0.0
 10
-37.84024269789762
 20
23.43448567800203
 30
0.0
 10
-37.9469168900805
 20
23.71725694934389
 30
0.0
 10
-38.05274446169049
 20
24.00002822068581
 30
0.0
  0
SPLINE
  5
18A
330
1F
100
AcDbEntity
  8
Default
100
AcDbSpline
210
0.0
220
0.0
230
1.0
 70
     8
 71
     3
 72
     8
 73
     4
 74
     0
 42
0.0000000001
 43
0.0000000001
 40
0.0
 40
0.0
 40
0.0
 40
0.0
 40
1.0
 40
1.0
 40
1.0
 40
1.0
 10
-38.05274446169049
 20
24.00002822068581
 30
0.0
 10
-38.15857203330049
 20
24.28308169888533
 30
0.0
 10
-38.26355298433758
 20
24.56613517708485
 30
0.0
 10
-38.36599407365605
 20
24.85031748271484
 30
0.0
  0
SPLINE
  5
18B
330
1F
100
AcDbEntity
  8
Default
100
AcDbSpline
210
0.0
220
0.0
230
1.0
 70
     8
 71
     3
 72
     8
 73
     4
 74
     0
 42
0.0000000001
 43
0.0000000001
 40
0.0
 40
0.0
 40
0.0
 40
0.0
 40
1.0
 40
1.0
 40
1.0
 40
1.0
 10
-38.36599407365605
 20
24.85031748271484
 30
0.0
 10
-38.46871736983216
 20
25.1344997883449
 30
0.0
 10
-38.56890080428961
 20
25.41952871454779
 30
0.0
 10
-38.6704952730352
 20
25.70399322703543
 30
0.0
  0
SPLINE
  5
18C
330
1F
100
AcDbEntity
  8
Default
100
AcDbSpline
210
0.0
220
0.0
230
1.0
 70
     8
 71
     3
 72
     8
 73
     4
 74
     0
 42
0.0000000001
 43
0.0000000001
 40
0.0
 40
0.0
 40
0.0
 40
0.0
 40
1.0
 40
1.0
 40
1.0
 40
1.0
 10
-38.6704952730352
 20
25.70399322703543
 30
0.0
 10
-38.77180753492317
 20
25.98845773952311
 30
0.0
 10
-38.87424862424164
 20
26.27235783829551
 30
0.0
 10
-38.9724566106957
 20
26.5582333850713
 30
0.0
  0
SPLINE
  5
18D
330
1F
100
AcDbEntity
  8
Default
100
AcDbSpline
210
0.0
220
0.0
230
1.0
 70
     8
 71
     3
 72
     8
 73
     4
 74
     0
 42
0.0000000001
 43
0.0000000001
 40
0.0
 40
0.0
 40
0.0
 40
0.0
 40
1.0
 40
1.0
 40
1.0
 40
1.0
 10
-38.9724566106957
 20
26.5582333850713
 30
0.0
 10
-39.07094680400741
 20
26.8441089318471
 30
0.0
 10
-39.16520389445471
 20
27.13167771976865
 30
0.0
 10
-39.22954705799357
 20
27.42658388598846
 30
0.0
  0
SPLINE
  5
18E
330
1F
100
AcDbEntity
  8
Default
100
AcDbSpline
210
0.0
220
0.0
230
1.0
 70
     8
 71
     3
 72
     8
 73
     4
 74
     0
 42
0.0000000001
 43
0.0000000001
 40
0.0
 40
0.0
 40
0.0
 40
0.0
 40
1.0
 40
1.0
 40
1.0
 40
1.0
 10
-39.22954705799357
 20
27.42658388598846
 30
0.0
 10
-39.29417242839008
 20
27.72149005220831
 30
0.0
 10
-39.32888387187815
 20
28.02373359672643
 30
0.0
 10
-39.32465076901376
 20
28.32569493438695
 30
0.0
  0
SPLINE
  5
18F
330
1F
100
AcDbEntity
  8
Default
100
AcDbSpline
210
0.0
220
0.0
230
1.0
 70
     8
 71
     3
 72
     8
 73
     4
 74
     0
 42
0.0000000001
 43
0.0000000001
 40
0.0
 40
0.0
 40
0.0
 40
0.0
 40
1.0
 40
1.0
 40
1.0
 40
1.0
 10
-39.32465076901376
 20
28.32569493438695
 30
0.0
 10
-39.32013545929173
 20
28.62737406518983
 30
0.0
 10
-39.27667560321723
 20
28.92848878227747
 30
0.0
 10
-39.16915479046148
 20
29.21408212219561
 30
0.0
  0
SPLINE
  5
190
330
1F
100
AcDbEntity
  8
Default
100
AcDbSpline
210
0.0
220
0.0
230
1.0
 70
     8
 71
     3
 72
     8
 73
     4
 74
     0
 42
0.0000000001
 43
0.0000000001
 40
0.0
 40
0.0
 40
0.0
 40
0.0
 40
1.0
 40
1.0
 40
1.0
 40
1.0
 10
-39.16915479046148
 20
29.21408212219561
 30
0.0
 10
-39.06135177084811
 20
29.4999576689714
 30
0.0
 10
-38.88977000141111
 20
29.77002963172012
 30
0.0
 10
-38.64678989699456
 20
29.93709609143505
 30
0.0
  0
SPLINE
  5
191
330
1F
100
AcDbEntity
  8
Default
100
AcDbSpline
210
0.0
220
0.0
230
1.0
 70
     8
 71
     3
 72
     8
 73
     4
 74
     0
 42
0.0000000001
 43
0.0000000001
 40
0.0
 40
0.0
 40
0.0
 40
0.0
 40
1.0
 40
1.0
 40
1.0
 40
1.0
 10
-38.64678989699456
 20
29.93709609143505
 30
0.0
 10
-38.41453365316785
 20
30.09682517285174
 30
0.0
 10
-38.11680541837174
 20
30.16286157753638
 30
0.0
 10
-37.82415690701291
 20
30.16286157753638
 30
0.0
  0
ENDSEC
  0
SECTION
  2
OBJECTS
  0
DICTIONARY
  5
C
330
0
100
AcDbDictionary
281
     1
  3
ACAD_GROUP
350
D
  3
ACAD_LAYOUT
350
1A
  3
ACAD_MLEADERSTYLE
350
193
  3
ACAD_MLINESTYLE
350
17
  3
ACAD_PLOTSETTINGS
350
19
  3
ACAD_PLOTSTYLENAME
350
E
  3
ACAD_TABLESTYLE
350
192
  3
ACAD_VISUALSTYLE
350
2A
  0
DICTIONARY
  5
D
102
{ACAD_REACTORS
330
C
102
}
330
C
100
AcDbDictionary
281
     1
  0
DICTIONARY
  5
1A
102
{ACAD_REACTORS
330
C
102
}
330
C
100
AcDbDictionary
281
     1
  3
Layout1
350
1E
  3
Layout2
350
26
  3
Model
350
22
  0
DICTIONARY
  5
193
102
{ACAD_REACTORS
330
C
102
}
330
C
100
AcDbDictionary
281
     1
  0
DICTIONARY
  5
17
102
{ACAD_REACTORS
330
C
102
}
330
C
100
AcDbDictionary
281
     1
  3
Standard
350
18
  0
DICTIONARY
  5
19
102
{ACAD_REACTORS
330
C
102
}
330
C
100
AcDbDictionary
281
     1
  0
ACDBDICTIONARYWDFLT
  5
E
102
{ACAD_REACTORS
330
C
102
}
330
C
100
AcDbDictionary
281
     1
  3
Normal
350
F
100
AcDbDictionaryWithDefault
340
F
  0
DICTIONARY
  5
192
102
{ACAD_REACTORS
330
C
102
}
330
C
100
AcDbDictionary
281
     1
  0
DICTIONARY
  5
2A
102
{ACAD_REACTORS
330
C
102
}
330
C
100
AcDbDictionary
281
     1
  3
2dWireframe
350
2F
  3
3D Hidden
350
31
  3
3dWireframe
350
30
  3
Basic
350
32
  3
Brighten
350
36
  3
ColorChange
350
3A
  3
Conceptual
350
34
  3
Dim
350
35
  3
Facepattern
350
39
  3
Flat
350
2B
  3
FlatWithEdges
350
2C
  3
Gouraud
350
2D
  3
GouraudWithEdges
350
2E
  3
Linepattern
350
38
  3
Realistic
350
33
  3
Thicken
350
37
  0
LAYOUT
  5
1E
102
{ACAD_REACTORS
330
1A
102
}
330
1A
100
AcDbPlotSettings
  1

  2
none_device
  4

  6

 40
0.0
 41
0.0
 42
0.0
 43
0.0
 44
0.0
 45
0.0
 46
0.0
 47
0.0
 48
0.0
 49
0.0
140
0.0
141
0.0
142
1.0
143
1.0
 70
   688
 72
     0
 73
     0
 74
     5
  7

 75
    16
 76
     0
 77
     2
 78
   300
147
1.0
148
0.0
149
0.0
100
AcDbLayout
  1
Layout1
 70
     1
 71
     1
 10
0.0
 20
0.0
 11
12.0
 21
9.0
 12
0.0
 22
0.0
 32
0.0
 14
1.000000000000000E+20
 24
1.000000000000000E+20
 34
1.000000000000000E+20
 15
-1.000000000000000E+20
 25
-1.000000000000000E+20
 35
-1.000000000000000E+20
146
0.0
 13
0.0
 23
0.0
 33
0.0
 16
1.0
 26
0.0
 36
0.0
 17
0.0
 27
1.0
 37
0.0
 76
     0
330
1B
  0
LAYOUT
  5
26
102
{ACAD_REACTORS
330
1A
102
}
330
1A
100
AcDbPlotSettings
  1

  2
none_device
  4

  6

 40
0.0
 41
0.0
 42
0.0
 43
0.0
 44
0.0
 45
0.0
 46
0.0
 47
0.0
 48
0.0
 49
0.0
140
0.0
141
0.0
142
1.0
143
1.0
 70
   688
 72
     0
 73
     0
 74
     5
  7

 75
    16
 76
     0
 77
     2
 78
   300
147
1.0
148
0.0
149
0.0
100
AcDbLayout
  1
Layout2
 70
     1
 71
     2
 10
0.0
 20
0.0
 11
0.0
 21
0.0
 12
0.0
 22
0.0
 32
0.0
 14
0.0
 24
0.0
 34
0.0
 15
0.0
 25
0.0
 35
0.0
146
0.0
 13
0.0
 23
0.0
 33
0.0
 16
1.0
 26
0.0
 36
0.0
 17
0.0
 27
1.0
 37
0.0
 76
     0
330
23
  0
LAYOUT
  5
22
102
{ACAD_REACTORS
330
1A
102
}
330
1A
100
AcDbPlotSettings
  1

  2
none_device
  4

  6

 40
0.0
 41
0.0
 42
0.0
 43
0.0
 44
0.0
 45
0.0
 46
0.0
 47
0.0
 48
0.0
 49
0.0
140
0.0
141
0.0
142
1.0
143
1.0
 70
  1712
 72
     0
 73
     0
 74
     0
  7

 75
     0
 76
     0
 77
     2
 78
   300
147
1.0
148
0.0
149
0.0
100
AcDbLayout
  1
Model
 70
     1
 71
     0
 10
0.0
 20
0.0
 11
12.0
 21
9.0
 12
0.0
 22
0.0
 32
0.0
 14
-39.5335734005706
 24
0.0
 34
0.0
 15
98.55009371216622
 25
85.76467375516107
 35
0.0
146
0.0
 13
0.0
 23
0.0
 33
0.0
 16
1.0
 26
0.0
 36
0.0
 17
0.0
 27
1.0
 37
0.0
 76
     0
330
1F
331
29
  0
MLINESTYLE
  5
18
102
{ACAD_REACTORS
330
17
102
}
330
17
100
AcDbMlineStyle
  2
Standard
 70
     0
  3

 62
   256
 51
90.0
 52
90.0
 71
     2
 49
0.5
 62
   256
  6
BYLAYER
 49
-0.5
 62
   256
  6
BYLAYER
  0
ACDBPLACEHOLDER
  5
F
102
{ACAD_REACTORS
330
E
102
}
330
E
  0
VISUALSTYLE
  5
2F
102
{ACAD_REACTORS
330
2A
102
}
330
2A
100
AcDbVisualStyle
  2
2dWireframe
 70
     4
 71
     0
 72
     2
 73
     0
 90
        0
 40
-0.6
 41
-30.0
 62
     5
 63
     7
421
 16777215
 74
     1
 91
        4
 64
     7
 65
   257
 75
     1
175
     1
 42
1.0
 92
        0
 66
   257
 43
1.0
 76
     1
 77
     6
 78
     2
 67
     7
 79
     5
170
     0
171
     0
290
     0
174
     0
 93
        1
 44
0.0
173
     0
291
     0
 45
0.0
1001
ACAD
1000
AcDbSavedByObjectVersion
1070
     0
  0
VISUALSTYLE
  5
31
102
{ACAD_REACTORS
330
2A
102
}
330
2A
100
AcDbVisualStyle
  2
3D Hidden
 70
     6
 71
     1
 72
     2
 73
     2
 90
        0
 40
-0.6
 41
-30.0
 62
     5
 63
     7
421
 16777215
 74
     2
 91
        2
 64
     7
 65
   257
 75
     2
175
     1
 42
40.0
 92
        0
 66
   257
 43
1.0
 76
     1
 77
     6
 78
     2
 67
     7
 79
     3
170
     0
171
     0
290
     0
174
     0
 93
        1
 44
0.0
173
     0
291
     0
 45
0.0
1001
ACAD
1000
AcDbSavedByObjectVersion
1070
     0
  0
VISUALSTYLE
  5
30
102
{ACAD_REACTORS
330
2A
102
}
330
2A
100
AcDbVisualStyle
  2
3dWireframe
 70
     5
 71
     0
 72
     2
 73
     0
 90
        0
 40
-0.6
 41
-30.0
 62
     5
 63
     7
421
 16777215
 74
     1
 91
        4
 64
     7
 65
   257
 75
     1
175
     1
 42
1.0
 92
        0
 66
   257
 43
1.0
 76
     1
 77
     6
 78
     2
 67
     7
 79
     5
170
     0
171
     0
290
     0
174
     0
 93
        1
 44
0.0
173
     0
291
     0
 45
0.0
1001
ACAD
1000
AcDbSavedByObjectVersion
1070
     0
  0
VISUALSTYLE
  5
32
102
{ACAD_REACTORS
330
2A
102
}
330
2A
100
AcDbVisualStyle
  2
Basic
 70
     7
 71
     1
 72
     0
 73
     1
 90
        0
 40
-0.6
 41
-30.0
 62
     5
 63
     7
421
 16777215
 74
     0
 91
        4
 64
     7
 65
   257
 75
     1
175
     1
 42
1.0
 92
        8
 66
     7
 43
1.0
 76
     1
 77
     6
 78
     2
 67
     7
 79
     5
170
     0
171
     0
290
     0
174
     0
 93
        1
 44
0.0
173
     0
291
     1
 45
0.0
1001
ACAD
1000
AcDbSavedByObjectVersion
1070
     0
  0
VISUALSTYLE
  5
36
102
{ACAD_REACTORS
330
2A
102
}
330
2A
100
AcDbVisualStyle
  2
Brighten
 70
    12
 71
     2
 72
     2
 73
     0
 90
        0
 40
-0.6
 41
-30.0
 62
     5
 63
     7
421
 16777215
 74
     1
 91
        4
 64
     7
 65
   257
 75
     1
175
     1
 42
1.0
 92
        8
 66
     7
 43
1.0
 76
     1
 77
     6
 78
     2
 67
     7
 79
     5
170
     0
171
     0
290
     0
174
     0
 93
        1
 44
50.0
173
     0
291
     1
 45
0.0
1001
ACAD
1000
AcDbSavedByObjectVersion
1070
     0
  0
VISUALSTYLE
  5
3A
102
{ACAD_REACTORS
330
2A
102
}
330
2A
100
AcDbVisualStyle
  2
ColorChange
 70
    16
 71
     2
 72
     2
 73
     3
 90
        0
 40
-0.6
 41
-30.0
 62
     5
 63
     8
421
  8421504
 74
     1
 91
        4
 64
     7
 65
   257
 75
     1
175
     1
 42
1.0
 92
        8
 66
     8
424
  8421504
 43
1.0
 76
     1
 77
     6
 78
     2
 67
     7
 79
     5
170
     0
171
     0
290
     0
174
     0
 93
        1
 44
0.0
173
     0
291
     1
 45
0.0
1001
ACAD
1000
AcDbSavedByObjectVersion
1070
     0
  0
VISUALSTYLE
  5
34
102
{ACAD_REACTORS
330
2A
102
}
330
2A
100
AcDbVisualStyle
  2
Conceptual
 70
     9
 71
     3
 72
     2
 73
     0
 90
        0
 40
-0.6
 41
-30.0
 62
     5
 63
     7
421
 16777215
 74
     2
 91
        2
 64
     7
 65
   257
 75
     1
175
     1
 42
40.0
 92
        8
 66
     7
 43
1.0
 76
     1
 77
     6
 78
     2
 67
     7
 79
     3
170
     0
171
     0
290
     0
174
     0
 93
        1
 44
0.0
173
     0
291
     0
 45
0.0
1001
ACAD
1000
AcDbSavedByObjectVersion
1070
     0
  0
VISUALSTYLE
  5
35
102
{ACAD_REACTORS
330
2A
102
}
330
2A
100
AcDbVisualStyle
  2
Dim
 70
    11
 71
     2
 72
     2
 73
     0
 90
        0
 40
-0.6
 41
-30.0
 62
     5
 63
     7
421
 16777215
 74
     1
 91
        4
 64
     7
 65
   257
 75
     1
175
     1
 42
1.0
 92
        8
 66
     7
 43
1.0
 76
     1
 77
     6
 78
     2
 67
     7
 79
     5
170
     0
171
     0
290
     0
174
     0
 93
        1
 44
-50.0
173
     0
291
     1
 45
0.0
1001
ACAD
1000
AcDbSavedByObjectVersion
1070
     0
  0
VISUALSTYLE
  5
39
102
{ACAD_REACTORS
330
2A
102
}
330
2A
100
AcDbVisualStyle
  2
Facepattern
 70
    15
 71
     2
 72
     2
 73
     0
 90
        0
 40
-0.6
 41
-30.0
 62
     5
 63
     7
421
 16777215
 74
     1
 91
        4
 64
     7
 65
   257
 75
     1
175
     1
 42
1.0
 92
        8
 66
     7
 43
1.0
 76
     1
 77
     6
 78
     2
 67
     7
 79
     5
170
     0
171
     0
290
     0
174
     0
 93
        1
 44
0.0
173
     0
291
     1
 45
0.0
1001
ACAD
1000
AcDbSavedByObjectVersion
1070
     0
  0
VISUALSTYLE
  5
2B
102
{ACAD_REACTORS
330
2A
102
}
330
2A
100
AcDbVisualStyle
  2
Flat
 70
     0
 71
     2
 72
     1
 73
     1
 90
        2
 40
-0.6
 41
30.0
 62
     5
 63
     7
421
 16777215
 74
     0
 91
        4
 64
     7
 65
   257
 75
     1
175
     1
 42
1.0
 92
        8
 66
     7
 43
1.0
 76
     1
 77
     6
 78
     2
 67
     7
 79
     5
170
     0
171
     0
290
     0
174
     0
 93
       13
 44
0.0
173
     0
291
     1
 45
0.0
1001
ACAD
1000
AcDbSavedByObjectVersion
1070
     0
  0
VISUALSTYLE
  5
2C
102
{ACAD_REACTORS
330
2A
102
}
330
2A
100
AcDbVisualStyle
  2
FlatWithEdges
 70
     1
 71
     2
 72
     1
 73
     1
 90
        2
 40
-0.6
 41
30.0
 62
     5
 63
     7
421
 16777215
 74
     1
 91
        4
 64
     7
 65
   257
 75
     1
175
     1
 42
1.0
 92
        0
 66
   257
 43
1.0
 76
     1
 77
     6
 78
     2
 67
     7
 79
     5
170
     0
171
     0
290
     0
174
     0
 93
       13
 44
0.0
173
     0
291
     1
 45
0.0
1001
ACAD
1000
AcDbSavedByObjectVersion
1070
     0
  0
VISUALSTYLE
  5
2D
102
{ACAD_REACTORS
330
2A
102
}
330
2A
100
AcDbVisualStyle
  2
Gouraud
 70
     2
 71
     2
 72
     2
 73
     1
 90
        2
 40
-0.6
 41
30.0
 62
     5
 63
     7
421
 16777215
 74
     0
 91
        4
 64
     7
 65
   257
 75
     1
175
     1
 42
1.0
 92
        0
 66
     7
 43
1.0
 76
     1
 77
     6
 78
     2
 67
     7
 79
     5
170
     0
171
     0
290
     0
174
     0
 93
       13
 44
0.0
173
     0
291
     1
 45
0.0
1001
ACAD
1000
AcDbSavedByObjectVersion
1070
     0
  0
VISUALSTYLE
  5
2E
102
{ACAD_REACTORS
330
2A
102
}
330
2A
100
AcDbVisualStyle
  2
GouraudWithEdges
 70
     3
 71
     2
 72
     2
 73
     1
 90
        2
 40
-0.6
 41
30.0
 62
     5
 63
     7
421
 16777215
 74
     1
 91
        4
 64
     7
 65
   257
 75
     1
175
     1
 42
1.0
 92
        0
 66
   257
 43
1.0
 76
     1
 77
     6
 78
     2
 67
     7
 79
     5
170
     0
171
     0
290
     0
174
     0
 93
       13
 44
0.0
173
     0
291
     1
 45
0.0
1001
ACAD
1000
AcDbSavedByObjectVersion
1070
     0
  0
VISUALSTYLE
  5
38
102
{ACAD_REACTORS
330
2A
102
}
330
2A
100
AcDbVisualStyle
  2
Linepattern
 70
    14
 71
     2
 72
     2
 73
     0
 90
        0
 40
-0.6
 41
-30.0
 62
     5
 63
     7
421
 16777215
 74
     1
 91
        4
 64
     7
 65
   257
 75
     7
175
     7
 42
1.0
 92
        8
 66
     7
 43
1.0
 76
     1
 77
     6
 78
     2
 67
     7
 79
     5
170
     0
171
     0
290
     0
174
     0
 93
        1
 44
0.0
173
     0
291
     1
 45
0.0
1001
ACAD
1000
AcDbSavedByObjectVersion
1070
     0
  0
VISUALSTYLE
  5
33
102
{ACAD_REACTORS
330
2A
102
}
330
2A
100
AcDbVisualStyle
  2
Realistic
 70
     8
 71
     2
 72
     2
 73
     0
 90
        0
 40
-0.6
 41
-30.0
 62
     5
 63
     7
421
 16777215
 74
     1
 91
        0
 64
     7
 65
   257
 75
     1
175
     1
 42
1.0
 92
        8
 66
     8
424
  7895160
 43
1.0
 76
     1
 77
     6
 78
     2
 67
     7
 79
     5
170
     0
171
     0
290
     0
174
     0
 93
       13
 44
0.0
173
     0
291
     0
 45
0.0
1001
ACAD
1000
AcDbSavedByObjectVersion
1070
     0
  0
VISUALSTYLE
  5
37
102
{ACAD_REACTORS
330
2A
102
}
330
2A
100
AcDbVisualStyle
  2
Thicken
 70
    13
 71
     2
 72
     2
 73
     0
 90
        0
 40
-0.6
 41
-30.0
 62
     5
 63
     7
421
 16777215
 74
     1
 91
        4
 64
     7
 65
   257
 75
     1
175
     1
 42
1.0
 92
       12
 66
     7
 43
1.0
 76
     1
 77
     6
 78
     2
 67
     7
 79
     5
170
     0
171
     0
290
     0
174
     0
 93
        1
 44
0.0
173
     0
291
     1
 45
0.0
1001
ACAD
1000
AcDbSavedByObjectVersion
1070
     0
  0
ENDSEC
  0
EOF
