  0
SECTION
  2
HEADER
  9
$ACADVER
  1
AC1018
  9
$ACADMAINTVER
 70
     0
  9
$DWGCODEPAGE
  3
ANSI_1252
  9
$INSBASE
 10
0.0
 20
0.0
 30
0.0
  9
$EXTMIN
 10
-41.41044165373226
 20
-0.0024285217931788
 30
0.0
  9
$EXTMAX
 10
106.7016853210408
 20
105.5458994025756
 30
0.0
  9
$LIMMIN
 10
0.0
 20
0.0
  9
$LIMMAX
 10
12.0
 20
9.0
  9
$ORTHOMODE
 70
     0
  9
$REGENMODE
 70
     1
  9
$FILLMODE
 70
     1
  9
$QTEXTMODE
 70
     0
  9
$MIRRTEXT
 70
     1
  9
$LTSCALE
 40
1.0
  9
$ATTMODE
 70
     1
  9
$TEXTSIZE
 40
0.2
  9
$TRACEWID
 40
0.05
  9
$TEXTSTYLE
  7
Standard
  9
$CLAYER
  8
Default
  9
$CELTYPE
  6
ByLayer
  9
$CECOLOR
 62
   256
  9
$CELTSCALE
 40
1.0
  9
$DISPSILH
 70
     0
  9
$DIMSCALE
 40
1.0
  9
$DIMASZ
 40
0.18
  9
$DIMEXO
 40
0.0625
  9
$DIMDLI
 40
0.38
  9
$DIMRND
 40
0.0
  9
$DIMDLE
 40
0.0
  9
$DIMEXE
 40
0.18
  9
$DIMTP
 40
0.0
  9
$DIMTM
 40
0.0
  9
$DIMTXT
 40
0.18
  9
$DIMCEN
 40
0.09
  9
$DIMTSZ
 40
0.0
  9
$DIMTOL
 70
     0
  9
$DIMLIM
 70
     0
  9
$DIMTIH
 70
     1
  9
$DIMTOH
 70
     1
  9
$DIMSE1
 70
     0
  9
$DIMSE2
 70
     0
  9
$DIMTAD
 70
     0
  9
$DIMZIN
 70
     0
  9
$DIMBLK
  1

  9
$DIMASO
 70
     1
  9
$DIMSHO
 70
     1
  9
$DIMPOST
  1

  9
$DIMAPOST
  1

  9
$DIMALT
 70
     0
  9
$DIMALTD
 70
     2
  9
$DIMALTF
 40
25.4
  9
$DIMLFAC
 40
1.0
  9
$DIMTOFL
 70
     0
  9
$DIMTVP
 40
0.0
  9
$DIMTIX
 70
     0
  9
$DIMSOXD
 70
     0
  9
$DIMSAH
 70
     0
  9
$DIMBLK1
  1

  9
$DIMBLK2
  1

  9
$DIMSTYLE
  2
Standard
  9
$DIMCLRD
 70
     0
  9
$DIMCLRE
 70
     0
  9
$DIMCLRT
 70
     0
  9
$DIMTFAC
 40
1.0
  9
$DIMGAP
 40
0.09
  9
$DIMJUST
 70
     0
  9
$DIMSD1
 70
     0
  9
$DIMSD2
 70
     0
  9
$DIMTOLJ
 70
     1
  9
$DIMTZIN
 70
     0
  9
$DIMALTZ
 70
     0
  9
$DIMALTTZ
 70
     0
  9
$DIMUPT
 70
     0
  9
$DIMDEC
 70
     4
  9
$DIMTDEC
 70
     4
  9
$DIMALTU
 70
     2
  9
$DIMALTTD
 70
     2
  9
$DIMTXSTY
  7
Standard
  9
$DIMAUNIT
 70
     0
  9
$DIMADEC
 70
     0
  9
$DIMALTRND
 40
0.0
  9
$DIMAZIN
 70
     0
  9
$DIMDSEP
 70
    46
  9
$DIMATFIT
 70
     3
  9
$DIMFRAC
 70
     0
  9
$DIMLDRBLK
  1

  9
$DIMLUNIT
 70
     2
  9
$DIMLWD
 70
    -2
  9
$DIMLWE
 70
    -2
  9
$DIMTMOVE
 70
     2
  9
$LUNITS
 70
     2
  9
$LUPREC
 70
     3
  9
$SKETCHINC
 40
0.1
  9
$FILLETRAD
 40
0.5
  9
$AUNITS
 70
     0
  9
$AUPREC
 70
     0
  9
$MENU
  1
.
  9
$ELEVATION
 40
0.0
  9
$PELEVATION
 40
0.0
  9
$THICKNESS
 40
0.0
  9
$LIMCHECK
 70
     0
  9
$CHAMFERA
 40
0.5
  9
$CHAMFERB
 40
0.5
  9
$CHAMFERC
 40
1.0
  9
$CHAMFERD
 40
0.0
  9
$SKPOLY
 70
     0
  9
$TDCREATE
 40
2457659.42580235
  9
$TDUCREATE
 40
2457659.592469016
  9
$TDUPDATE
 40
2457659.425802361
  9
$TDUUPDATE
 40
2457659.592469028
  9
$TDINDWG
 40
0.0000000116
  9
$TDUSRTIMER
 40
0.0000000116
  9
$USRTIMER
 70
     1
  9
$ANGBASE
 50
0.0
  9
$ANGDIR
 70
     0
  9
$PDMODE
 70
     0
  9
$PDSIZE
 40
0.0
  9
$PLINEWID
 40
0.0
  9
$SPLFRAME
 70
     0
  9
$SPLINETYPE
 70
     6
  9
$SPLINESEGS
 70
     8
  9
$HANDSEED
  5
211
  9
$SURFTAB1
 70
     6
  9
$SURFTAB2
 70
     6
  9
$SURFTYPE
 70
     6
  9
$SURFU
 70
     6
  9
$SURFV
 70
     6
  9
$UCSBASE
  2

  9
$UCSNAME
  2

  9
$UCSORG
 10
0.0
 20
0.0
 30
0.0
  9
$UCSXDIR
 10
1.0
 20
0.0
 30
0.0
  9
$UCSYDIR
 10
0.0
 20
1.0
 30
0.0
  9
$UCSORTHOREF
  2

  9
$UCSORTHOVIEW
 70
     0
  9
$UCSORGTOP
 10
0.0
 20
0.0
 30
0.0
  9
$UCSORGBOTTOM
 10
0.0
 20
0.0
 30
0.0
  9
$UCSORGLEFT
 10
0.0
 20
0.0
 30
0.0
  9
$UCSORGRIGHT
 10
0.0
 20
0.0
 30
0.0
  9
$UCSORGFRONT
 10
0.0
 20
0.0
 30
0.0
  9
$UCSORGBACK
 10
0.0
 20
0.0
 30
0.0
  9
$PUCSBASE
  2

  9
$PUCSNAME
  2

  9
$PUCSORG
 10
0.0
 20
0.0
 30
0.0
  9
$PUCSXDIR
 10
1.0
 20
0.0
 30
0.0
  9
$PUCSYDIR
 10
0.0
 20
1.0
 30
0.0
  9
$PUCSORTHOREF
  2

  9
$PUCSORTHOVIEW
 70
     0
  9
$PUCSORGTOP
 10
0.0
 20
0.0
 30
0.0
  9
$PUCSORGBOTTOM
 10
0.0
 20
0.0
 30
0.0
  9
$PUCSORGLEFT
 10
0.0
 20
0.0
 30
0.0
  9
$PUCSORGRIGHT
 10
0.0
 20
0.0
 30
0.0
  9
$PUCSORGFRONT
 10
0.0
 20
0.0
 30
0.0
  9
$PUCSORGBACK
 10
0.0
 20
0.0
 30
0.0
  9
$USERI1
 70
     0
  9
$USERI2
 70
     0
  9
$USERI3
 70
     0
  9
$USERI4
 70
     0
  9
$USERI5
 70
     0
  9
$USERR1
 40
0.0
  9
$USERR2
 40
0.0
  9
$USERR3
 40
0.0
  9
$USERR4
 40
0.0
  9
$USERR5
 40
0.0
  9
$WORLDVIEW
 70
     1
  9
$SHADEDGE
 70
     3
  9
$SHADEDIF
 70
    70
  9
$TILEMODE
 70
     1
  9
$MAXACTVP
 70
    64
  9
$PINSBASE
 10
0.0
 20
0.0
 30
0.0
  9
$PLIMCHECK
 70
     0
  9
$PEXTMIN
 10
1.000000000000000E+20
 20
1.000000000000000E+20
 30
1.000000000000000E+20
  9
$PEXTMAX
 10
-1.000000000000000E+20
 20
-1.000000000000000E+20
 30
-1.000000000000000E+20
  9
$PLIMMIN
 10
0.0
 20
0.0
  9
$PLIMMAX
 10
12.0
 20
9.0
  9
$UNITMODE
 70
     0
  9
$VISRETAIN
 70
     1
  9
$PLINEGEN
 70
     0
  9
$PSLTSCALE
 70
     1
  9
$TREEDEPTH
 70
  3020
  9
$CMLSTYLE
  2
Standard
  9
$CMLJUST
 70
     0
  9
$CMLSCALE
 40
1.0
  9
$PROXYGRAPHICS
 70
     1
  9
$MEASUREMENT
 70
     0
  9
$CELWEIGHT
370
    -1
  9
$ENDCAPS
280
     0
  9
$JOINSTYLE
280
     0
  9
$LWDISPLAY
290
     0
  9
$INSUNITS
 70
     4
  9
$HYPERLINKBASE
  1

  9
$STYLESHEET
  1

  9
$XEDIT
290
     1
  9
$CEPSNTYPE
380
     0
  9
$PSTYLEMODE
290
     1
  9
$FINGERPRINTGUID
  2
{735F4C5F-BFFD-4885-817E-4C77C49D7224}
  9
$VERSIONGUID
  2
{FAEB1C32-E019-11D5-929B-00C0DF256EC4}
  9
$EXTNAMES
290
     1
  9
$PSVPSCALE
 40
0.0
  9
$OLESTARTUP
290
     0
  9
$SORTENTS
280
   127
  9
$INDEXCTL
280
     0
  9
$HIDETEXT
280
     1
  9
$XCLIPFRAME
290
     0
  9
$HALOGAP
280
     0
  9
$OBSCOLOR
 70
   257
  9
$OBSLTYPE
280
     0
  9
$INTERSECTIONDISPLAY
280
     0
  9
$INTERSECTIONCOLOR
 70
   257
  9
$DIMASSOC
280
     2
  9
$PROJECTNAME
  1

  0
ENDSEC
  0
SECTION
  2
CLASSES
  0
CLASS
  1
ACDBDICTIONARYWDFLT
  2
AcDbDictionaryWithDefault
  3
ObjectDBX Classes
 90
        0
 91
        4
280
     0
281
     0
  0
CLASS
  1
VISUALSTYLE
  2
AcDbVisualStyle
  3
ObjectDBX Classes
 90
     4095
 91
        4
280
     0
281
     0
  0
ENDSEC
  0
SECTION
  2
TABLES
  0
TABLE
  2
VPORT
  5
8
330
0
100
AcDbSymbolTable
 70
     1
  0
VPORT
  5
29
330
8
100
AcDbSymbolTableRecord
100
AcDbViewportTableRecord
  2
*Active
 70
     0
 10
0.0
 20
0.0
 11
1.0
 21
1.0
 12
32.64562183365427
 22
52.77173544039121
 13
0.0
 23
0.0
 14
0.5
 24
0.5
 15
0.5
 25
0.5
 16
0.0
 26
0.0
 36
1.0
 17
0.0
 27
0.0
 37
0.0
 40
107.6592944828562
 41
1.403263603388427
 42
50.0
 43
0.0
 44
0.0
 50
0.0
 51
0.0
 71
     0
 72
   100
 73
     1
 74
     3
 75
     0
 76
     0
 77
     0
 78
     0
281
     0
 65
     1
110
0.0
120
0.0
130
0.0
111
1.0
121
0.0
131
0.0
112
0.0
122
1.0
132
0.0
 79
     0
146
0.0
  0
ENDTAB
  0
TABLE
  2
LTYPE
  5
5
330
0
100
AcDbSymbolTable
 70
     1
  0
LTYPE
  5
14
330
5
100
AcDbSymbolTableRecord
100
AcDbLinetypeTableRecord
  2
ByBlock
 70
     0
  3

 72
    65
 73
     0
 40
0.0
  0
LTYPE
  5
15
330
5
100
AcDbSymbolTableRecord
100
AcDbLinetypeTableRecord
  2
ByLayer
 70
     0
  3

 72
    65
 73
     0
 40
0.0
  0
LTYPE
  5
16
330
5
100
AcDbSymbolTableRecord
100
AcDbLinetypeTableRecord
  2
Continuous
 70
     0
  3
Solid line
 72
    65
 73
     0
 40
0.0
  0
ENDTAB
  0
TABLE
  2
LAYER
  5
2
330
0
100
AcDbSymbolTable
 70
     2
  0
LAYER
  5
10
330
2
100
AcDbSymbolTableRecord
100
AcDbLayerTableRecord
  2
0
 70
     0
 62
     7
  6
Continuous
370
    -3
390
F
  0
LAYER
  5
3B
330
2
100
AcDbSymbolTableRecord
100
AcDbLayerTableRecord
  2
Default
 70
     0
 62
     7
  6
Continuous
370
    -3
390
F
  0
ENDTAB
  0
TABLE
  2
STYLE
  5
3
330
0
100
AcDbSymbolTable
 70
     1
  0
STYLE
  5
11
330
3
100
AcDbSymbolTableRecord
100
AcDbTextStyleTableRecord
  2
Standard
 70
     0
 40
0.0
 41
1.0
 50
0.0
 71
     0
 42
0.2
  3
txt
  4

  0
ENDTAB
  0
TABLE
  2
VIEW
  5
6
330
0
100
AcDbSymbolTable
 70
     0
  0
ENDTAB
  0
TABLE
  2
UCS
  5
7
330
0
100
AcDbSymbolTable
 70
     0
  0
ENDTAB
  0
TABLE
  2
APPID
  5
9
330
0
100
AcDbSymbolTable
 70
     1
  0
APPID
  5
12
330
9
100
AcDbSymbolTableRecord
100
AcDbRegAppTableRecord
  2
ACAD
 70
     0
  0
ENDTAB
  0
TABLE
  2
DIMSTYLE
  5
A
330
0
100
AcDbSymbolTable
 70
     1
100
AcDbDimStyleTable
  0
DIMSTYLE
105
27
330
A
100
AcDbSymbolTableRecord
100
AcDbDimStyleTableRecord
  2
Standard
 70
     0
340
11
  0
ENDTAB
  0
TABLE
  2
BLOCK_RECORD
  5
1
330
0
100
AcDbSymbolTable
 70
     1
  0
BLOCK_RECORD
  5
1F
330
1
100
AcDbSymbolTableRecord
100
AcDbBlockTableRecord
  2
*Model_Space
340
22
  0
BLOCK_RECORD
  5
1B
330
1
100
AcDbSymbolTableRecord
100
AcDbBlockTableRecord
  2
*Paper_Space
340
1E
  0
BLOCK_RECORD
  5
23
330
1
100
AcDbSymbolTableRecord
100
AcDbBlockTableRecord
  2
*Paper_Space0
340
26
  0
ENDTAB
  0
ENDSEC
  0
SECTION
  2
BLOCKS
  0
BLOCK
  5
20
330
1F
100
AcDbEntity
  8
0
100
AcDbBlockBegin
  2
*Model_Space
 70
     0
 10
0.0
 20
0.0
 30
0.0
  3
*Model_Space
  1

  0
ENDBLK
  5
21
330
1F
100
AcDbEntity
  8
0
100
AcDbBlockEnd
  0
BLOCK
  5
1C
330
1B
100
AcDbEntity
 67
     1
  8
0
100
AcDbBlockBegin
  2
*Paper_Space
 70
     0
 10
0.0
 20
0.0
 30
0.0
  3
*Paper_Space
  1

  0
ENDBLK
  5
1D
330
1B
100
AcDbEntity
 67
     1
  8
0
100
AcDbBlockEnd
  0
BLOCK
  5
24
330
23
100
AcDbEntity
  8
0
100
AcDbBlockBegin
  2
*Paper_Space0
 70
     0
 10
0.0
 20
0.0
 30
0.0
  3
*Paper_Space0
  1

  0
ENDBLK
  5
25
330
23
100
AcDbEntity
  8
0
100
AcDbBlockEnd
  0
ENDSEC
  0
SECTION
  2
ENTITIES
  0
SPLINE
  5
3C
330
1F
100
AcDbEntity
  8
Default
100
AcDbSpline
210
0.0
220
0.0
230
1.0
 70
     8
 71
     3
 72
    14
 73
    10
 74
     0
 42
0.0000000001
 43
0.0000000001
 40
38.0904715373736
 40
38.0904715373736
 40
38.0904715373736
 40
38.0904715373736
 40
39.07500000000002
 40
39.07500000000002
 40
39.07500000000002
 40
46.16100000000003
 40
46.16100000000003
 40
46.16100000000003
 40
81.59072267007016
 40
81.59072267007016
 40
81.59072267007016
 40
81.59072267007016
 10
98.92508026849296
 20
24.77914036285085
 30
0.0
 10
98.92508020198666
 20
17.48136138258537
 30
0.0
 10
98.92507590336415
 20
14.14032716131187
 30
0.0
 10
98.92479806268048
 20
10.79929294003836
 30
0.0
 10
98.25822546496634
 20
10.79929294003836
 30
0.0
 10
97.59165286725222
 20
10.79929294003836
 30
0.0
 10
96.92508026953809
 20
10.79929294003836
 30
0.0
 10
96.92508026953809
 20
14.13212984047298
 30
0.0
 10
96.92508026953809
 20
17.46496674090759
 30
0.0
 10
96.92508026953809
 20
24.72549584676903
 30
0.0
  0
LINE
  5
3D
330
1F
100
AcDbEntity
  8
Default
100
AcDbLine
 10
75.94212556373867
 20
22.50270635520491
 30
0.0
 11
75.94212556373867
 21
10.79918005729531
 31
0.0
  0
LINE
  5
3E
330
1F
100
AcDbEntity
  8
Default
100
AcDbLine
 10
75.94212556373867
 20
10.79918005729531
 30
0.0
 11
73.94212556373867
 21
10.79918005729531
 31
0.0
  0
LINE
  5
3F
330
1F
100
AcDbEntity
  8
Default
100
AcDbLine
 10
73.94212556373867
 20
10.79918005729531
 30
0.0
 11
73.94212556373867
 21
24.72549584676903
 31
0.0
  0
SPLINE
  5
40
330
1F
100
AcDbEntity
  8
Default
100
AcDbSpline
210
0.0
220
0.0
230
1.0
 70
     8
 71
     3
 72
     8
 73
     4
 74
     0
 42
0.0000000001
 43
0.0000000001
 40
0.1382954817721274
 40
0.1382954817721274
 40
0.1382954817721274
 40
0.1382954817721274
 40
1.0
 40
1.0
 40
1.0
 40
1.0
 10
75.23895734748066
 20
24.72549584676897
 30
0.0
 10
75.64012955401758
 20
23.32357146391954
 30
0.0
 10
76.40913469764352
 20
21.0839962697544
 30
0.0
 10
76.83615688869986
 20
20.05875392494031
 30
0.0
  0
SPLINE
  5
41
330
1F
100
AcDbEntity
  8
Default
100
AcDbSpline
210
0.0
220
0.0
230
1.0
 70
     8
 71
     3
 72
     8
 73
     4
 74
     0
 42
0.0000000001
 43
0.0000000001
 40
0.0
 40
0.0
 40
0.0
 40
0.0
 40
1.0
 40
1.0
 40
1.0
 40
1.0
 10
76.83615688869986
 20
20.05875392494031
 30
0.0
 10
77.55155127278343
 20
18.34124298942458
 30
0.0
 10
78.32084716667364
 20
16.65618584253591
 30
0.0
 10
79.20641228590603
 20
15.01741062029799
 30
0.0
  0
SPLINE
  5
42
330
1F
100
AcDbEntity
  8
Default
100
AcDbSpline
210
0.0
220
0.0
230
1.0
 70
     8
 71
     3
 72
     8
 73
     4
 74
     0
 42
0.0000000001
 43
0.0000000001
 40
0.0
 40
0.0
 40
0.0
 40
0.0
 40
1.0
 40
1.0
 40
1.0
 40
1.0
 10
79.20641228590603
 20
15.01741062029799
 30
0.0
 10
79.94494763231498
 20
13.65011839509692
 30
0.0
 10
81.07321064910624
 20
11.53441358347
 30
0.0
 10
82.7867706886152
 20
10.90339904981683
 30
0.0
  0
SPLINE
  5
43
330
1F
100
AcDbEntity
  8
Default
100
AcDbSpline
210
0.0
220
0.0
230
1.0
 70
     8
 71
     3
 72
     8
 73
     4
 74
     0
 42
0.0000000001
 43
0.0000000001
 40
0.0
 40
0.0
 40
0.0
 40
0.0
 40
1.0
 40
1.0
 40
1.0
 40
1.0
 10
82.7867706886152
 20
10.90339904981683
 30
0.0
 10
83.19512401160097
 20
10.75298279470183
 30
0.0
 10
83.59783319743417
 20
10.73322831466797
 30
0.0
 10
84.00618652041993
 20
10.73322831466797
 30
0.0
  0
SPLINE
  5
44
330
1F
100
AcDbEntity
  8
Default
100
AcDbSpline
210
0.0
220
0.0
230
1.0
 70
     8
 71
     3
 72
     8
 73
     4
 74
     0
 42
0.0000000001
 43
0.0000000001
 40
0.0
 40
0.0
 40
0.0
 40
0.0
 40
1.0
 40
1.0
 40
1.0
 40
1.0
 10
84.00618652041993
 20
10.73322831466797
 30
0.0
 10
84.15378070695868
 20
10.73322831466797
 30
0.0
 10
84.30193930721268
 20
10.7357681763866
 30
0.0
 10
84.45150894175475
 20
10.7357681763866
 30
0.0
  0
LINE
  5
45
330
1F
100
AcDbEntity
  8
Default
100
AcDbLine
 10
84.45150894175475
 20
10.7357681763866
 30
0.0
 11
85.8044086172169
 21
10.7357681763866
 31
0.0
  0
LINE
  5
46
330
1F
100
AcDbEntity
  8
Default
100
AcDbLine
 10
85.8044086172169
 20
10.7357681763866
 30
0.0
 11
88.51020796814115
 21
10.7357681763866
 31
0.0
  0
LINE
  5
47
330
1F
100
AcDbEntity
  8
Default
100
AcDbLine
 10
88.51020796814115
 20
10.7357681763866
 30
0.0
 11
93.92152446313199
 21
10.7357681763866
 31
0.0
  0
LINE
  5
48
330
1F
100
AcDbEntity
  8
Default
100
AcDbLine
 10
93.92152446313199
 20
10.7357681763866
 30
0.0
 11
101.0921185085673
 21
10.7357681763866
 31
0.0
  0
SPLINE
  5
49
330
1F
100
AcDbEntity
  8
Default
100
AcDbSpline
210
0.0
220
0.0
230
1.0
 70
     8
 71
     3
 72
     8
 73
     4
 74
     0
 42
0.0000000001
 43
0.0000000001
 40
0.0
 40
0.0
 40
0.0
 40
0.0
 40
1.0
 40
1.0
 40
1.0
 40
1.0
 10
101.0921185085673
 20
10.7357681763866
 30
0.0
 10
101.7617953817153
 20
10.7357681763866
 30
0.0
 10
102.4238526697074
 20
10.75975575928487
 30
0.0
 10
103.0878854057029
 20
10.86755877889824
 30
0.0
  0
SPLINE
  5
4A
330
1F
100
AcDbEntity
  8
Default
100
AcDbSpline
210
0.0
220
0.0
230
1.0
 70
     8
 71
     3
 72
     8
 73
     4
 74
     0
 42
0.0000000001
 43
0.0000000001
 40
0.0
 40
0.0
 40
0.0
 40
0.0
 40
1.0
 40
1.0
 40
1.0
 40
1.0
 10
103.0878854057029
 20
10.86755877889824
 30
0.0
 10
103.7626420022882
 20
10.97733724651502
 30
0.0
 10
104.3572518513076
 20
11.22483266065358
 30
0.0
 10
104.6225262974766
 20
11.9390982173066
 30
0.0
  0
SPLINE
  5
4B
330
1F
100
AcDbEntity
  8
Default
100
AcDbSpline
210
0.0
220
0.0
230
1.0
 70
     8
 71
     3
 72
     8
 73
     4
 74
     0
 42
0.0000000001
 43
0.0000000001
 40
0.0
 40
0.0
 40
0.0
 40
0.0
 40
1.0
 40
1.0
 40
1.0
 40
1.0
 10
104.6225262974766
 20
11.9390982173066
 30
0.0
 10
104.722709731934
 20
12.20860576634005
 30
0.0
 10
104.7548813137035
 20
12.47698448794298
 30
0.0
 10
104.7610898645713
 20
12.76032017300012
 30
0.0
  0
SPLINE
  5
4C
330
1F
100
AcDbEntity
  8
Default
100
AcDbSpline
210
0.0
220
0.0
230
1.0
 70
     8
 71
     3
 72
     8
 73
     4
 74
     0
 42
0.0000000001
 43
0.0000000001
 40
0.0
 40
0.0
 40
0.0
 40
0.0
 40
1.0
 40
1.0
 40
1.0
 40
1.0
 10
104.7610898645713
 20
12.76032017300012
 30
0.0
 10
104.7701204840153
 20
13.18701694173161
 30
0.0
 10
104.711421457629
 20
13.60609412530717
 30
0.0
 10
104.6792498758595
 20
14.02827558431662
 30
0.0
  0
SPLINE
  5
4D
330
1F
100
AcDbEntity
  8
Default
100
AcDbSpline
210
0.0
220
0.0
230
1.0
 70
     8
 71
     3
 72
     8
 73
     4
 74
     0
 42
0.0000000001
 43
0.0000000001
 40
0.0
 40
0.0
 40
0.0
 40
0.0
 40
1.0
 40
1.0
 40
1.0
 40
1.0
 10
104.6792498758595
 20
14.02827558431662
 30
0.0
 10
104.6030540243003
 20
15.02841668774544
 30
0.0
 10
104.5265759658835
 20
16.02883999803188
 30
0.0
 10
104.4500979074667
 20
17.02898110146069
 30
0.0
  0
SPLINE
  5
4E
330
1F
100
AcDbEntity
  8
Default
100
AcDbSpline
210
0.0
220
0.0
230
1.0
 70
     8
 71
     3
 72
     8
 73
     4
 74
     0
 42
0.0000000001
 43
0.0000000001
 40
0.0
 40
0.0
 40
0.0
 40
0.0
 40
1.0
 40
1.0
 40
1.0
 40
1.0
 10
104.4500979074667
 20
17.02898110146069
 30
0.0
 10
104.2965773769178
 20
19.02926330831833
 30
0.0
 10
104.142210225796
 20
21.02954551517596
 30
0.0
 10
103.9864320403861
 20
23.02954551517597
 30
0.0
  0
SPLINE
  5
4F
330
1F
100
AcDbEntity
  8
Default
100
AcDbSpline
210
0.0
220
0.0
230
1.0
 70
     8
 71
     3
 72
     8
 73
     4
 74
     0
 42
0.0000000001
 43
0.0000000001
 40
0.0
 40
0.0
 40
0.0
 40
0.0
 40
1.0
 40
1.0
 40
1.0
 40
1.0
 10
103.9864320403861
 20
23.02954551517597
 30
0.0
 10
103.9144692916913
 20
23.9557484219066
 30
0.0
 10
103.8422243361389
 20
24.88166912177961
 30
0.0
 10
103.7696971737289
 20
25.80787202851025
 30
0.0
  0
SPLINE
  5
50
330
1F
100
AcDbEntity
  8
Default
100
AcDbSpline
210
0.0
220
0.0
230
1.0
 70
     8
 71
     3
 72
     8
 73
     4
 74
     0
 42
0.0000000001
 43
0.0000000001
 40
0.0
 40
0.0
 40
0.0
 40
0.0
 40
1.0
 40
1.0
 40
1.0
 40
1.0
 10
103.7696971737289
 20
25.80787202851025
 30
0.0
 10
103.7335746959527
 20
26.27069127501793
 30
0.0
 10
103.6971700113188
 20
26.73379272838324
 30
0.0
 10
103.660765326685
 20
27.19689418174857
 30
0.0
  0
SPLINE
  5
51
330
1F
100
AcDbEntity
  8
Default
100
AcDbSpline
210
0.0
220
0.0
230
1.0
 70
     8
 71
     3
 72
     8
 73
     4
 74
     0
 42
0.0000000001
 43
0.0000000001
 40
0.0
 40
0.0
 40
0.0
 40
0.0
 40
1.0
 40
1.0
 40
1.0
 40
1.0
 10
103.660765326685
 20
27.19689418174857
 30
0.0
 10
103.6243606420512
 20
27.66309991054777
 30
0.0
 10
103.6325446409223
 20
28.12337929533683
 30
0.0
 10
103.4561653549057
 20
28.5785789566886
 30
0.0
  0
SPLINE
  5
52
330
1F
100
AcDbEntity
  8
Default
100
AcDbSpline
210
0.0
220
0.0
230
1.0
 70
     8
 71
     3
 72
     8
 73
     4
 74
     0
 42
0.0000000001
 43
0.0000000001
 40
0.0
 40
0.0
 40
0.0
 40
0.0
 40
1.0
 40
1.0
 40
1.0
 40
1.0
 10
103.4561653549057
 20
28.5785789566886
 30
0.0
 10
103.0749038902521
 20
29.56122323494456
 30
0.0
 10
102.2500132454094
 20
29.95998152477101
 30
0.0
 10
101.2817615168924
 20
30.07145323353353
 30
0.0
  0
SPLINE
  5
53
330
1F
100
AcDbEntity
  8
Default
100
AcDbSpline
210
0.0
220
0.0
230
1.0
 70
     8
 71
     3
 72
     8
 73
     4
 74
     0
 42
0.0000000001
 43
0.0000000001
 40
0.0
 40
0.0
 40
0.0
 40
0.0
 40
0.2736588138649552
 40
0.2736588138649552
 40
0.2736588138649552
 40
0.2736588138649552
 10
101.2817615168924
 20
30.07145323353353
 30
0.0
 10
101.0923202666001
 20
30.09330886901365
 30
0.0
 10
100.9029635532305
 20
30.10992321528572
 30
0.0
 10
100.7136508918042
 20
30.12252817244008
 30
0.0
  0
LINE
  5
54
330
1F
100
AcDbEntity
  8
Default
100
AcDbLine
 10
102.5697726083282
 20
10.79937760209565
 30
0.0
 11
105.9899596261065
 21
10.79937760209565
 31
0.0
  0
SPLINE
  5
55
330
1F
100
AcDbEntity
  8
Default
100
AcDbSpline
210
0.0
220
0.0
230
1.0
 70
     8
 71
     3
 72
     8
 73
     4
 74
     0
 42
0.0000000001
 43
0.0000000001
 40
0.0
 40
0.0
 40
0.0
 40
0.0
 40
1.0
 40
1.0
 40
1.0
 40
1.0
 10
105.9899596261065
 20
10.79937760209565
 30
0.0
 10
106.4547543206175
 20
10.79937760209565
 30
0.0
 10
106.7016853210408
 20
11.0457441888037
 30
0.0
 10
106.7016853210408
 20
11.51053888331479
 30
0.0
  0
LINE
  5
56
330
1F
100
AcDbEntity
  8
Default
100
AcDbLine
 10
106.7016853210408
 20
11.51053888331479
 30
0.0
 11
106.7016853210408
 21
15.87966545309045
 31
0.0
  0
SPLINE
  5
57
330
1F
100
AcDbEntity
  8
Default
100
AcDbSpline
210
0.0
220
0.0
230
1.0
 70
     8
 71
     3
 72
     8
 73
     4
 74
     0
 42
0.0000000001
 43
0.0000000001
 40
0.0
 40
0.0
 40
0.0
 40
0.0
 40
1.0
 40
1.0
 40
1.0
 40
1.0
 10
106.7016853210408
 20
15.87966545309045
 30
0.0
 10
106.7016853210408
 20
17.20688430450853
 30
0.0
 10
105.9970147975471
 20
17.91155482800226
 30
0.0
 10
104.6697959461291
 20
17.91155482800226
 30
0.0
  0
LINE
  5
58
330
1F
100
AcDbEntity
  8
Default
100
AcDbLine
 10
104.6697959461291
 20
17.91155482800226
 30
0.0
 11
104.3823040675919
 21
17.91155482800226
 31
0.0
  0
LINE
  5
59
330
1F
100
AcDbEntity
  8
Default
100
AcDbLine
 10
98.43934582619107
 20
43.61416524143535
 30
0.0
 11
98.43793479190296
 21
43.61416524143535
 31
0.0
  0
SPLINE
  5
5A
330
1F
100
AcDbEntity
  8
Default
100
AcDbSpline
210
0.0
220
0.0
230
1.0
 70
     8
 71
     3
 72
     8
 73
     4
 74
     0
 42
0.0000000001
 43
0.0000000001
 40
0.0
 40
0.0
 40
0.0
 40
0.0
 40
1.0
 40
1.0
 40
1.0
 40
1.0
 10
98.43793479190296
 20
43.61416524143535
 30
0.0
 10
90.20059882463894
 20
43.61218979343197
 30
0.0
 10
81.9632628573749
 20
43.60993213857095
 30
0.0
 10
73.72592689011088
 20
43.60795669056757
 30
0.0
  0
SPLINE
  5
5B
330
1F
100
AcDbEntity
  8
Default
100
AcDbSpline
210
0.0
220
0.0
230
1.0
 70
     8
 71
     3
 72
     8
 73
     4
 74
     0
 42
0.0000000001
 43
0.0000000001
 40
0.0
 40
0.0
 40
0.0
 40
0.0
 40
1.0
 40
1.0
 40
1.0
 40
1.0
 10
73.72592689011088
 20
43.60795669056757
 30
0.0
 10
73.33168391000649
 20
43.49902484352368
 30
0.0
 10
73.12595511079664
 20
43.14175096176837
 30
0.0
 10
72.96735485681049
 20
42.77939735657575
 30
0.0
  0
SPLINE
  5
5C
330
1F
100
AcDbEntity
  8
Default
100
AcDbSpline
210
0.0
220
0.0
230
1.0
 70
     8
 71
     3
 72
     8
 73
     4
 74
     0
 42
0.0000000001
 43
0.0000000001
 40
0.0
 40
0.0
 40
0.0
 40
0.0
 40
1.0
 40
1.0
 40
1.0
 40
1.0
 10
72.96735485681049
 20
42.77939735657575
 30
0.0
 10
72.80903680968191
 20
42.41704375138314
 30
0.0
 10
72.69784730777704
 20
42.04961042275326
 30
0.0
 10
72.60105035561111
 20
41.67540412954033
 30
0.0
  0
SPLINE
  5
5D
330
1F
100
AcDbEntity
  8
Default
100
AcDbSpline
210
0.0
220
0.0
230
1.0
 70
     8
 71
     3
 72
     8
 73
     4
 74
     0
 42
0.0000000001
 43
0.0000000001
 40
0.0
 40
0.0
 40
0.0
 40
0.0
 40
1.0
 40
1.0
 40
1.0
 40
1.0
 10
72.60105035561111
 20
41.67540412954033
 30
0.0
 10
72.50453561030281
 20
41.3011978363274
 30
0.0
 10
72.4221312078758
 20
40.92050078538906
 30
0.0
 10
72.34847521803528
 20
40.53867490702021
 30
0.0
  0
SPLINE
  5
5E
330
1F
100
AcDbEntity
  8
Default
100
AcDbSpline
210
0.0
220
0.0
230
1.0
 70
     8
 71
     3
 72
     8
 73
     4
 74
     0
 42
0.0000000001
 43
0.0000000001
 40
0.0
 40
0.0
 40
0.0
 40
0.0
 40
1.0
 40
1.0
 40
1.0
 40
1.0
 10
72.34847521803528
 20
40.53867490702021
 30
0.0
 10
72.27453702133707
 20
40.157131235509
 30
0.0
 10
72.2093472372253
 20
39.7747409434249
 30
0.0
 10
72.15403469313051
 20
39.39065741019504
 30
0.0
  0
SPLINE
  5
5F
330
1F
100
AcDbEntity
  8
Default
100
AcDbSpline
210
0.0
220
0.0
230
1.0
 70
     8
 71
     3
 72
     8
 73
     4
 74
     0
 42
0.0000000001
 43
0.0000000001
 40
0.0
 40
0.0
 40
0.0
 40
0.0
 40
1.0
 40
1.0
 40
1.0
 40
1.0
 10
72.15403469313051
 20
39.39065741019504
 30
0.0
 10
72.09843994217803
 20
39.00685608382281
 30
0.0
 10
72.05272243124256
 20
38.6210793094472
 30
0.0
 10
72.0132134711748
 20
38.23502032821395
 30
0.0
  0
SPLINE
  5
60
330
1F
100
AcDbEntity
  8
Default
100
AcDbSpline
210
0.0
220
0.0
230
1.0
 70
     8
 71
     3
 72
     8
 73
     4
 74
     0
 42
0.0000000001
 43
0.0000000001
 40
0.0
 40
0.0
 40
0.0
 40
0.0
 40
1.0
 40
1.0
 40
1.0
 40
1.0
 10
72.0132134711748
 20
38.23502032821395
 30
0.0
 10
71.97370451110709
 20
37.84867914012308
 30
0.0
 10
71.94068630876475
 20
37.46205574517458
 30
0.0
 10
71.91359445043261
 20
37.07458572965321
 30
0.0
  0
SPLINE
  5
61
330
1F
100
AcDbEntity
  8
Default
100
AcDbSpline
210
0.0
220
0.0
230
1.0
 70
     8
 71
     3
 72
     8
 73
     4
 74
     0
 42
0.0000000001
 43
0.0000000001
 40
0.0
 40
0.0
 40
0.0
 40
0.0
 40
1.0
 40
1.0
 40
1.0
 40
1.0
 10
71.91359445043261
 20
37.07458572965321
 30
0.0
 10
71.88650259210044
 20
36.68739792098945
 30
0.0
 10
71.86477266406317
 20
36.29992790546807
 30
0.0
 10
71.84868687317848
 20
35.91217568308907
 30
0.0
  0
SPLINE
  5
62
330
1F
100
AcDbEntity
  8
Default
100
AcDbSpline
210
0.0
220
0.0
230
1.0
 70
     8
 71
     3
 72
     8
 73
     4
 74
     0
 42
0.0000000001
 43
0.0000000001
 40
0.0
 40
0.0
 40
0.0
 40
0.0
 40
1.0
 40
1.0
 40
1.0
 40
1.0
 10
71.84868687317848
 20
35.91217568308907
 30
0.0
 10
71.8323188754361
 20
35.52414125385243
 30
0.0
 10
71.82103060113107
 20
35.13610682461581
 30
0.0
 10
71.8148220502633
 20
34.74807239537918
 30
0.0
  0
SPLINE
  5
63
330
1F
100
AcDbEntity
  8
Default
100
AcDbSpline
210
0.0
220
0.0
230
1.0
 70
     8
 71
     3
 72
     8
 73
     4
 74
     0
 42
0.0000000001
 43
0.0000000001
 40
0.0
 40
0.0
 40
0.0
 40
0.0
 40
1.0
 40
1.0
 40
1.0
 40
1.0
 10
71.8148220502633
 20
34.74807239537918
 30
0.0
 10
71.8086134993955
 20
34.36003796614254
 30
0.0
 10
71.80720246510734
 20
33.97172133004829
 30
0.0
 10
71.81087115425655
 20
33.58368690081166
 30
0.0
  0
SPLINE
  5
64
330
1F
100
AcDbEntity
  8
Default
100
AcDbSpline
210
0.0
220
0.0
230
1.0
 70
     8
 71
     3
 72
     8
 73
     4
 74
     0
 42
0.0000000001
 43
0.0000000001
 40
0.0
 40
0.0
 40
0.0
 40
0.0
 40
1.0
 40
1.0
 40
1.0
 40
1.0
 10
71.81087115425655
 20
33.58368690081166
 30
0.0
 10
71.81453984340564
 20
33.19537026471741
 30
0.0
 10
71.82328825599208
 20
32.80733583548078
 30
0.0
 10
71.83739859887339
 20
32.41958361310176
 30
0.0
  0
SPLINE
  5
65
330
1F
100
AcDbEntity
  8
Default
100
AcDbSpline
210
0.0
220
0.0
230
1.0
 70
     8
 71
     3
 72
     8
 73
     4
 74
     0
 42
0.0000000001
 43
0.0000000001
 40
0.0
 40
0.0
 40
0.0
 40
0.0
 40
1.0
 40
1.0
 40
1.0
 40
1.0
 10
71.83739859887339
 20
32.41958361310176
 30
0.0
 10
71.8512267348971
 20
32.03154918386513
 30
0.0
 10
71.8704168012157
 20
31.64379696148613
 30
0.0
 10
71.8958154184021
 20
31.25660915282238
 30
0.0
  0
SPLINE
  5
66
330
1F
100
AcDbEntity
  8
Default
100
AcDbSpline
210
0.0
220
0.0
230
1.0
 70
     8
 71
     3
 72
     8
 73
     4
 74
     0
 42
0.0000000001
 43
0.0000000001
 40
0.0
 40
0.0
 40
0.0
 40
0.0
 40
1.0
 40
1.0
 40
1.0
 40
1.0
 10
71.8958154184021
 20
31.25660915282238
 30
0.0
 10
71.92093182873089
 20
30.86913913730099
 30
0.0
 10
71.95225678992745
 20
30.48223353549486
 30
0.0
 10
71.99063692256468
 20
30.095892347404
 30
0.0
  0
SPLINE
  5
67
330
1F
100
AcDbEntity
  8
Default
100
AcDbSpline
210
0.0
220
0.0
230
1.0
 70
     8
 71
     3
 72
     8
 73
     4
 74
     0
 42
0.0000000001
 43
0.0000000001
 40
0.0
 40
0.0
 40
0.0
 40
0.0
 40
1.0
 40
1.0
 40
1.0
 40
1.0
 10
71.99063692256468
 20
30.095892347404
 30
0.0
 10
72.02873484834427
 20
29.70955115931312
 30
0.0
 10
72.07388794556454
 20
29.32377438493751
 30
0.0
 10
72.12948269651696
 20
28.93969085170766
 30
0.0
  0
SPLINE
  5
68
330
1F
100
AcDbEntity
  8
Default
100
AcDbSpline
210
0.0
220
0.0
230
1.0
 70
     8
 71
     3
 72
     8
 73
     4
 74
     0
 42
0.0000000001
 43
0.0000000001
 40
0.0
 40
0.0
 40
0.0
 40
0.0
 40
1.0
 40
1.0
 40
1.0
 40
1.0
 10
72.12948269651696
 20
28.93969085170766
 30
0.0
 10
72.1847952406118
 20
28.55588952533542
 30
0.0
 10
72.25054943843881
 20
28.17349923325133
 30
0.0
 10
72.32589866942513
 20
27.79223776859773
 30
0.0
  0
SPLINE
  5
69
330
1F
100
AcDbEntity
  8
Default
100
AcDbSpline
210
0.0
220
0.0
230
1.0
 70
     8
 71
     3
 72
     8
 73
     4
 74
     0
 42
0.0000000001
 43
0.0000000001
 40
0.0
 40
0.0
 40
0.0
 40
0.0
 40
1.0
 40
1.0
 40
1.0
 40
1.0
 10
72.32589866942513
 20
27.79223776859773
 30
0.0
 10
72.40124790041145
 20
27.41097630394414
 30
0.0
 10
72.48619216455702
 20
27.03056145986342
 30
0.0
 10
72.58496456472636
 20
26.65691958036576
 30
0.0
  0
SPLINE
  5
6A
330
1F
100
AcDbEntity
  8
Default
100
AcDbSpline
210
0.0
220
0.0
230
1.0
 70
     8
 71
     3
 72
     8
 73
     4
 74
     0
 42
0.0000000001
 43
0.0000000001
 40
0.0
 40
0.0
 40
0.0
 40
0.0
 40
1.0
 40
1.0
 40
1.0
 40
1.0
 10
72.58496456472636
 20
26.65691958036576
 30
0.0
 10
72.6837369648957
 20
26.28355990772571
 30
0.0
 10
72.79633750108874
 20
25.91669099281107
 30
0.0
 10
72.96001747851219
 20
25.55207973275746
 30
0.0
  0
SPLINE
  5
6B
330
1F
100
AcDbEntity
  8
Default
100
AcDbSpline
210
0.0
220
0.0
230
1.0
 70
     8
 71
     3
 72
     8
 73
     4
 74
     0
 42
0.0000000001
 43
0.0000000001
 40
0.0
 40
0.0
 40
0.0
 40
0.0
 40
1.0
 40
1.0
 40
1.0
 40
1.0
 10
72.96001747851219
 20
25.55207973275746
 30
0.0
 10
73.123415249078
 20
25.18775067956147
 30
0.0
 10
73.33761025401662
 20
24.82539707436885
 30
0.0
 10
73.73523971641256
 20
24.72549584676903
 30
0.0
  0
LINE
  5
6C
330
1F
100
AcDbEntity
  8
Default
100
AcDbLine
 10
73.73523971641256
 20
24.72549584676903
 30
0.0
 11
98.35863466490989
 21
24.72549584676903
 31
0.0
  0
LINE
  5
6D
330
1F
100
AcDbEntity
  8
Default
100
AcDbLine
 10
98.35863466490989
 20
24.72549584676903
 30
0.0
 11
98.36343218148951
 21
24.72549584676903
 31
0.0
  0
SPLINE
  5
6E
330
1F
100
AcDbEntity
  8
Default
100
AcDbSpline
210
0.0
220
0.0
230
1.0
 70
     8
 71
     3
 72
     8
 73
     4
 74
     0
 42
0.0000000001
 43
0.0000000001
 40
0.0
 40
0.0
 40
0.0
 40
0.0
 40
1.0
 40
1.0
 40
1.0
 40
1.0
 10
98.36343218148951
 20
24.72549584676903
 30
0.0
 10
98.38036459294713
 20
24.72549584676903
 30
0.0
 10
98.39729700440472
 20
24.7252136399114
 30
0.0
 10
98.41422941586234
 20
24.7252136399114
 30
0.0
  0
SPLINE
  5
6F
330
1F
100
AcDbEntity
  8
Default
100
AcDbSpline
210
0.0
220
0.0
230
1.0
 70
     8
 71
     3
 72
     8
 73
     4
 74
     0
 42
0.0000000001
 43
0.0000000001
 40
0.0
 40
0.0
 40
0.0
 40
0.0
 40
1.0
 40
1.0
 40
1.0
 40
1.0
 10
98.41422941586234
 20
24.7252136399114
 30
0.0
 10
98.44160348105211
 20
24.7252136399114
 30
0.0
 10
98.46925975309952
 20
24.72549584676903
 30
0.0
 10
98.4966338182893
 20
24.72606026048427
 30
0.0
  0
SPLINE
  5
70
330
1F
100
AcDbEntity
  8
Default
100
AcDbSpline
210
0.0
220
0.0
230
1.0
 70
     8
 71
     3
 72
     8
 73
     4
 74
     0
 42
0.0000000001
 43
0.0000000001
 40
0.0
 40
0.0
 40
0.0
 40
0.0
 40
1.0
 40
1.0
 40
1.0
 40
1.0
 10
98.4966338182893
 20
24.72606026048427
 30
0.0
 10
98.53021643434687
 20
24.72690688105715
 30
0.0
 10
98.56379905040444
 20
24.72860012220292
 30
0.0
 10
98.59738166646204
 20
24.73113998392156
 30
0.0
  0
SPLINE
  5
71
330
1F
100
AcDbEntity
  8
Default
100
AcDbSpline
210
0.0
220
0.0
230
1.0
 70
     8
 71
     3
 72
     8
 73
     4
 74
     0
 42
0.0000000001
 43
0.0000000001
 40
0.0
 40
0.0
 40
0.0
 40
0.0
 40
1.0
 40
1.0
 40
1.0
 40
1.0
 10
98.59738166646204
 20
24.73113998392156
 30
0.0
 10
98.67131986316019
 20
24.73621970735883
 30
0.0
 10
98.7446936461431
 20
24.74525032680289
 30
0.0
 10
98.81778522226841
 20
24.75794963539609
 30
0.0
  0
SPLINE
  5
72
330
1F
100
AcDbEntity
  8
Default
100
AcDbSpline
210
0.0
220
0.0
230
1.0
 70
     8
 71
     3
 72
     8
 73
     4
 74
     0
 42
0.0000000001
 43
0.0000000001
 40
0.0
 40
0.0
 40
0.0
 40
0.0
 40
1.0
 40
1.0
 40
1.0
 40
1.0
 10
98.81778522226841
 20
24.75794963539609
 30
0.0
 10
98.9636861676614
 20
24.78306604572486
 30
0.0
 10
99.107611665051
 20
24.82285721265022
 30
0.0
 10
99.24589302528804
 20
24.87619430874166
 30
0.0
  0
SPLINE
  5
73
330
1F
100
AcDbEntity
  8
Default
100
AcDbSpline
210
0.0
220
0.0
230
1.0
 70
     8
 71
     3
 72
     8
 73
     4
 74
     0
 42
0.0000000001
 43
0.0000000001
 40
0.0
 40
0.0
 40
0.0
 40
0.0
 40
1.0
 40
1.0
 40
1.0
 40
1.0
 10
99.24589302528804
 20
24.87619430874166
 30
0.0
 10
99.53317960635195
 20
24.98710160378893
 30
0.0
 10
99.79704301823287
 20
25.15755454579541
 30
0.0
 10
100.0171643671816
 20
25.37287837816454
 30
0.0
  0
SPLINE
  5
74
330
1F
100
AcDbEntity
  8
Default
100
AcDbSpline
210
0.0
220
0.0
230
1.0
 70
     8
 71
     3
 72
     8
 73
     4
 74
     0
 42
0.0000000001
 43
0.0000000001
 40
0.0
 40
0.0
 40
0.0
 40
0.0
 40
1.0
 40
1.0
 40
1.0
 40
1.0
 10
100.0171643671816
 20
25.37287837816454
 30
0.0
 10
100.2384145435609
 20
25.58904883110655
 30
0.0
 10
100.4150760364352
 20
25.85065458812645
 30
0.0
 10
100.533885123496
 20
26.13596572118698
 30
0.0
  0
SPLINE
  5
75
330
1F
100
AcDbEntity
  8
Default
100
AcDbSpline
210
0.0
220
0.0
230
1.0
 70
     8
 71
     3
 72
     8
 73
     4
 74
     0
 42
0.0000000001
 43
0.0000000001
 40
0.0
 40
0.0
 40
0.0
 40
0.0
 40
1.0
 40
1.0
 40
1.0
 40
1.0
 10
100.533885123496
 20
26.13596572118698
 30
0.0
 10
100.6532586242721
 20
26.42297009539327
 30
0.0
 10
100.7139330986618
 20
26.73396205249783
 30
0.0
 10
100.7136508918042
 20
27.04523621646002
 30
0.0
  0
LINE
  5
76
330
1F
100
AcDbEntity
  8
Default
100
AcDbLine
 10
100.7136508918042
 20
27.04523621646002
 30
0.0
 11
100.7136508918042
 21
41.29442487174436
 31
0.0
  0
SPLINE
  5
77
330
1F
100
AcDbEntity
  8
Default
100
AcDbSpline
210
0.0
220
0.0
230
1.0
 70
     8
 71
     3
 72
     8
 73
     4
 74
     0
 42
0.0000000001
 43
0.0000000001
 40
0.0
 40
0.0
 40
0.0
 40
0.0
 40
1.0
 40
1.0
 40
1.0
 40
1.0
 10
100.7136508918042
 20
41.29442487174436
 30
0.0
 10
100.7139330986618
 20
41.45076747086952
 30
0.0
 10
100.6981295146347
 20
41.60739227685231
 30
0.0
 10
100.6673689671534
 20
41.76063060054359
 30
0.0
  0
SPLINE
  5
78
330
1F
100
AcDbEntity
  8
Default
100
AcDbSpline
210
0.0
220
0.0
230
1.0
 70
     8
 71
     3
 72
     8
 73
     4
 74
     0
 42
0.0000000001
 43
0.0000000001
 40
0.0
 40
0.0
 40
0.0
 40
0.0
 40
1.0
 40
1.0
 40
1.0
 40
1.0
 10
100.6673689671534
 20
41.76063060054359
 30
0.0
 10
100.637455040245
 20
41.90794258022468
 30
0.0
 10
100.5939951841705
 20
42.05271469818715
 30
0.0
 10
100.5367071920723
 20
42.19156047213946
 30
0.0
  0
SPLINE
  5
79
330
1F
100
AcDbEntity
  8
Default
100
AcDbSpline
210
0.0
220
0.0
230
1.0
 70
     8
 71
     3
 72
     8
 73
     4
 74
     0
 42
0.0000000001
 43
0.0000000001
 40
0.0
 40
0.0
 40
0.0
 40
0.0
 40
1.0
 40
1.0
 40
1.0
 40
1.0
 10
100.5367071920723
 20
42.19156047213946
 30
0.0
 10
100.4229778284488
 20
42.46755877889832
 30
0.0
 10
100.2561935755914
 20
42.72154495076229
 30
0.0
 10
100.0473605009477
 20
42.9346111282704
 30
0.0
  0
SPLINE
  5
7A
330
1F
100
AcDbEntity
  8
Default
100
AcDbSpline
210
0.0
220
0.0
230
1.0
 70
     8
 71
     3
 72
     8
 73
     4
 74
     0
 42
0.0000000001
 43
0.0000000001
 40
0.0
 40
0.0
 40
0.0
 40
0.0
 40
1.0
 40
1.0
 40
1.0
 40
1.0
 10
100.0473605009477
 20
42.9346111282704
 30
0.0
 10
99.8399384605921
 20
43.14626627149038
 30
0.0
 10
99.59074980530781
 20
43.31700142035451
 30
0.0
 10
99.31842018769808
 20
43.43355285255431
 30
0.0
  0
SPLINE
  5
7B
330
1F
100
AcDbEntity
  8
Default
100
AcDbSpline
210
0.0
220
0.0
230
1.0
 70
     8
 71
     3
 72
     8
 73
     4
 74
     0
 42
0.0000000001
 43
0.0000000001
 40
0.0
 40
0.0
 40
0.0
 40
0.0
 40
1.0
 40
1.0
 40
1.0
 40
1.0
 10
99.31842018769808
 20
43.43355285255431
 30
0.0
 10
99.04157526036633
 20
43.55207973275749
 30
0.0
 10
98.74046054327872
 20
43.61416524143535
 30
0.0
 10
98.43934582619107
 20
43.61416524143535
 30
0.0
  0
LINE
  5
7C
330
1F
100
AcDbEntity
  8
Default
100
AcDbLine
 10
73.94209734305292
 20
8.399405822781404
 30
0.0
 11
98.92474162130893
 21
8.399405822781404
 31
0.0
  0
LINE
  5
7D
330
1F
100
AcDbEntity
  8
Default
100
AcDbLine
 10
98.92474162130893
 20
8.399405822781404
 30
0.0
 11
98.92474162130893
 21
10.79929294003836
 31
0.0
  0
LINE
  5
7E
330
1F
100
AcDbEntity
  8
Default
100
AcDbLine
 10
98.92474162130893
 20
10.79929294003836
 30
0.0
 11
73.94209734305292
 21
10.79929294003836
 31
0.0
  0
LINE
  5
7F
330
1F
100
AcDbEntity
  8
Default
100
AcDbLine
 10
73.94209734305292
 20
10.79929294003836
 30
0.0
 11
73.94209734305292
 21
8.399405822781404
 31
0.0
  0
LINE
  5
80
330
1F
100
AcDbEntity
  8
Default
100
AcDbLine
 10
96.92471340062318
 20
8.399434043467174
 30
0.0
 11
96.92471340062318
 21
6.180723728806525
 31
0.0
  0
LINE
  5
81
330
1F
100
AcDbEntity
  8
Default
100
AcDbLine
 10
96.92471340062318
 20
6.180723728806525
 30
0.0
 11
96.92471340062318
 21
0.9974303747780092
 31
0.0
  0
SPLINE
  5
82
330
1F
100
AcDbEntity
  8
Default
100
AcDbSpline
210
0.0
220
0.0
230
1.0
 70
     8
 71
     3
 72
     8
 73
     4
 74
     0
 42
0.0000000001
 43
0.0000000001
 40
0.0
 40
0.0
 40
0.0
 40
0.0
 40
1.0
 40
1.0
 40
1.0
 40
1.0
 10
96.92471340062318
 20
0.9974303747780092
 30
0.0
 10
96.92471340062318
 20
0.9065597666222265
 30
0.0
 10
96.93007533091807
 20
0.8156891584664485
 30
0.0
 10
96.94390346694178
 20
0.7256651708835513
 30
0.0
  0
SPLINE
  5
83
330
1F
100
AcDbEntity
  8
Default
100
AcDbSpline
210
0.0
220
0.0
230
1.0
 70
     8
 71
     3
 72
     8
 73
     4
 74
     0
 42
0.0000000001
 43
0.0000000001
 40
0.0
 40
0.0
 40
0.0
 40
0.0
 40
1.0
 40
1.0
 40
1.0
 40
1.0
 10
96.94390346694178
 20
0.7256651708835513
 30
0.0
 10
96.95744939610785
 20
0.6356411833006541
 30
0.0
 10
96.97946153100273
 20
0.5470282300058857
 30
0.0
 10
97.01445518134844
 20
0.4629305864331463
 30
0.0
  0
SPLINE
  5
84
330
1F
100
AcDbEntity
  8
Default
100
AcDbSpline
210
0.0
220
0.0
230
1.0
 70
     8
 71
     3
 72
     8
 73
     4
 74
     0
 42
0.0000000001
 43
0.0000000001
 40
0.0
 40
0.0
 40
0.0
 40
0.0
 40
1.0
 40
1.0
 40
1.0
 40
1.0
 10
97.01445518134844
 20
0.4629305864331463
 30
0.0
 10
97.04973103855176
 20
0.3788329428604114
 30
0.0
 10
97.0977062043483
 20
0.299815022724953
 30
0.0
 10
97.16007391988376
 20
0.2340608248979434
 30
0.0
  0
SPLINE
  5
85
330
1F
100
AcDbEntity
  8
Default
100
AcDbSpline
210
0.0
220
0.0
230
1.0
 70
     8
 71
     3
 72
     8
 73
     4
 74
     0
 42
0.0000000001
 43
0.0000000001
 40
0.0
 40
0.0
 40
0.0
 40
0.0
 40
1.0
 40
1.0
 40
1.0
 40
1.0
 10
97.16007391988376
 20
0.2340608248979434
 30
0.0
 10
97.2227238422769
 20
0.1685888339285626
 30
0.0
 10
97.29976631440894
 20
0.1163805652676349
 30
0.0
 10
97.38273513055123
 20
0.0796936737761749
 30
0.0
  0
SPLINE
  5
86
330
1F
100
AcDbEntity
  8
Default
100
AcDbSpline
210
0.0
220
0.0
230
1.0
 70
     8
 71
     3
 72
     8
 73
     4
 74
     0
 42
0.0000000001
 43
0.0000000001
 40
0.0
 40
0.0
 40
0.0
 40
0.0
 40
1.0
 40
1.0
 40
1.0
 40
1.0
 10
97.38273513055123
 20
0.0796936737761749
 30
0.0
 10
97.46598615355106
 20
0.0432889891423343
 30
0.0
 10
97.55544572741871
 20
0.0221234748203374
 30
0.0
 10
97.64744516300499
 20
0.0108352005152745
 30
0.0
  0
SPLINE
  5
87
330
1F
100
AcDbEntity
  8
Default
100
AcDbSpline
210
0.0
220
0.0
230
1.0
 70
     8
 71
     3
 72
     8
 73
     4
 74
     0
 42
0.0000000001
 43
0.0000000001
 40
0.0
 40
0.0
 40
0.0
 40
0.0
 40
1.0
 40
1.0
 40
1.0
 40
1.0
 10
97.64744516300499
 20
0.0108352005152745
 30
0.0
 10
97.7397268054489
 20
-0.000735280647417
 30
0.0
 10
97.83426610275382
 20
-0.0024285217931788
 30
0.0
 10
97.92513671090958
 20
-0.0024285217931788
 30
0.0
  0
SPLINE
  5
88
330
1F
100
AcDbEntity
  8
Default
100
AcDbSpline
210
0.0
220
0.0
230
1.0
 70
     8
 71
     3
 72
     8
 73
     4
 74
     0
 42
0.0000000001
 43
0.0000000001
 40
0.0
 40
0.0
 40
0.0
 40
0.0
 40
1.0
 40
1.0
 40
1.0
 40
1.0
 10
97.92513671090958
 20
-0.0024285217931788
 30
0.0
 10
98.01600731906538
 20
-0.0024285217931788
 30
0.0
 10
98.11054661637033
 20
-0.000735280647417
 30
0.0
 10
98.2025460519566
 20
0.0108352005152745
 30
0.0
  0
SPLINE
  5
89
330
1F
100
AcDbEntity
  8
Default
100
AcDbSpline
210
0.0
220
0.0
230
1.0
 70
     8
 71
     3
 72
     8
 73
     4
 74
     0
 42
0.0000000001
 43
0.0000000001
 40
0.0
 40
0.0
 40
0.0
 40
0.0
 40
1.0
 40
1.0
 40
1.0
 40
1.0
 10
98.2025460519566
 20
0.0108352005152745
 30
0.0
 10
98.29454548754288
 20
0.0224056816779659
 30
0.0
 10
98.38400506141053
 20
0.0435711959999583
 30
0.0
 10
98.46697387755276
 20
0.0799758806337987
 30
0.0
  0
SPLINE
  5
8A
330
1F
100
AcDbEntity
  8
Default
100
AcDbSpline
210
0.0
220
0.0
230
1.0
 70
     8
 71
     3
 72
     8
 73
     4
 74
     0
 42
0.0000000001
 43
0.0000000001
 40
0.0
 40
0.0
 40
0.0
 40
0.0
 40
1.0
 40
1.0
 40
1.0
 40
1.0
 10
98.46697387755276
 20
0.0799758806337987
 30
0.0
 10
98.55022490055259
 20
0.1166627721252633
 30
0.0
 10
98.62698516582708
 20
0.1688710407861911
 30
0.0
 10
98.68935288136257
 20
0.2343430317555719
 30
0.0
  0
SPLINE
  5
8B
330
1F
100
AcDbEntity
  8
Default
100
AcDbSpline
210
0.0
220
0.0
230
1.0
 70
     8
 71
     3
 72
     8
 73
     4
 74
     0
 42
0.0000000001
 43
0.0000000001
 40
0.0
 40
0.0
 40
0.0
 40
0.0
 40
1.0
 40
1.0
 40
1.0
 40
1.0
 10
98.68935288136257
 20
0.2343430317555719
 30
0.0
 10
98.75172059689805
 20
0.300097229582577
 30
0.0
 10
98.7999779695522
 20
0.3793973565756639
 30
0.0
 10
98.83497161989789
 20
0.4632127932907748
 30
0.0
  0
SPLINE
  5
8C
330
1F
100
AcDbEntity
  8
Default
100
AcDbSpline
210
0.0
220
0.0
230
1.0
 70
     8
 71
     3
 72
     8
 73
     4
 74
     0
 42
0.0000000001
 43
0.0000000001
 40
0.0
 40
0.0
 40
0.0
 40
0.0
 40
1.0
 40
1.0
 40
1.0
 40
1.0
 10
98.83497161989789
 20
0.4632127932907748
 30
0.0
 10
98.8699652702436
 20
0.5473104368635142
 30
0.0
 10
98.89169519828084
 20
0.6359233901582781
 30
0.0
 10
98.90552333430455
 20
0.7259473777411798
 30
0.0
  0
SPLINE
  5
8D
330
1F
100
AcDbEntity
  8
Default
100
AcDbSpline
210
0.0
220
0.0
230
1.0
 70
     8
 71
     3
 72
     8
 73
     4
 74
     0
 42
0.0000000001
 43
0.0000000001
 40
0.0
 40
0.0
 40
0.0
 40
0.0
 40
1.0
 40
1.0
 40
1.0
 40
1.0
 10
98.90552333430455
 20
0.7259473777411798
 30
0.0
 10
98.91906926347062
 20
0.8156891584664485
 30
0.0
 10
98.92471340062315
 20
0.9065597666222265
 30
0.0
 10
98.92471340062315
 20
0.9974303747780092
 30
0.0
  0
LINE
  5
8E
330
1F
100
AcDbEntity
  8
Default
100
AcDbLine
 10
98.92471340062315
 20
0.9974303747780092
 30
0.0
 11
98.92471340062315
 21
8.399434043467174
 31
0.0
  0
LINE
  5
8F
330
1F
100
AcDbEntity
  8
Default
100
AcDbLine
 10
98.92471340062315
 20
8.399434043467174
 30
0.0
 11
96.92471340062318
 21
8.399434043467174
 31
0.0
  0
LINE
  5
90
330
1F
100
AcDbEntity
  8
Default
100
AcDbLine
 10
73.94209734305292
 20
8.399434043467174
 30
0.0
 11
73.94209734305292
 21
6.180723728806525
 31
0.0
  0
LINE
  5
91
330
1F
100
AcDbEntity
  8
Default
100
AcDbLine
 10
73.94209734305292
 20
6.180723728806525
 30
0.0
 11
73.94209734305292
 21
0.9974303747780092
 31
0.0
  0
SPLINE
  5
92
330
1F
100
AcDbEntity
  8
Default
100
AcDbSpline
210
0.0
220
0.0
230
1.0
 70
     8
 71
     3
 72
     8
 73
     4
 74
     0
 42
0.0000000001
 43
0.0000000001
 40
0.0
 40
0.0
 40
0.0
 40
0.0
 40
1.0
 40
1.0
 40
1.0
 40
1.0
 10
73.94209734305292
 20
0.9974303747780092
 30
0.0
 10
73.94209734305292
 20
0.9065597666222265
 30
0.0
 10
73.94745927334782
 20
0.8156891584664485
 30
0.0
 10
73.96128740937152
 20
0.7256651708835513
 30
0.0
  0
SPLINE
  5
93
330
1F
100
AcDbEntity
  8
Default
100
AcDbSpline
210
0.0
220
0.0
230
1.0
 70
     8
 71
     3
 72
     8
 73
     4
 74
     0
 42
0.0000000001
 43
0.0000000001
 40
0.0
 40
0.0
 40
0.0
 40
0.0
 40
1.0
 40
1.0
 40
1.0
 40
1.0
 10
73.96128740937152
 20
0.7256651708835513
 30
0.0
 10
73.9748333385376
 20
0.6356411833006541
 30
0.0
 10
73.99684547343247
 20
0.5470282300058857
 30
0.0
 10
74.03183912377818
 20
0.4629305864331463
 30
0.0
  0
SPLINE
  5
94
330
1F
100
AcDbEntity
  8
Default
100
AcDbSpline
210
0.0
220
0.0
230
1.0
 70
     8
 71
     3
 72
     8
 73
     4
 74
     0
 42
0.0000000001
 43
0.0000000001
 40
0.0
 40
0.0
 40
0.0
 40
0.0
 40
1.0
 40
1.0
 40
1.0
 40
1.0
 10
74.03183912377818
 20
0.4629305864331463
 30
0.0
 10
74.0671149809815
 20
0.3788329428604114
 30
0.0
 10
74.11509014677807
 20
0.299815022724953
 30
0.0
 10
74.17745786231353
 20
0.2340608248979434
 30
0.0
  0
SPLINE
  5
95
330
1F
100
AcDbEntity
  8
Default
100
AcDbSpline
210
0.0
220
0.0
230
1.0
 70
     8
 71
     3
 72
     8
 73
     4
 74
     0
 42
0.0000000001
 43
0.0000000001
 40
0.0
 40
0.0
 40
0.0
 40
0.0
 40
1.0
 40
1.0
 40
1.0
 40
1.0
 10
74.17745786231353
 20
0.2340608248979434
 30
0.0
 10
74.24010778470665
 20
0.1685888339285626
 30
0.0
 10
74.31715025683872
 20
0.1163805652676349
 30
0.0
 10
74.40011907298097
 20
0.0796936737761749
 30
0.0
  0
SPLINE
  5
96
330
1F
100
AcDbEntity
  8
Default
100
AcDbSpline
210
0.0
220
0.0
230
1.0
 70
     8
 71
     3
 72
     8
 73
     4
 74
     0
 42
0.0000000001
 43
0.0000000001
 40
0.0
 40
0.0
 40
0.0
 40
0.0
 40
1.0
 40
1.0
 40
1.0
 40
1.0
 10
74.40011907298097
 20
0.0796936737761749
 30
0.0
 10
74.4833700959808
 20
0.0432889891423343
 30
0.0
 10
74.57282966984846
 20
0.0221234748203374
 30
0.0
 10
74.66482910543473
 20
0.0108352005152745
 30
0.0
  0
SPLINE
  5
97
330
1F
100
AcDbEntity
  8
Default
100
AcDbSpline
210
0.0
220
0.0
230
1.0
 70
     8
 71
     3
 72
     8
 73
     4
 74
     0
 42
0.0000000001
 43
0.0000000001
 40
0.0
 40
0.0
 40
0.0
 40
0.0
 40
1.0
 40
1.0
 40
1.0
 40
1.0
 10
74.66482910543473
 20
0.0108352005152745
 30
0.0
 10
74.75682854102101
 20
-0.000735280647417
 30
0.0
 10
74.85165004518356
 20
-0.0024285217931788
 30
0.0
 10
74.94252065333933
 20
-0.0024285217931788
 30
0.0
  0
SPLINE
  5
98
330
1F
100
AcDbEntity
  8
Default
100
AcDbSpline
210
0.0
220
0.0
230
1.0
 70
     8
 71
     3
 72
     8
 73
     4
 74
     0
 42
0.0000000001
 43
0.0000000001
 40
0.0
 40
0.0
 40
0.0
 40
0.0
 40
1.0
 40
1.0
 40
1.0
 40
1.0
 10
74.94252065333933
 20
-0.0024285217931788
 30
0.0
 10
75.03339126149513
 20
-0.0024285217931788
 30
0.0
 10
75.12793055880007
 20
-0.000735280647417
 30
0.0
 10
75.21992999438635
 20
0.0108352005152745
 30
0.0
  0
SPLINE
  5
99
330
1F
100
AcDbEntity
  8
Default
100
AcDbSpline
210
0.0
220
0.0
230
1.0
 70
     8
 71
     3
 72
     8
 73
     4
 74
     0
 42
0.0000000001
 43
0.0000000001
 40
0.0
 40
0.0
 40
0.0
 40
0.0
 40
1.0
 40
1.0
 40
1.0
 40
1.0
 10
75.21992999438635
 20
0.0108352005152745
 30
0.0
 10
75.31192942997262
 20
0.0224056816779659
 30
0.0
 10
75.40138900384031
 20
0.0435711959999583
 30
0.0
 10
75.4843578199825
 20
0.0799758806337987
 30
0.0
  0
SPLINE
  5
9A
330
1F
100
AcDbEntity
  8
Default
100
AcDbSpline
210
0.0
220
0.0
230
1.0
 70
     8
 71
     3
 72
     8
 73
     4
 74
     0
 42
0.0000000001
 43
0.0000000001
 40
0.0
 40
0.0
 40
0.0
 40
0.0
 40
1.0
 40
1.0
 40
1.0
 40
1.0
 10
75.4843578199825
 20
0.0799758806337987
 30
0.0
 10
75.56760884298237
 20
0.1166627721252633
 30
0.0
 10
75.64436910825683
 20
0.1688710407861911
 30
0.0
 10
75.70673682379228
 20
0.2343430317555719
 30
0.0
  0
SPLINE
  5
9B
330
1F
100
AcDbEntity
  8
Default
100
AcDbSpline
210
0.0
220
0.0
230
1.0
 70
     8
 71
     3
 72
     8
 73
     4
 74
     0
 42
0.0000000001
 43
0.0000000001
 40
0.0
 40
0.0
 40
0.0
 40
0.0
 40
1.0
 40
1.0
 40
1.0
 40
1.0
 10
75.70673682379228
 20
0.2343430317555719
 30
0.0
 10
75.7691045393278
 20
0.300097229582577
 30
0.0
 10
75.81736191198195
 20
0.3793973565756639
 30
0.0
 10
75.85235556232763
 20
0.4632127932907748
 30
0.0
  0
SPLINE
  5
9C
330
1F
100
AcDbEntity
  8
Default
100
AcDbSpline
210
0.0
220
0.0
230
1.0
 70
     8
 71
     3
 72
     8
 73
     4
 74
     0
 42
0.0000000001
 43
0.0000000001
 40
0.0
 40
0.0
 40
0.0
 40
0.0
 40
1.0
 40
1.0
 40
1.0
 40
1.0
 10
75.85235556232763
 20
0.4632127932907748
 30
0.0
 10
75.88734921267337
 20
0.5473104368635142
 30
0.0
 10
75.90907914071059
 20
0.6359233901582781
 30
0.0
 10
75.92290727673432
 20
0.7259473777411798
 30
0.0
  0
SPLINE
  5
9D
330
1F
100
AcDbEntity
  8
Default
100
AcDbSpline
210
0.0
220
0.0
230
1.0
 70
     8
 71
     3
 72
     8
 73
     4
 74
     0
 42
0.0000000001
 43
0.0000000001
 40
0.0
 40
0.0
 40
0.0
 40
0.0
 40
1.0
 40
1.0
 40
1.0
 40
1.0
 10
75.92290727673432
 20
0.7259473777411798
 30
0.0
 10
75.93645320590036
 20
0.8156891584664485
 30
0.0
 10
75.94209734305292
 20
0.9065597666222265
 30
0.0
 10
75.94209734305292
 20
0.9974303747780092
 30
0.0
  0
LINE
  5
9E
330
1F
100
AcDbEntity
  8
Default
100
AcDbLine
 10
75.94209734305292
 20
0.9974303747780092
 30
0.0
 11
75.94209734305292
 21
8.399434043467174
 31
0.0
  0
LINE
  5
9F
330
1F
100
AcDbEntity
  8
Default
100
AcDbLine
 10
75.94209734305292
 20
8.399434043467174
 30
0.0
 11
73.94209734305292
 21
8.399434043467174
 31
0.0
  0
POLYLINE
  5
A0
330
1F
100
AcDbEntity
  8
Default
100
AcDb2dPolyline
 66
     1
 10
0.0
 20
0.0
 30
0.0
  0
VERTEX
  5
A1
330
A0
100
AcDbEntity
  8
Default
100
AcDbVertex
100
AcDb2dVertex
 10
37.68158600253992
 20
30.15950177311304
 30
0.0
  0
VERTEX
  5
A2
330
A0
100
AcDbEntity
  8
Default
100
AcDbVertex
100
AcDb2dVertex
 10
-37.68175532665452
 20
30.15950177311304
 30
0.0
  0
SEQEND
  5
A3
330
A0
100
AcDbEntity
  8
Default
  0
SPLINE
  5
A4
330
1F
100
AcDbEntity
  8
Default
100
AcDbSpline
210
0.0
220
0.0
230
1.0
 70
    24
 71
     3
 72
     8
 73
     4
 74
     0
 42
0.0000000001
 43
0.0000000001
 40
0.0
 40
0.0
 40
0.0
 40
0.0
 40
0.1300912098190001
 40
0.1300912098190001
 40
0.1300912098190001
 40
0.1300912098190001
 10
30.06174686044879
 20
15.87966545309045
 30
0.0
 10
30.06174686044879
 20
15.69019156177512
 30
0.0
 10
30.06174686044879
 20
15.50071767045979
 30
0.0
 10
30.06174686044879
 20
15.31124440045886
 30
0.0
  0
SPLINE
  5
A5
330
1F
100
AcDbEntity
  8
Default
100
AcDbSpline
210
0.0
220
0.0
230
1.0
 70
    24
 71
     3
 72
     8
 73
     4
 74
     0
 42
0.0000000001
 43
0.0000000001
 40
0.8698012127786571
 40
0.8698012127786571
 40
0.8698012127786571
 40
0.8698012127786571
 40
1.0
 40
1.0
 40
1.0
 40
1.0
 10
-30.06157753633419
 20
15.31077435235554
 30
0.0
 10
-30.06157753633419
 20
15.50040430402915
 30
0.0
 10
-30.06157753633419
 20
15.6900348785598
 30
0.0
 10
-30.06157753633419
 20
15.87966545309045
 30
0.0
  0
LINE
  5
A6
330
1F
100
AcDbEntity
  8
Default
100
AcDbLine
 10
-28.02968816142238
 20
17.91155482800226
 30
0.0
 11
28.02985748553696
 21
17.91155482800226
 31
0.0
  0
SPLINE
  5
A7
330
1F
100
AcDbEntity
  8
Default
100
AcDbSpline
210
0.0
220
0.0
230
1.0
 70
     8
 71
     3
 72
     8
 73
     4
 74
     0
 42
0.0000000001
 43
0.0000000001
 40
0.0
 40
0.0
 40
0.0
 40
0.0
 40
1.0
 40
1.0
 40
1.0
 40
1.0
 10
-30.06157753633419
 20
15.87966545309045
 30
0.0
 10
-30.06157753633419
 20
17.00200212587158
 30
0.0
 10
-29.15202483420352
 20
17.91155482800226
 30
0.0
 10
-28.02968816142238
 20
17.91155482800226
 30
0.0
  0
SPLINE
  5
A8
330
1F
100
AcDbEntity
  8
Default
100
AcDbSpline
210
0.0
220
0.0
230
1.0
 70
     8
 71
     3
 72
     8
 73
     4
 74
     0
 42
0.0000000001
 43
0.0000000001
 40
0.0
 40
0.0
 40
0.0
 40
0.0
 40
1.0
 40
1.0
 40
1.0
 40
1.0
 10
28.02985748553696
 20
17.91155482800226
 30
0.0
 10
29.15191195146048
 20
17.91155482800226
 30
0.0
 10
30.06174686044879
 20
17.00171991901397
 30
0.0
 10
30.06174686044879
 20
15.87966545309045
 30
0.0
  0
LINE
  5
A9
330
1F
100
AcDbEntity
  8
Default
100
AcDbLine
 10
-37.53545929166086
 20
22.63443491731516
 30
0.0
 11
-37.53545929166086
 21
17.66724835135487
 31
0.0
  0
LINE
  5
AA
330
1F
100
AcDbEntity
  8
Default
100
AcDbLine
 10
-37.53545929166086
 20
17.66724835135487
 30
0.0
 11
-37.53545929166086
 21
10.79918005729531
 31
0.0
  0
LINE
  5
AB
330
1F
100
AcDbEntity
  8
Default
100
AcDbLine
 10
-37.53545929166086
 20
10.79918005729531
 30
0.0
 11
-39.53545929166086
 21
10.79918005729531
 31
0.0
  0
LINE
  5
AC
330
1F
100
AcDbEntity
  8
Default
100
AcDbLine
 10
-39.53545929166086
 20
10.79918005729531
 30
0.0
 11
-39.53545929166086
 21
24.77491026753945
 31
0.0
  0
SPLINE
  5
AD
330
1F
100
AcDbEntity
  8
Default
100
AcDbSpline
210
0.0
220
0.0
230
1.0
 70
     8
 71
     3
 72
     8
 73
     4
 74
     0
 42
0.0000000001
 43
0.0000000001
 40
0.0
 40
0.0
 40
0.0
 40
0.0
 40
1.0
 40
1.0
 40
1.0
 40
1.0
 10
-39.53545929166086
 20
24.77491026753945
 30
0.0
 10
-39.53545929166086
 20
25.18213476309469
 30
0.0
 10
-39.35061379991541
 20
25.57129801976183
 30
0.0
 10
-39.1894736842106
 20
25.94550431297476
 30
0.0
  0
LINE
  5
AE
330
1F
100
AcDbEntity
  8
Default
100
AcDbLine
 10
-39.1894736842106
 20
25.94550431297476
 30
0.0
 11
-38.75750787802915
 21
25.94550431297476
 31
0.0
  0
LINE
  5
AF
330
1F
100
AcDbEntity
  8
Default
100
AcDbLine
 10
38.75753609871494
 20
25.94550431297476
 30
0.0
 11
39.18947368421059
 21
25.94550431297476
 31
0.0
  0
SPLINE
  5
B0
330
1F
100
AcDbEntity
  8
Default
100
AcDbSpline
210
0.0
220
0.0
230
1.0
 70
     8
 71
     3
 72
     8
 73
     4
 74
     0
 42
0.0000000001
 43
0.0000000001
 40
0.0
 40
0.0
 40
0.0
 40
0.0
 40
1.0
 40
1.0
 40
1.0
 40
1.0
 10
39.18947368421059
 20
25.94550431297476
 30
0.0
 10
39.35061379991541
 20
25.57129801976183
 30
0.0
 10
39.53545929166086
 20
25.18213476309469
 30
0.0
 10
39.53545929166086
 20
24.77491026753945
 30
0.0
  0
LINE
  5
B1
330
1F
100
AcDbEntity
  8
Default
100
AcDbLine
 10
39.53545929166086
 20
24.77491026753945
 30
0.0
 11
39.53545929166086
 21
10.79918005729531
 31
0.0
  0
LINE
  5
B2
330
1F
100
AcDbEntity
  8
Default
100
AcDbLine
 10
39.53545929166086
 20
10.79918005729531
 30
0.0
 11
37.53545929166086
 21
10.79918005729531
 31
0.0
  0
LINE
  5
B3
330
1F
100
AcDbEntity
  8
Default
100
AcDbLine
 10
37.53545929166086
 20
10.79918005729531
 30
0.0
 11
37.53545929166086
 21
17.66724835135487
 31
0.0
  0
LINE
  5
B4
330
1F
100
AcDbEntity
  8
Default
100
AcDbLine
 10
37.53545929166086
 20
17.66724835135487
 30
0.0
 11
37.53545929166086
 21
22.63419602771244
 31
0.0
  0
LINE
  5
B5
330
1F
100
AcDbEntity
  8
Default
100
AcDbLine
 10
39.53545929166086
 20
24.72535474334021
 30
0.0
 11
39.9314519542826
 21
24.72535474334021
 31
0.0
  0
SPLINE
  5
B6
330
1F
100
AcDbEntity
  8
Default
100
AcDbSpline
210
0.0
220
0.0
230
1.0
 70
     8
 71
     3
 72
     8
 73
     4
 74
     0
 42
0.0000000001
 43
0.0000000001
 40
0.0
 40
0.0
 40
0.0
 40
0.0
 40
1.0
 40
1.0
 40
1.0
 40
1.0
 10
39.9314519542826
 20
24.72535474334021
 30
0.0
 10
40.2653026668549
 20
24.73015225991987
 30
0.0
 10
40.50941159870195
 20
24.96748822718387
 30
0.0
 10
40.68042895442368
 20
25.23784239679019
 30
0.0
  0
SPLINE
  5
B7
330
1F
100
AcDbEntity
  8
Default
100
AcDbSpline
210
0.0
220
0.0
230
1.0
 70
     8
 71
     3
 72
     8
 73
     4
 74
     0
 42
0.0000000001
 43
0.0000000001
 40
0.0
 40
0.0
 40
0.0
 40
0.0
 40
1.0
 40
1.0
 40
1.0
 40
1.0
 10
40.68042895442368
 20
25.23784239679019
 30
0.0
 10
40.85116410328778
 20
25.50819656639651
 30
0.0
 10
40.94824326231137
 20
25.81156893834515
 30
0.0
 10
41.02048821786378
 20
26.11973882687344
 30
0.0
  0
SPLINE
  5
B8
330
1F
100
AcDbEntity
  8
Default
100
AcDbSpline
210
0.0
220
0.0
230
1.0
 70
     8
 71
     3
 72
     8
 73
     4
 74
     0
 42
0.0000000001
 43
0.0000000001
 40
0.0
 40
0.0
 40
0.0
 40
0.0
 40
1.0
 40
1.0
 40
1.0
 40
1.0
 10
41.02048821786378
 20
26.11973882687344
 30
0.0
 10
41.09273317341621
 20
26.42790871540173
 30
0.0
 10
41.13986171863984
 20
26.74115832736731
 30
0.0
 10
41.17372654155503
 20
27.05553676676339
 30
0.0
  0
SPLINE
  5
B9
330
1F
100
AcDbEntity
  8
Default
100
AcDbSpline
210
0.0
220
0.0
230
1.0
 70
     8
 71
     3
 72
     8
 73
     4
 74
     0
 42
0.0000000001
 43
0.0000000001
 40
0.0
 40
0.0
 40
0.0
 40
0.0
 40
1.0
 40
1.0
 40
1.0
 40
1.0
 10
41.17372654155503
 20
27.05553676676339
 30
0.0
 10
41.20759136447024
 20
27.37019741301709
 30
0.0
 10
41.22819246507698
 20
27.68598688670129
 30
0.0
 10
41.24653591082274
 20
28.00177636038551
 30
0.0
  0
SPLINE
  5
BA
330
1F
100
AcDbEntity
  8
Default
100
AcDbSpline
210
0.0
220
0.0
230
1.0
 70
     8
 71
     3
 72
     8
 73
     4
 74
     0
 42
0.0000000001
 43
0.0000000001
 40
0.0
 40
0.0
 40
0.0
 40
0.0
 40
1.0
 40
1.0
 40
1.0
 40
1.0
 10
41.24653591082274
 20
28.00177636038551
 30
0.0
 10
41.2651615634261
 20
28.31756583406972
 30
0.0
 10
41.28124735431079
 20
28.63363751461155
 30
0.0
 10
41.29592211090738
 20
28.94942698829577
 30
0.0
  0
SPLINE
  5
BB
330
1F
100
AcDbEntity
  8
Default
100
AcDbSpline
210
0.0
220
0.0
230
1.0
 70
     8
 71
     3
 72
     8
 73
     4
 74
     0
 42
0.0000000001
 43
0.0000000001
 40
0.0
 40
0.0
 40
0.0
 40
0.0
 40
1.0
 40
1.0
 40
1.0
 40
1.0
 10
41.29592211090738
 20
28.94942698829577
 30
0.0
 10
41.31059686750397
 20
29.2654986688376
 30
0.0
 10
41.3235783829548
 20
29.58157034937945
 30
0.0
 10
41.33514886411749
 20
29.89764202992129
 30
0.0
  0
SPLINE
  5
BC
330
1F
100
AcDbEntity
  8
Default
100
AcDbSpline
210
0.0
220
0.0
230
1.0
 70
     8
 71
     3
 72
     8
 73
     4
 74
     0
 42
0.0000000001
 43
0.0000000001
 40
0.0
 40
0.0
 40
0.0
 40
0.0
 40
1.0
 40
1.0
 40
1.0
 40
1.0
 10
41.33514886411749
 20
29.89764202992129
 30
0.0
 10
41.34671934528019
 20
30.21399591732076
 30
0.0
 10
41.3565965852971
 20
30.53006759786258
 30
0.0
 10
41.3650627910259
 20
30.84642148526206
 30
0.0
  0
SPLINE
  5
BD
330
1F
100
AcDbEntity
  8
Default
100
AcDbSpline
210
0.0
220
0.0
230
1.0
 70
     8
 71
     3
 72
     8
 73
     4
 74
     0
 42
0.0000000001
 43
0.0000000001
 40
0.0
 40
0.0
 40
0.0
 40
0.0
 40
1.0
 40
1.0
 40
1.0
 40
1.0
 10
41.3650627910259
 20
30.84642148526206
 30
0.0
 10
41.37381120361236
 20
31.16249316580389
 30
0.0
 10
41.38143078876825
 20
31.47884705320335
 30
0.0
 10
41.38763933963606
 20
31.79520094060282
 30
0.0
  0
SPLINE
  5
BE
330
1F
100
AcDbEntity
  8
Default
100
AcDbSpline
210
0.0
220
0.0
230
1.0
 70
     8
 71
     3
 72
     8
 73
     4
 74
     0
 42
0.0000000001
 43
0.0000000001
 40
0.0
 40
0.0
 40
0.0
 40
0.0
 40
1.0
 40
1.0
 40
1.0
 40
1.0
 10
41.38763933963606
 20
31.79520094060282
 30
0.0
 10
41.39384789050381
 20
32.11127262114466
 30
0.0
 10
41.3989276139411
 20
32.42762650854412
 30
0.0
 10
41.40259630309026
 20
32.74398039594359
 30
0.0
  0
SPLINE
  5
BF
330
1F
100
AcDbEntity
  8
Default
100
AcDbSpline
210
0.0
220
0.0
230
1.0
 70
     8
 71
     3
 72
     8
 73
     4
 74
     0
 42
0.0000000001
 43
0.0000000001
 40
0.0
 40
0.0
 40
0.0
 40
0.0
 40
1.0
 40
1.0
 40
1.0
 40
1.0
 10
41.40259630309026
 20
32.74398039594359
 30
0.0
 10
41.40654719909704
 20
33.06033428334305
 30
0.0
 10
41.40908706081567
 20
33.37668817074252
 30
0.0
 10
41.41049809510381
 20
33.69304205814198
 30
0.0
  0
SPLINE
  5
C0
330
1F
100
AcDbEntity
  8
Default
100
AcDbSpline
210
0.0
220
0.0
230
1.0
 70
     8
 71
     3
 72
     8
 73
     4
 74
     0
 42
0.0000000001
 43
0.0000000001
 40
0.0
 40
0.0
 40
0.0
 40
0.0
 40
1.0
 40
1.0
 40
1.0
 40
1.0
 10
41.41049809510381
 20
33.69304205814198
 30
0.0
 10
41.41190912939194
 20
34.00939594554144
 30
0.0
 10
41.41219133624956
 20
34.32574983294091
 30
0.0
 10
41.41134471567667
 20
34.64210372034037
 30
0.0
  0
SPLINE
  5
C1
330
1F
100
AcDbEntity
  8
Default
100
AcDbSpline
210
0.0
220
0.0
230
1.0
 70
     8
 71
     3
 72
     8
 73
     4
 74
     0
 42
0.0000000001
 43
0.0000000001
 40
0.0
 40
0.0
 40
0.0
 40
0.0
 40
1.0
 40
1.0
 40
1.0
 40
1.0
 10
41.41134471567667
 20
34.64210372034037
 30
0.0
 10
41.41021588824619
 20
34.95845760773984
 30
0.0
 10
41.40824044024279
 20
35.2748114951393
 30
0.0
 10
41.40485395795128
 20
35.59116538253876
 30
0.0
  0
SPLINE
  5
C2
330
1F
100
AcDbEntity
  8
Default
100
AcDbSpline
210
0.0
220
0.0
230
1.0
 70
     8
 71
     3
 72
     8
 73
     4
 74
     0
 42
0.0000000001
 43
0.0000000001
 40
0.0
 40
0.0
 40
0.0
 40
0.0
 40
1.0
 40
1.0
 40
1.0
 40
1.0
 10
41.40485395795128
 20
35.59116538253876
 30
0.0
 10
41.40174968251736
 20
35.9072370630806
 30
0.0
 10
41.39723437279535
 20
36.22359095048007
 30
0.0
 10
41.3913080287852
 20
36.53994483787954
 30
0.0
  0
SPLINE
  5
C3
330
1F
100
AcDbEntity
  8
Default
100
AcDbSpline
210
0.0
220
0.0
230
1.0
 70
     8
 71
     3
 72
     8
 73
     4
 74
     0
 42
0.0000000001
 43
0.0000000001
 40
0.0
 40
0.0
 40
0.0
 40
0.0
 40
1.0
 40
1.0
 40
1.0
 40
1.0
 10
41.3913080287852
 20
36.53994483787954
 30
0.0
 10
41.38566389163265
 20
36.856298725279
 30
0.0
 10
41.3788909270496
 20
37.17265261267846
 30
0.0
 10
41.37070692817843
 20
37.4887242932203
 30
0.0
  0
SPLINE
  5
C4
330
1F
100
AcDbEntity
  8
Default
100
AcDbSpline
210
0.0
220
0.0
230
1.0
 70
     8
 71
     3
 72
     8
 73
     4
 74
     0
 42
0.0000000001
 43
0.0000000001
 40
0.0
 40
0.0
 40
0.0
 40
0.0
 40
1.0
 40
1.0
 40
1.0
 40
1.0
 10
41.37070692817843
 20
37.4887242932203
 30
0.0
 10
41.36224072244965
 20
37.80507818061977
 30
0.0
 10
41.35236348243271
 20
38.12114986116161
 30
0.0
 10
41.34163962184289
 20
38.43750374856106
 30
0.0
  0
SPLINE
  5
C5
330
1F
100
AcDbEntity
  8
Default
100
AcDbSpline
210
0.0
220
0.0
230
1.0
 70
     8
 71
     3
 72
     8
 73
     4
 74
     0
 42
0.0000000001
 43
0.0000000001
 40
0.0
 40
0.0
 40
0.0
 40
0.0
 40
1.0
 40
1.0
 40
1.0
 40
1.0
 10
41.34163962184289
 20
38.43750374856106
 30
0.0
 10
41.33091576125309
 20
38.7535754291029
 30
0.0
 10
41.31906307323276
 20
39.06964710964474
 30
0.0
 10
41.30523493720906
 20
39.38571879018659
 30
0.0
  0
SPLINE
  5
C6
330
1F
100
AcDbEntity
  8
Default
100
AcDbSpline
210
0.0
220
0.0
230
1.0
 70
     8
 71
     3
 72
     8
 73
     4
 74
     0
 42
0.0000000001
 43
0.0000000001
 40
0.0
 40
0.0
 40
0.0
 40
0.0
 40
1.0
 40
1.0
 40
1.0
 40
1.0
 10
41.30523493720906
 20
39.38571879018659
 30
0.0
 10
41.29140680118535
 20
39.70179047072842
 30
0.0
 10
41.27532101030062
 20
40.01786215127026
 30
0.0
 10
41.25387328912101
 20
40.33336941809684
 30
0.0
  0
SPLINE
  5
C7
330
1F
100
AcDbEntity
  8
Default
100
AcDbSpline
210
0.0
220
0.0
230
1.0
 70
     8
 71
     3
 72
     8
 73
     4
 74
     0
 42
0.0000000001
 43
0.0000000001
 40
0.0
 40
0.0
 40
0.0
 40
0.0
 40
1.0
 40
1.0
 40
1.0
 40
1.0
 10
41.25387328912101
 20
40.33336941809684
 30
0.0
 10
41.23270777479903
 20
40.64887668492343
 30
0.0
 10
41.20589812332448
 20
40.96410174489237
 30
0.0
 10
41.16836461126012
 20
41.27848018428846
 30
0.0
  0
SPLINE
  5
C8
330
1F
100
AcDbEntity
  8
Default
100
AcDbSpline
210
0.0
220
0.0
230
1.0
 70
     8
 71
     3
 72
     8
 73
     4
 74
     0
 42
0.0000000001
 43
0.0000000001
 40
0.0
 40
0.0
 40
0.0
 40
0.0
 40
1.0
 40
1.0
 40
1.0
 40
1.0
 10
41.16836461126012
 20
41.27848018428846
 30
0.0
 10
41.13111330605344
 20
41.59257641682691
 30
0.0
 10
41.08285593339927
 20
41.90582602879248
 30
0.0
 10
41.01202201213498
 20
42.21399591732077
 30
0.0
  0
SPLINE
  5
C9
330
1F
100
AcDbEntity
  8
Default
100
AcDbSpline
210
0.0
220
0.0
230
1.0
 70
     8
 71
     3
 72
     8
 73
     4
 74
     0
 42
0.0000000001
 43
0.0000000001
 40
0.0
 40
0.0
 40
0.0
 40
0.0
 40
1.0
 40
1.0
 40
1.0
 40
1.0
 10
41.01202201213498
 20
42.21399591732077
 30
0.0
 10
40.94147029772832
 20
42.52216580584906
 30
0.0
 10
40.84805982785389
 20
42.82497376408246
 30
0.0
 10
40.67930012699318
 20
43.09815000226504
 30
0.0
  0
SPLINE
  5
CA
330
1F
100
AcDbEntity
  8
Default
100
AcDbSpline
210
0.0
220
0.0
230
1.0
 70
     8
 71
     3
 72
     8
 73
     4
 74
     0
 42
0.0000000001
 43
0.0000000001
 40
0.0
 40
0.0
 40
0.0
 40
0.0
 40
1.0
 40
1.0
 40
1.0
 40
1.0
 10
40.67930012699318
 20
43.09815000226504
 30
0.0
 10
40.51054042613243
 20
43.37132624044763
 30
0.0
 10
40.26614928742776
 20
43.61458855172179
 30
0.0
 10
39.93342740228596
 20
43.61402413800655
 30
0.0
  0
LINE
  5
CB
330
1F
100
AcDbEntity
  8
Default
100
AcDbLine
 10
39.93342740228596
 20
43.61402413800655
 30
0.0
 11
-39.93280654719918
 21
43.61402413800655
 31
0.0
  0
SPLINE
  5
CC
330
1F
100
AcDbEntity
  8
Default
100
AcDbSpline
210
0.0
220
0.0
230
1.0
 70
     8
 71
     3
 72
     8
 73
     4
 74
     0
 42
0.0000000001
 43
0.0000000001
 40
0.0
 40
0.0
 40
0.0
 40
0.0
 40
1.0
 40
1.0
 40
1.0
 40
1.0
 10
-39.93280654719918
 20
43.61402413800655
 30
0.0
 10
-40.26552843234099
 20
43.61458855172179
 30
0.0
 10
-40.50991957104565
 20
43.37132624044763
 30
0.0
 10
-40.67867927190639
 20
43.09815000226504
 30
0.0
  0
SPLINE
  5
CD
330
1F
100
AcDbEntity
  8
Default
100
AcDbSpline
210
0.0
220
0.0
230
1.0
 70
     8
 71
     3
 72
     8
 73
     4
 74
     0
 42
0.0000000001
 43
0.0000000001
 40
0.0
 40
0.0
 40
0.0
 40
0.0
 40
1.0
 40
1.0
 40
1.0
 40
1.0
 10
-40.67867927190639
 20
43.09815000226504
 30
0.0
 10
-40.84743897276712
 20
42.82497376408246
 30
0.0
 10
-40.94084944264154
 20
42.52216580584906
 30
0.0
 10
-41.0114011570482
 20
42.21399591732077
 30
0.0
  0
SPLINE
  5
CE
330
1F
100
AcDbEntity
  8
Default
100
AcDbSpline
210
0.0
220
0.0
230
1.0
 70
     8
 71
     3
 72
     8
 73
     4
 74
     0
 42
0.0000000001
 43
0.0000000001
 40
0.0
 40
0.0
 40
0.0
 40
0.0
 40
1.0
 40
1.0
 40
1.0
 40
1.0
 10
-41.0114011570482
 20
42.21399591732077
 30
0.0
 10
-41.08223507831249
 20
41.90582602879248
 30
0.0
 10
-41.13021024410902
 20
41.59257641682691
 30
0.0
 10
-41.16774375617336
 20
41.27848018428846
 30
0.0
  0
SPLINE
  5
CF
330
1F
100
AcDbEntity
  8
Default
100
AcDbSpline
210
0.0
220
0.0
230
1.0
 70
     8
 71
     3
 72
     8
 73
     4
 74
     0
 42
0.0000000001
 43
0.0000000001
 40
0.0
 40
0.0
 40
0.0
 40
0.0
 40
1.0
 40
1.0
 40
1.0
 40
1.0
 10
-41.16774375617336
 20
41.27848018428846
 30
0.0
 10
-41.20527726823769
 20
40.96410174489237
 30
0.0
 10
-41.2318047128546
 20
40.64887668492343
 30
0.0
 10
-41.25325243403423
 20
40.33336941809684
 30
0.0
  0
SPLINE
  5
D0
330
1F
100
AcDbEntity
  8
Default
100
AcDbSpline
210
0.0
220
0.0
230
1.0
 70
     8
 71
     3
 72
     8
 73
     4
 74
     0
 42
0.0000000001
 43
0.0000000001
 40
0.0
 40
0.0
 40
0.0
 40
0.0
 40
1.0
 40
1.0
 40
1.0
 40
1.0
 10
-41.25325243403423
 20
40.33336941809684
 30
0.0
 10
-41.27470015521385
 20
40.01786215127026
 30
0.0
 10
-41.29050373924095
 20
39.70179047072842
 30
0.0
 10
-41.30461408212227
 20
39.38571879018659
 30
0.0
  0
SPLINE
  5
D1
330
1F
100
AcDbEntity
  8
Default
100
AcDbSpline
210
0.0
220
0.0
230
1.0
 70
     8
 71
     3
 72
     8
 73
     4
 74
     0
 42
0.0000000001
 43
0.0000000001
 40
0.0
 40
0.0
 40
0.0
 40
0.0
 40
1.0
 40
1.0
 40
1.0
 40
1.0
 10
-41.30461408212227
 20
39.38571879018659
 30
0.0
 10
-41.31844221814598
 20
39.06964710964474
 30
0.0
 10
-41.3302949061663
 20
38.7535754291029
 30
0.0
 10
-41.34101876675611
 20
38.43750374856106
 30
0.0
  0
SPLINE
  5
D2
330
1F
100
AcDbEntity
  8
Default
100
AcDbSpline
210
0.0
220
0.0
230
1.0
 70
     8
 71
     3
 72
     8
 73
     4
 74
     0
 42
0.0000000001
 43
0.0000000001
 40
0.0
 40
0.0
 40
0.0
 40
0.0
 40
1.0
 40
1.0
 40
1.0
 40
1.0
 10
-41.34101876675611
 20
38.43750374856106
 30
0.0
 10
-41.35174262734592
 20
38.12114986116161
 30
0.0
 10
-41.36161986736286
 20
37.80507818061977
 30
0.0
 10
-41.36980386623402
 20
37.4887242932203
 30
0.0
  0
SPLINE
  5
D3
330
1F
100
AcDbEntity
  8
Default
100
AcDbSpline
210
0.0
220
0.0
230
1.0
 70
     8
 71
     3
 72
     8
 73
     4
 74
     0
 42
0.0000000001
 43
0.0000000001
 40
0.0
 40
0.0
 40
0.0
 40
0.0
 40
1.0
 40
1.0
 40
1.0
 40
1.0
 10
-41.36980386623402
 20
37.4887242932203
 30
0.0
 10
-41.37827007196282
 20
37.17265261267846
 30
0.0
 10
-41.38504303654587
 20
36.856298725279
 30
0.0
 10
-41.3906871736984
 20
36.53994483787954
 30
0.0
  0
SPLINE
  5
D4
330
1F
100
AcDbEntity
  8
Default
100
AcDbSpline
210
0.0
220
0.0
230
1.0
 70
     8
 71
     3
 72
     8
 73
     4
 74
     0
 42
0.0000000001
 43
0.0000000001
 40
0.0
 40
0.0
 40
0.0
 40
0.0
 40
1.0
 40
1.0
 40
1.0
 40
1.0
 10
-41.3906871736984
 20
36.53994483787954
 30
0.0
 10
-41.39633131085094
 20
36.22359095048007
 30
0.0
 10
-41.40084662057296
 20
35.9072370630806
 30
0.0
 10
-41.40423310286448
 20
35.59116538253876
 30
0.0
  0
SPLINE
  5
D5
330
1F
100
AcDbEntity
  8
Default
100
AcDbSpline
210
0.0
220
0.0
230
1.0
 70
     8
 71
     3
 72
     8
 73
     4
 74
     0
 42
0.0000000001
 43
0.0000000001
 40
0.0
 40
0.0
 40
0.0
 40
0.0
 40
1.0
 40
1.0
 40
1.0
 40
1.0
 10
-41.40423310286448
 20
35.59116538253876
 30
0.0
 10
-41.407619585156
 20
35.2748114951393
 30
0.0
 10
-41.40959503315939
 20
34.95845760773984
 30
0.0
 10
-41.41044165373226
 20
34.64210372034037
 30
0.0
  0
SPLINE
  5
D6
330
1F
100
AcDbEntity
  8
Default
100
AcDbSpline
210
0.0
220
0.0
230
1.0
 70
     8
 71
     3
 72
     8
 73
     4
 74
     0
 42
0.0000000001
 43
0.0000000001
 40
0.0
 40
0.0
 40
0.0
 40
0.0
 40
1.0
 40
1.0
 40
1.0
 40
1.0
 10
-41.41044165373226
 20
34.64210372034037
 30
0.0
 10
-41.41157048116277
 20
34.32574983294091
 30
0.0
 10
-41.41128827430515
 20
34.00939594554144
 30
0.0
 10
-41.40987724001702
 20
33.69304205814198
 30
0.0
  0
SPLINE
  5
D7
330
1F
100
AcDbEntity
  8
Default
100
AcDbSpline
210
0.0
220
0.0
230
1.0
 70
     8
 71
     3
 72
     8
 73
     4
 74
     0
 42
0.0000000001
 43
0.0000000001
 40
0.0
 40
0.0
 40
0.0
 40
0.0
 40
1.0
 40
1.0
 40
1.0
 40
1.0
 10
-41.40987724001702
 20
33.69304205814198
 30
0.0
 10
-41.40846620572888
 20
33.37668817074252
 30
0.0
 10
-41.40592634401024
 20
33.06033428334305
 30
0.0
 10
-41.40197544800347
 20
32.74398039594359
 30
0.0
  0
SPLINE
  5
D8
330
1F
100
AcDbEntity
  8
Default
100
AcDbSpline
210
0.0
220
0.0
230
1.0
 70
     8
 71
     3
 72
     8
 73
     4
 74
     0
 42
0.0000000001
 43
0.0000000001
 40
0.0
 40
0.0
 40
0.0
 40
0.0
 40
1.0
 40
1.0
 40
1.0
 40
1.0
 10
-41.40197544800347
 20
32.74398039594359
 30
0.0
 10
-41.39830675885432
 20
32.42762650854412
 30
0.0
 10
-41.39322703541703
 20
32.11127262114466
 30
0.0
 10
-41.38701848454926
 20
31.79520094060282
 30
0.0
  0
SPLINE
  5
D9
330
1F
100
AcDbEntity
  8
Default
100
AcDbSpline
210
0.0
220
0.0
230
1.0
 70
     8
 71
     3
 72
     8
 73
     4
 74
     0
 42
0.0000000001
 43
0.0000000001
 40
0.0
 40
0.0
 40
0.0
 40
0.0
 40
1.0
 40
1.0
 40
1.0
 40
1.0
 10
-41.38701848454926
 20
31.79520094060282
 30
0.0
 10
-41.38080993368147
 20
31.47884705320335
 30
0.0
 10
-41.37319034852555
 20
31.16249316580389
 30
0.0
 10
-41.36444193593913
 20
30.84642148526206
 30
0.0
  0
SPLINE
  5
DA
330
1F
100
AcDbEntity
  8
Default
100
AcDbSpline
210
0.0
220
0.0
230
1.0
 70
     8
 71
     3
 72
     8
 73
     4
 74
     0
 42
0.0000000001
 43
0.0000000001
 40
0.0
 40
0.0
 40
0.0
 40
0.0
 40
1.0
 40
1.0
 40
1.0
 40
1.0
 10
-41.36444193593913
 20
30.84642148526206
 30
0.0
 10
-41.3556935233527
 20
30.53006759786258
 30
0.0
 10
-41.34581628333577
 20
30.21399591732076
 30
0.0
 10
-41.3345280090307
 20
29.89764202992129
 30
0.0
  0
SPLINE
  5
DB
330
1F
100
AcDbEntity
  8
Default
100
AcDbSpline
210
0.0
220
0.0
230
1.0
 70
     8
 71
     3
 72
     8
 73
     4
 74
     0
 42
0.0000000001
 43
0.0000000001
 40
0.0
 40
0.0
 40
0.0
 40
0.0
 40
1.0
 40
1.0
 40
1.0
 40
1.0
 10
-41.3345280090307
 20
29.89764202992129
 30
0.0
 10
-41.32295752786801
 20
29.58157034937945
 30
0.0
 10
-41.30997601241718
 20
29.2654986688376
 30
0.0
 10
-41.2953012558206
 20
28.94942698829577
 30
0.0
  0
SPLINE
  5
DC
330
1F
100
AcDbEntity
  8
Default
100
AcDbSpline
210
0.0
220
0.0
230
1.0
 70
     8
 71
     3
 72
     8
 73
     4
 74
     0
 42
0.0000000001
 43
0.0000000001
 40
0.0
 40
0.0
 40
0.0
 40
0.0
 40
1.0
 40
1.0
 40
1.0
 40
1.0
 10
-41.2953012558206
 20
28.94942698829577
 30
0.0
 10
-41.28062649922401
 20
28.63363751461155
 30
0.0
 10
-41.2645407083393
 20
28.31756583406972
 30
0.0
 10
-41.24591505573594
 20
28.00177636038551
 30
0.0
  0
SPLINE
  5
DD
330
1F
100
AcDbEntity
  8
Default
100
AcDbSpline
210
0.0
220
0.0
230
1.0
 70
     8
 71
     3
 72
     8
 73
     4
 74
     0
 42
0.0000000001
 43
0.0000000001
 40
0.0
 40
0.0
 40
0.0
 40
0.0
 40
1.0
 40
1.0
 40
1.0
 40
1.0
 10
-41.24591505573594
 20
28.00177636038551
 30
0.0
 10
-41.22757160999021
 20
27.68598688670129
 30
0.0
 10
-41.20697050938346
 20
27.37019741301709
 30
0.0
 10
-41.17310568646826
 20
27.05553676676339
 30
0.0
  0
SPLINE
  5
DE
330
1F
100
AcDbEntity
  8
Default
100
AcDbSpline
210
0.0
220
0.0
230
1.0
 70
     8
 71
     3
 72
     8
 73
     4
 74
     0
 42
0.0000000001
 43
0.0000000001
 40
0.0
 40
0.0
 40
0.0
 40
0.0
 40
1.0
 40
1.0
 40
1.0
 40
1.0
 10
-41.17310568646826
 20
27.05553676676339
 30
0.0
 10
-41.13924086355307
 20
26.74115832736731
 30
0.0
 10
-41.09211231832942
 20
26.42790871540173
 30
0.0
 10
-41.019867362777
 20
26.11973882687344
 30
0.0
  0
SPLINE
  5
DF
330
1F
100
AcDbEntity
  8
Default
100
AcDbSpline
210
0.0
220
0.0
230
1.0
 70
     8
 71
     3
 72
     8
 73
     4
 74
     0
 42
0.0000000001
 43
0.0000000001
 40
0.0
 40
0.0
 40
0.0
 40
0.0
 40
1.0
 40
1.0
 40
1.0
 40
1.0
 10
-41.019867362777
 20
26.11973882687344
 30
0.0
 10
-40.94762240722458
 20
25.81156893834515
 30
0.0
 10
-40.85054324820101
 20
25.50819656639651
 30
0.0
 10
-40.6798080993369
 20
25.23784239679019
 30
0.0
  0
SPLINE
  5
E0
330
1F
100
AcDbEntity
  8
Default
100
AcDbSpline
210
0.0
220
0.0
230
1.0
 70
     8
 71
     3
 72
     8
 73
     4
 74
     0
 42
0.0000000001
 43
0.0000000001
 40
0.0
 40
0.0
 40
0.0
 40
0.0
 40
1.0
 40
1.0
 40
1.0
 40
1.0
 10
-40.6798080993369
 20
25.23784239679019
 30
0.0
 10
-40.50879074361515
 20
24.96748822718387
 30
0.0
 10
-40.26439960491047
 20
24.73015225991987
 30
0.0
 10
-39.93083109919579
 20
24.72535474334021
 30
0.0
  0
LINE
  5
E1
330
1F
100
AcDbEntity
  8
Default
100
AcDbLine
 10
-39.93083109919579
 20
24.72535474334021
 30
0.0
 11
-39.53545929166086
 21
24.72535474334021
 31
0.0
  0
SPLINE
  5
E2
330
1F
100
AcDbEntity
  8
Default
100
AcDbSpline
210
0.0
220
0.0
230
1.0
 70
     8
 71
     3
 72
     8
 73
     4
 74
     0
 42
0.0000000001
 43
0.0000000001
 40
0.7549133700618995
 40
0.7549133700618995
 40
0.7549133700618995
 40
0.7549133700618995
 40
1.0
 40
1.0
 40
1.0
 40
1.0
 10
-39.28376246579084
 20
76.91014947995323
 30
0.0
 10
-39.28948147510854
 20
76.81786255675843
 30
0.0
 10
-39.29380017733686
 20
76.72549320840801
 30
0.0
 10
-39.29705093833788
 20
76.6331577629537
 30
0.0
  0
SPLINE
  5
E3
330
1F
100
AcDbEntity
  8
Default
100
AcDbSpline
210
0.0
220
0.0
230
1.0
 70
     8
 71
     3
 72
     8
 73
     4
 74
     0
 42
0.0000000001
 43
0.0000000001
 40
0.0
 40
0.0
 40
0.0
 40
0.0
 40
1.0
 40
1.0
 40
1.0
 40
1.0
 10
-39.29705093833788
 20
76.6331577629537
 30
0.0
 10
-39.31059686750396
 20
76.25612940116451
 30
0.0
 10
-39.30579935092431
 20
75.87966545309057
 30
0.0
 10
-39.26854804571759
 20
75.502919298159
 30
0.0
  0
SPLINE
  5
E4
330
1F
100
AcDbEntity
  8
Default
100
AcDbSpline
210
0.0
220
0.0
230
1.0
 70
     8
 71
     3
 72
     8
 73
     4
 74
     0
 42
0.0000000001
 43
0.0000000001
 40
0.0
 40
0.0
 40
0.0
 40
0.0
 40
1.0
 40
1.0
 40
1.0
 40
1.0
 10
-39.26854804571759
 20
75.502919298159
 30
0.0
 10
-39.23129674051086
 20
75.12617314322743
 30
0.0
 10
-39.1615916466771
 20
74.74914478143825
 30
0.0
 10
-38.98916325666721
 20
74.41247200028967
 30
0.0
  0
SPLINE
  5
E5
330
1F
100
AcDbEntity
  8
Default
100
AcDbSpline
210
0.0
220
0.0
230
1.0
 70
     8
 71
     3
 72
     8
 73
     4
 74
     0
 42
0.0000000001
 43
0.0000000001
 40
0.0
 40
0.0
 40
0.0
 40
0.0
 40
1.0
 40
1.0
 40
1.0
 40
1.0
 10
-38.98916325666721
 20
74.41247200028967
 30
0.0
 10
-38.81645265979971
 20
74.07579921914108
 30
0.0
 10
-38.54130097361373
 20
73.7794820186331
 30
0.0
 10
-38.15552419923812
 20
73.71062354537219
 30
0.0
  0
SPLINE
  5
E6
330
1F
100
AcDbEntity
  8
Default
100
AcDbSpline
210
0.0
220
0.0
230
1.0
 70
     8
 71
     3
 72
     8
 73
     4
 74
     0
 42
0.0000000001
 43
0.0000000001
 40
0.0
 40
0.0
 40
0.0
 40
0.0
 40
1.0
 40
1.0
 40
1.0
 40
1.0
 10
-38.15552419923812
 20
73.71062354537219
 30
0.0
 10
-36.0759418653874
 20
73.31722718584068
 30
0.0
 10
-33.99635953153669
 20
72.9235486194515
 30
0.0
 10
-31.91649499082834
 20
72.52987005306235
 30
0.0
  0
SPLINE
  5
E7
330
1F
100
AcDbEntity
  8
Default
100
AcDbSpline
210
0.0
220
0.0
230
1.0
 70
     8
 71
     3
 72
     8
 73
     4
 74
     0
 42
0.0000000001
 43
0.0000000001
 40
0.0
 40
0.0
 40
0.0
 40
0.0
 40
1.0
 40
1.0
 40
1.0
 40
1.0
 10
-31.91649499082834
 20
72.52987005306235
 30
0.0
 10
-31.66617750811351
 20
72.49431198900136
 30
0.0
 10
-31.40824044024276
 20
72.5422871547979
 30
0.0
 10
-31.18134612671094
 20
72.64980796755366
 30
0.0
  0
SPLINE
  5
E8
330
1F
100
AcDbEntity
  8
Default
100
AcDbSpline
210
0.0
220
0.0
230
1.0
 70
     8
 71
     3
 72
     8
 73
     4
 74
     0
 42
0.0000000001
 43
0.0000000001
 40
0.0
 40
0.0
 40
0.0
 40
0.0
 40
1.0
 40
1.0
 40
1.0
 40
1.0
 10
-31.18134612671094
 20
72.64980796755366
 30
0.0
 10
-30.95445181317913
 20
72.75732878030941
 30
0.0
 10
-30.75860025398623
 20
72.92383082630914
 30
0.0
 10
-30.58730069140686
 20
73.11008735234272
 30
0.0
  0
SPLINE
  5
E9
330
1F
100
AcDbEntity
  8
Default
100
AcDbSpline
210
0.0
220
0.0
230
1.0
 70
     8
 71
     3
 72
     8
 73
     4
 74
     0
 42
0.0000000001
 43
0.0000000001
 40
0.0
 40
0.0
 40
0.0
 40
0.0
 40
1.0
 40
1.0
 40
1.0
 40
1.0
 10
-30.58730069140686
 20
73.11008735234272
 30
0.0
 10
-30.41600112882749
 20
73.29606167151867
 30
0.0
 10
-30.26925356286164
 20
73.5017904707285
 30
0.0
 10
-30.14226047692965
 20
73.719089751101
 30
0.0
  0
SPLINE
  5
EA
330
1F
100
AcDbEntity
  8
Default
100
AcDbSpline
210
0.0
220
0.0
230
1.0
 70
     8
 71
     3
 72
     8
 73
     4
 74
     0
 42
0.0000000001
 43
0.0000000001
 40
0.0
 40
0.0
 40
0.0
 40
0.0
 40
1.0
 40
1.0
 40
1.0
 40
1.0
 10
-30.14226047692965
 20
73.719089751101
 30
0.0
 10
-30.01498518414003
 20
73.93638903147352
 30
0.0
 10
-29.90746437138429
 20
74.16525879300873
 30
0.0
 10
-29.81828700437426
 20
74.40090151912698
 30
0.0
  0
SPLINE
  5
EB
330
1F
100
AcDbEntity
  8
Default
100
AcDbSpline
210
0.0
220
0.0
230
1.0
 70
     8
 71
     3
 72
     8
 73
     4
 74
     0
 42
0.0000000001
 43
0.0000000001
 40
0.0
 40
0.0
 40
0.0
 40
0.0
 40
1.0
 40
1.0
 40
1.0
 40
1.0
 10
-29.81828700437426
 20
74.40090151912698
 30
0.0
 10
-28.95558064060963
 20
78.5738943228521
 30
0.0
 10
-28.09315648370261
 20
82.74688712657725
 30
0.0
 10
-27.23045011993798
 20
86.92016213716002
 30
0.0
  0
SPLINE
  5
EC
330
1F
100
AcDbEntity
  8
Default
100
AcDbSpline
210
0.0
220
0.0
230
1.0
 70
     8
 71
     3
 72
     8
 73
     4
 74
     0
 42
0.0000000001
 43
0.0000000001
 40
0.0
 40
0.0
 40
0.0
 40
0.0
 40
1.0
 40
1.0
 40
1.0
 40
1.0
 10
-27.23045011993798
 20
86.92016213716002
 30
0.0
 10
-27.07805841681958
 20
87.7049794082197
 30
0.0
 10
-26.7890785946099
 20
88.46355144152012
 30
0.0
 10
-26.38072527162414
 20
89.1510073466986
 30
0.0
  0
SPLINE
  5
ED
330
1F
100
AcDbEntity
  8
Default
100
AcDbSpline
210
0.0
220
0.0
230
1.0
 70
     8
 71
     3
 72
     8
 73
     4
 74
     0
 42
0.0000000001
 43
0.0000000001
 40
0.0
 40
0.0
 40
0.0
 40
0.0
 40
1.0
 40
1.0
 40
1.0
 40
1.0
 10
-26.38072527162414
 20
89.1510073466986
 30
0.0
 10
-25.9723719486384
 20
89.83846325187712
 30
0.0
 10
-25.44436291801896
 20
90.45508523579132
 30
0.0
 10
-24.82774093410475
 20
90.96418640694978
 30
0.0
  0
SPLINE
  5
EE
330
1F
100
AcDbEntity
  8
Default
100
AcDbSpline
210
0.0
220
0.0
230
1.0
 70
     8
 71
     3
 72
     8
 73
     4
 74
     0
 42
0.0000000001
 43
0.0000000001
 40
0.0
 40
0.0
 40
0.0
 40
0.0
 40
1.0
 40
1.0
 40
1.0
 40
1.0
 10
-24.82774093410475
 20
90.96418640694978
 30
0.0
 10
-24.21111895019054
 20
91.47300537125061
 30
0.0
 10
-23.50588401298157
 20
91.87458572965332
 30
0.0
 10
-22.75323832369131
 20
92.14522210611727
 30
0.0
  0
SPLINE
  5
EF
330
1F
100
AcDbEntity
  8
Default
100
AcDbSpline
210
0.0
220
0.0
230
1.0
 70
     8
 71
     3
 72
     8
 73
     4
 74
     0
 42
0.0000000001
 43
0.0000000001
 40
0.0
 40
0.0
 40
0.0
 40
0.0
 40
1.0
 40
1.0
 40
1.0
 40
1.0
 10
-22.75323832369131
 20
92.14522210611727
 30
0.0
 10
-22.00087484125869
 20
92.41585848258121
 30
0.0
 10
-21.20110060674478
 20
92.55526867024878
 30
0.0
 10
-20.40132637223089
 20
92.55526867024878
 30
0.0
  0
LINE
  5
F0
330
1F
100
AcDbEntity
  8
Default
100
AcDbLine
 10
-20.40132637223089
 20
92.55526867024878
 30
0.0
 11
20.40126993085936
 21
92.55526867024878
 31
0.0
  0
SPLINE
  5
F1
330
1F
100
AcDbEntity
  8
Default
100
AcDbSpline
210
0.0
220
0.0
230
1.0
 70
     8
 71
     3
 72
     8
 73
     4
 74
     0
 42
0.0000000001
 43
0.0000000001
 40
0.0
 40
0.0
 40
0.0
 40
0.0
 40
1.0
 40
1.0
 40
1.0
 40
1.0
 10
20.40126993085936
 20
92.55526867024878
 30
0.0
 10
21.20104416537326
 20
92.55526867024878
 30
0.0
 10
22.00081839988717
 20
92.41585848258121
 30
0.0
 10
22.75346408917742
 20
92.14522210611727
 30
0.0
  0
SPLINE
  5
F2
330
1F
100
AcDbEntity
  8
Default
100
AcDbSpline
210
0.0
220
0.0
230
1.0
 70
     8
 71
     3
 72
     8
 73
     4
 74
     0
 42
0.0000000001
 43
0.0000000001
 40
0.0
 40
0.0
 40
0.0
 40
0.0
 40
1.0
 40
1.0
 40
1.0
 40
1.0
 10
22.75346408917742
 20
92.14522210611727
 30
0.0
 10
23.50582757161005
 20
91.87458572965332
 30
0.0
 10
24.21134471567665
 20
91.47300537125061
 30
0.0
 10
24.82796669959084
 20
90.96418640694978
 30
0.0
  0
SPLINE
  5
F3
330
1F
100
AcDbEntity
  8
Default
100
AcDbSpline
210
0.0
220
0.0
230
1.0
 70
     8
 71
     3
 72
     8
 73
     4
 74
     0
 42
0.0000000001
 43
0.0000000001
 40
0.0
 40
0.0
 40
0.0
 40
0.0
 40
1.0
 40
1.0
 40
1.0
 40
1.0
 10
24.82796669959084
 20
90.96418640694978
 30
0.0
 10
25.44458868350508
 20
90.45508523579132
 30
0.0
 10
25.97231550726688
 20
89.83846325187712
 30
0.0
 10
26.38095103711027
 20
89.1510073466986
 30
0.0
  0
SPLINE
  5
F4
330
1F
100
AcDbEntity
  8
Default
100
AcDbSpline
210
0.0
220
0.0
230
1.0
 70
     8
 71
     3
 72
     8
 73
     4
 74
     0
 42
0.0000000001
 43
0.0000000001
 40
0.0
 40
0.0
 40
0.0
 40
0.0
 40
1.0
 40
1.0
 40
1.0
 40
1.0
 10
26.38095103711027
 20
89.1510073466986
 30
0.0
 10
26.78930436009602
 20
88.46355144152012
 30
0.0
 10
27.07800197544805
 20
87.7049794082197
 30
0.0
 10
27.23039367856645
 20
86.92016213716002
 30
0.0
  0
SPLINE
  5
F5
330
1F
100
AcDbEntity
  8
Default
100
AcDbSpline
210
0.0
220
0.0
230
1.0
 70
     8
 71
     3
 72
     8
 73
     4
 74
     0
 42
0.0000000001
 43
0.0000000001
 40
0.0
 40
0.0
 40
0.0
 40
0.0
 40
1.0
 40
1.0
 40
1.0
 40
1.0
 10
27.23039367856645
 20
86.92016213716002
 30
0.0
 10
28.09310004233109
 20
82.74688712657725
 30
0.0
 10
28.95580640609572
 20
78.5738943228521
 30
0.0
 10
29.81823056300274
 20
74.40090151912698
 30
0.0
  0
SPLINE
  5
F6
330
1F
100
AcDbEntity
  8
Default
100
AcDbSpline
210
0.0
220
0.0
230
1.0
 70
     8
 71
     3
 72
     8
 73
     4
 74
     0
 42
0.0000000001
 43
0.0000000001
 40
0.0
 40
0.0
 40
0.0
 40
0.0
 40
1.0
 40
1.0
 40
1.0
 40
1.0
 10
29.81823056300274
 20
74.40090151912698
 30
0.0
 10
29.90740793001277
 20
74.16525879300873
 30
0.0
 10
30.0149287427685
 20
73.93638903147352
 30
0.0
 10
30.14220403555813
 20
73.719089751101
 30
0.0
  0
SPLINE
  5
F7
330
1F
100
AcDbEntity
  8
Default
100
AcDbSpline
210
0.0
220
0.0
230
1.0
 70
     8
 71
     3
 72
     8
 73
     4
 74
     0
 42
0.0000000001
 43
0.0000000001
 40
0.0
 40
0.0
 40
0.0
 40
0.0
 40
1.0
 40
1.0
 40
1.0
 40
1.0
 10
30.14220403555813
 20
73.719089751101
 30
0.0
 10
30.26947932834775
 20
73.5017904707285
 30
0.0
 10
30.4162268943136
 20
73.29606167151867
 30
0.0
 10
30.58724425003535
 20
73.11008735234272
 30
0.0
  0
SPLINE
  5
F8
330
1F
100
AcDbEntity
  8
Default
100
AcDbSpline
210
0.0
220
0.0
230
1.0
 70
     8
 71
     3
 72
     8
 73
     4
 74
     0
 42
0.0000000001
 43
0.0000000001
 40
0.0
 40
0.0
 40
0.0
 40
0.0
 40
1.0
 40
1.0
 40
1.0
 40
1.0
 10
30.58724425003535
 20
73.11008735234272
 30
0.0
 10
30.7585438126147
 20
72.92383082630914
 30
0.0
 10
30.95439537180761
 20
72.75732878030941
 30
0.0
 10
31.18128968533943
 20
72.64980796755366
 30
0.0
  0
SPLINE
  5
F9
330
1F
100
AcDbEntity
  8
Default
100
AcDbSpline
210
0.0
220
0.0
230
1.0
 70
     8
 71
     3
 72
     8
 73
     4
 74
     0
 42
0.0000000001
 43
0.0000000001
 40
0.0
 40
0.0
 40
0.0
 40
0.0
 40
1.0
 40
1.0
 40
1.0
 40
1.0
 10
31.18128968533943
 20
72.64980796755366
 30
0.0
 10
31.40818399887123
 20
72.5422871547979
 30
0.0
 10
31.66640327359961
 20
72.49431198900136
 30
0.0
 10
31.91672075631444
 20
72.52987005306235
 30
0.0
  0
SPLINE
  5
FA
330
1F
100
AcDbEntity
  8
Default
100
AcDbSpline
210
0.0
220
0.0
230
1.0
 70
     8
 71
     3
 72
     8
 73
     4
 74
     0
 42
0.0000000001
 43
0.0000000001
 40
0.0
 40
0.0
 40
0.0
 40
0.0
 40
1.0
 40
1.0
 40
1.0
 40
1.0
 10
31.91672075631444
 20
72.52987005306235
 30
0.0
 10
33.99630309016518
 20
72.9235486194515
 30
0.0
 10
36.07588542401589
 20
73.31722718584068
 30
0.0
 10
38.1554677578666
 20
73.71062354537219
 30
0.0
  0
SPLINE
  5
FB
330
1F
100
AcDbEntity
  8
Default
100
AcDbSpline
210
0.0
220
0.0
230
1.0
 70
     8
 71
     3
 72
     8
 73
     4
 74
     0
 42
0.0000000001
 43
0.0000000001
 40
0.0
 40
0.0
 40
0.0
 40
0.0
 40
1.0
 40
1.0
 40
1.0
 40
1.0
 10
38.1554677578666
 20
73.71062354537219
 30
0.0
 10
38.54152673909984
 20
73.7794820186331
 30
0.0
 10
38.81667842528582
 20
74.07579921914108
 30
0.0
 10
38.98910681529569
 20
74.41247200028967
 30
0.0
  0
SPLINE
  5
FC
330
1F
100
AcDbEntity
  8
Default
100
AcDbSpline
210
0.0
220
0.0
230
1.0
 70
     8
 71
     3
 72
     8
 73
     4
 74
     0
 42
0.0000000001
 43
0.0000000001
 40
0.0
 40
0.0
 40
0.0
 40
0.0
 40
1.0
 40
1.0
 40
1.0
 40
1.0
 10
38.98910681529569
 20
74.41247200028967
 30
0.0
 10
39.16153520530559
 20
74.74914478143825
 30
0.0
 10
39.23152250599697
 20
75.12617314322743
 30
0.0
 10
39.26877381120371
 20
75.502919298159
 30
0.0
  0
SPLINE
  5
FD
330
1F
100
AcDbEntity
  8
Default
100
AcDbSpline
210
0.0
220
0.0
230
1.0
 70
     8
 71
     3
 72
     8
 73
     4
 74
     0
 42
0.0000000001
 43
0.0000000001
 40
0.0
 40
0.0
 40
0.0
 40
0.0
 40
1.0
 40
1.0
 40
1.0
 40
1.0
 10
39.26877381120371
 20
75.502919298159
 30
0.0
 10
39.3060251164104
 20
75.87966545309057
 30
0.0
 10
39.31054042613244
 20
76.25612940116451
 30
0.0
 10
39.297276703824
 20
76.6331577629537
 30
0.0
  0
SPLINE
  5
FE
330
1F
100
AcDbEntity
  8
Default
100
AcDbSpline
210
0.0
220
0.0
230
1.0
 70
     8
 71
     3
 72
     8
 73
     4
 74
     0
 42
0.0000000001
 43
0.0000000001
 40
0.0
 40
0.0
 40
0.0
 40
0.0
 40
0.2450166015888158
 40
0.2450166015888158
 40
0.2450166015888158
 40
0.2450166015888158
 10
39.297276703824
 20
76.6331577629537
 30
0.0
 10
39.29402687165957
 20
76.72546682549668
 30
0.0
 10
39.28969276670171
 20
76.81780977156447
 30
0.0
 10
39.28395060993275
 20
76.91007037279171
 30
0.0
  0
SPLINE
  5
FF
330
1F
100
AcDbEntity
  8
Default
100
AcDbSpline
210
0.0
220
0.0
230
1.0
 70
     8
 71
     3
 72
     8
 73
     4
 74
     0
 42
0.0000000001
 43
0.0000000001
 40
0.0
 40
0.0
 40
0.0
 40
0.0
 40
1.0
 40
1.0
 40
1.0
 40
1.0
 10
-39.22672498941731
 20
43.3924353133981
 30
0.0
 10
-38.5878086637506
 20
42.94062213433784
 30
0.0
 10
-38.16449837731064
 20
42.26727657204067
 30
0.0
 10
-37.84814448991118
 20
41.55724411825206
 30
0.0
  0
SPLINE
  5
100
330
1F
100
AcDbEntity
  8
Default
100
AcDbSpline
210
0.0
220
0.0
230
1.0
 70
     8
 71
     3
 72
     8
 73
     4
 74
     0
 42
0.0000000001
 43
0.0000000001
 40
0.0
 40
0.0
 40
0.0
 40
0.0
 40
1.0
 40
1.0
 40
1.0
 40
1.0
 10
-37.84814448991118
 20
41.55724411825206
 30
0.0
 10
-37.53150839565408
 20
40.84749387132106
 30
0.0
 10
-37.32154649357987
 20
40.10133893975622
 30
0.0
 10
-37.1598419641598
 20
39.34389573388631
 30
0.0
  0
SPLINE
  5
101
330
1F
100
AcDbEntity
  8
Default
100
AcDbSpline
210
0.0
220
0.0
230
1.0
 70
     8
 71
     3
 72
     8
 73
     4
 74
     0
 42
0.0000000001
 43
0.0000000001
 40
0.0
 40
0.0
 40
0.0
 40
0.0
 40
1.0
 40
1.0
 40
1.0
 40
1.0
 10
-37.1598419641598
 20
39.34389573388631
 30
0.0
 10
-36.99841964159737
 20
38.5864525280164
 30
0.0
 10
-36.88525469168908
 20
37.81800325469906
 30
0.0
 10
-36.81639621842818
 20
37.0472963265207
 30
0.0
  0
SPLINE
  5
102
330
1F
100
AcDbEntity
  8
Default
100
AcDbSpline
210
0.0
220
0.0
230
1.0
 70
     8
 71
     3
 72
     8
 73
     4
 74
     0
 42
0.0000000001
 43
0.0000000001
 40
0.0
 40
0.0
 40
0.0
 40
0.0
 40
1.0
 40
1.0
 40
1.0
 40
1.0
 10
-36.81639621842818
 20
37.0472963265207
 30
0.0
 10
-36.7478199520249
 20
36.27630719148472
 30
0.0
 10
-36.72355016226901
 20
35.50334260844535
 30
0.0
 10
-36.70182023423176
 20
34.7272737499721
 30
0.0
  0
SPLINE
  5
103
330
1F
100
AcDbEntity
  8
Default
100
AcDbSpline
210
0.0
220
0.0
230
1.0
 70
     8
 71
     3
 72
     8
 73
     4
 74
     0
 42
0.0000000001
 43
0.0000000001
 40
0.0
 40
0.0
 40
0.0
 40
0.0
 40
1.0
 40
1.0
 40
1.0
 40
1.0
 10
-36.70182023423176
 20
34.7272737499721
 30
0.0
 10
-36.68009030619451
 20
33.95148709835645
 30
0.0
 10
-36.6609002398759
 20
33.17259617130692
 30
0.0
 10
-36.80059263440108
 20
32.410637655715
 30
0.0
  0
SPLINE
  5
104
330
1F
100
AcDbEntity
  8
Default
100
AcDbSpline
210
0.0
220
0.0
230
1.0
 70
     8
 71
     3
 72
     8
 73
     4
 74
     0
 42
0.0000000001
 43
0.0000000001
 40
0.0
 40
0.0
 40
0.0
 40
0.0
 40
1.0
 40
1.0
 40
1.0
 40
1.0
 10
-36.80059263440108
 20
32.410637655715
 30
0.0
 10
-36.9405672357839
 20
31.64839693326543
 30
0.0
 10
-37.23942429801051
 20
30.90308862227348
 30
0.0
 10
-37.7880344292367
 20
30.34544787160323
 30
0.0
  0
SPLINE
  5
105
330
1F
100
AcDbEntity
  8
Default
100
AcDbSpline
210
0.0
220
0.0
230
1.0
 70
     8
 71
     3
 72
     8
 73
     4
 74
     0
 42
0.0000000001
 43
0.0000000001
 40
0.0
 40
0.0
 40
0.0
 40
0.0
 40
1.0
 40
1.0
 40
1.0
 40
1.0
 10
39.22737406518988
 20
43.3924353133981
 30
0.0
 10
38.58845773952314
 20
42.94062213433784
 30
0.0
 10
38.16514745308319
 20
42.26727657204067
 30
0.0
 10
37.84879356568373
 20
41.55724411825206
 30
0.0
  0
SPLINE
  5
106
330
1F
100
AcDbEntity
  8
Default
100
AcDbSpline
210
0.0
220
0.0
230
1.0
 70
     8
 71
     3
 72
     8
 73
     4
 74
     0
 42
0.0000000001
 43
0.0000000001
 40
0.0
 40
0.0
 40
0.0
 40
0.0
 40
1.0
 40
1.0
 40
1.0
 40
1.0
 10
37.84879356568373
 20
41.55724411825206
 30
0.0
 10
37.53215747142664
 20
40.84749387132106
 30
0.0
 10
37.32219556935242
 20
40.10133893975622
 30
0.0
 10
37.16049103993236
 20
39.34389573388631
 30
0.0
  0
SPLINE
  5
107
330
1F
100
AcDbEntity
  8
Default
100
AcDbSpline
210
0.0
220
0.0
230
1.0
 70
     8
 71
     3
 72
     8
 73
     4
 74
     0
 42
0.0000000001
 43
0.0000000001
 40
0.0
 40
0.0
 40
0.0
 40
0.0
 40
1.0
 40
1.0
 40
1.0
 40
1.0
 10
37.16049103993236
 20
39.34389573388631
 30
0.0
 10
36.9990687173699
 20
38.5864525280164
 30
0.0
 10
36.88590376746162
 20
37.81800325469906
 30
0.0
 10
36.81704529420073
 20
37.0472963265207
 30
0.0
  0
SPLINE
  5
108
330
1F
100
AcDbEntity
  8
Default
100
AcDbSpline
210
0.0
220
0.0
230
1.0
 70
     8
 71
     3
 72
     8
 73
     4
 74
     0
 42
0.0000000001
 43
0.0000000001
 40
0.0
 40
0.0
 40
0.0
 40
0.0
 40
1.0
 40
1.0
 40
1.0
 40
1.0
 10
36.81704529420073
 20
37.0472963265207
 30
0.0
 10
36.74846902779746
 20
36.27630719148472
 30
0.0
 10
36.72391703118395
 20
35.50334260844535
 30
0.0
 10
36.70246931000431
 20
34.7272737499721
 30
0.0
  0
SPLINE
  5
109
330
1F
100
AcDbEntity
  8
Default
100
AcDbSpline
210
0.0
220
0.0
230
1.0
 70
     8
 71
     3
 72
     8
 73
     4
 74
     0
 42
0.0000000001
 43
0.0000000001
 40
0.0
 40
0.0
 40
0.0
 40
0.0
 40
1.0
 40
1.0
 40
1.0
 40
1.0
 10
36.70246931000431
 20
34.7272737499721
 30
0.0
 10
36.68073938196707
 20
33.95148709835645
 30
0.0
 10
36.66154931564845
 20
33.17259617130692
 30
0.0
 10
36.80124171017363
 20
32.410637655715
 30
0.0
  0
SPLINE
  5
10A
330
1F
100
AcDbEntity
  8
Default
100
AcDbSpline
210
0.0
220
0.0
230
1.0
 70
     8
 71
     3
 72
     8
 73
     4
 74
     0
 42
0.0000000001
 43
0.0000000001
 40
0.0
 40
0.0
 40
0.0
 40
0.0
 40
1.0
 40
1.0
 40
1.0
 40
1.0
 10
36.80124171017363
 20
32.410637655715
 30
0.0
 10
36.94121631155645
 20
31.64839693326543
 30
0.0
 10
37.24007337378307
 20
30.90308862227348
 30
0.0
 10
37.78868350500925
 20
30.34544787160323
 30
0.0
  0
SPLINE
  5
10B
330
1F
100
AcDbEntity
  8
Default
100
AcDbSpline
210
0.0
220
0.0
230
1.0
 70
     8
 71
     3
 72
     8
 73
     4
 74
     0
 42
0.0000000001
 43
0.0000000001
 40
0.0
 40
0.0
 40
0.0
 40
0.0
 40
1.0
 40
1.0
 40
1.0
 40
1.0
 10
-37.82410046564139
 20
30.16040483505745
 30
0.0
 10
-37.81027232961767
 20
30.16040483505745
 30
0.0
 10
-37.7967264004516
 20
30.16012262819982
 30
0.0
 10
-37.7828982644279
 20
30.15984042134219
 30
0.0
  0
SPLINE
  5
10C
330
1F
100
AcDbEntity
  8
Default
100
AcDbSpline
210
0.0
220
0.0
230
1.0
 70
     8
 71
     3
 72
     8
 73
     4
 74
     0
 42
0.0000000001
 43
0.0000000001
 40
0.0
 40
0.0
 40
0.0
 40
0.0
 40
1.0
 40
1.0
 40
1.0
 40
1.0
 10
-37.7828982644279
 20
30.15984042134219
 30
0.0
 10
-37.47726823761824
 20
30.15363187047441
 30
0.0
 10
-37.18038662339502
 20
30.07630719148471
 30
0.0
 10
-36.91398334979547
 20
29.93859024496291
 30
0.0
  0
SPLINE
  5
10D
330
1F
100
AcDbEntity
  8
Default
100
AcDbSpline
210
0.0
220
0.0
230
1.0
 70
     8
 71
     3
 72
     8
 73
     4
 74
     0
 42
0.0000000001
 43
0.0000000001
 40
0.0
 40
0.0
 40
0.0
 40
0.0
 40
1.0
 40
1.0
 40
1.0
 40
1.0
 10
-36.91398334979547
 20
29.93859024496291
 30
0.0
 10
-36.64786228305355
 20
29.80059109158348
 30
0.0
 10
-36.41193735007768
 20
29.60248187752958
 30
0.0
 10
-36.20479751657972
 20
29.38094949429266
 30
0.0
  0
SPLINE
  5
10E
330
1F
100
AcDbEntity
  8
Default
100
AcDbSpline
210
0.0
220
0.0
230
1.0
 70
     8
 71
     3
 72
     8
 73
     4
 74
     0
 42
0.0000000001
 43
0.0000000001
 40
0.0
 40
0.0
 40
0.0
 40
0.0
 40
1.0
 40
1.0
 40
1.0
 40
1.0
 10
-36.20479751657972
 20
29.38094949429266
 30
0.0
 10
-35.99765768308177
 20
29.15969931791338
 30
0.0
 10
-35.81930294906172
 20
28.91502597235108
 30
0.0
 10
-35.65957386764505
 20
28.65906435248372
 30
0.0
  0
SPLINE
  5
10F
330
1F
100
AcDbEntity
  8
Default
100
AcDbSpline
210
0.0
220
0.0
230
1.0
 70
     8
 71
     3
 72
     8
 73
     4
 74
     0
 42
0.0000000001
 43
0.0000000001
 40
0.0
 40
0.0
 40
0.0
 40
0.0
 40
1.0
 40
1.0
 40
1.0
 40
1.0
 10
-35.65957386764505
 20
28.65906435248372
 30
0.0
 10
-35.50012699308599
 20
28.40282052575873
 30
0.0
 10
-35.3593057711303
 20
28.13500621787104
 30
0.0
 10
-35.22074220403563
 20
27.86662749626812
 30
0.0
  0
SPLINE
  5
110
330
1F
100
AcDbEntity
  8
Default
100
AcDbSpline
210
0.0
220
0.0
230
1.0
 70
     8
 71
     3
 72
     8
 73
     4
 74
     0
 42
0.0000000001
 43
0.0000000001
 40
0.0
 40
0.0
 40
0.0
 40
0.0
 40
1.0
 40
1.0
 40
1.0
 40
1.0
 10
-35.22074220403563
 20
27.86662749626812
 30
0.0
 10
-35.08217863694095
 20
27.59796656780754
 30
0.0
 10
-34.94587272470727
 20
27.32874122563173
 30
0.0
 10
-34.80928460561599
 20
27.05923367659829
 30
0.0
  0
SPLINE
  5
111
330
1F
100
AcDbEntity
  8
Default
100
AcDbSpline
210
0.0
220
0.0
230
1.0
 70
     8
 71
     3
 72
     8
 73
     4
 74
     0
 42
0.0000000001
 43
0.0000000001
 40
0.0
 40
0.0
 40
0.0
 40
0.0
 40
1.0
 40
1.0
 40
1.0
 40
1.0
 10
-34.80928460561599
 20
27.05923367659829
 30
0.0
 10
-34.67241427966706
 20
26.79000833442247
 30
0.0
 10
-34.53554395371814
 20
26.52078299224666
 30
0.0
 10
-34.40121348948786
 20
26.25014661578271
 30
0.0
  0
SPLINE
  5
112
330
1F
100
AcDbEntity
  8
Default
100
AcDbSpline
210
0.0
220
0.0
230
1.0
 70
     8
 71
     3
 72
     8
 73
     4
 74
     0
 42
0.0000000001
 43
0.0000000001
 40
0.0
 40
0.0
 40
0.0
 40
0.0
 40
1.0
 40
1.0
 40
1.0
 40
1.0
 10
-34.40121348948786
 20
26.25014661578271
 30
0.0
 10
-34.26688302525758
 20
25.97979244617639
 30
0.0
 10
-34.13509242274593
 20
25.70774503542431
 30
0.0
 10
-34.00584168195293
 20
25.43485100409934
 30
0.0
  0
SPLINE
  5
113
330
1F
100
AcDbEntity
  8
Default
100
AcDbSpline
210
0.0
220
0.0
230
1.0
 70
     8
 71
     3
 72
     8
 73
     4
 74
     0
 42
0.0000000001
 43
0.0000000001
 40
0.0
 40
0.0
 40
0.0
 40
0.0
 40
1.0
 40
1.0
 40
1.0
 40
1.0
 10
-34.00584168195293
 20
25.43485100409934
 30
0.0
 10
-33.87630873430231
 20
25.16195697277439
 30
0.0
 10
-33.74959785522795
 20
24.88765190716128
 30
0.0
 10
-33.62458021729935
 20
24.61278242783293
 30
0.0
  0
SPLINE
  5
114
330
1F
100
AcDbEntity
  8
Default
100
AcDbSpline
210
0.0
220
0.0
230
1.0
 70
     8
 71
     3
 72
     8
 73
     4
 74
     0
 42
0.0000000001
 43
0.0000000001
 40
0.0
 40
0.0
 40
0.0
 40
0.0
 40
1.0
 40
1.0
 40
1.0
 40
1.0
 10
-33.62458021729935
 20
24.61278242783293
 30
0.0
 10
-33.49928037251312
 20
24.33791294850459
 30
0.0
 10
-33.37595597573028
 20
24.06219684860336
 30
0.0
 10
-33.25404261323556
 20
23.78591633498688
 30
0.0
  0
SPLINE
  5
115
330
1F
100
AcDbEntity
  8
Default
100
AcDbSpline
210
0.0
220
0.0
230
1.0
 70
     8
 71
     3
 72
     8
 73
     4
 74
     0
 42
0.0000000001
 43
0.0000000001
 40
0.0
 40
0.0
 40
0.0
 40
0.0
 40
1.0
 40
1.0
 40
1.0
 40
1.0
 10
-33.25404261323556
 20
23.78591633498688
 30
0.0
 10
-33.13184704388323
 20
23.5096358213704
 30
0.0
 10
-33.01134471567665
 20
23.23279089403867
 30
0.0
 10
-32.89225342175821
 20
22.95509934613405
 30
0.0
  0
SPLINE
  5
116
330
1F
100
AcDbEntity
  8
Default
100
AcDbSpline
210
0.0
220
0.0
230
1.0
 70
     8
 71
     3
 72
     8
 73
     4
 74
     0
 42
0.0000000001
 43
0.0000000001
 40
0.0
 40
0.0
 40
0.0
 40
0.0
 40
1.0
 40
1.0
 40
1.0
 40
1.0
 10
-32.89225342175821
 20
22.95509934613405
 30
0.0
 10
-32.77316212783977
 20
22.67769000508707
 30
0.0
 10
-32.65548186820946
 20
22.39943404346719
 30
0.0
 10
-32.53921264286728
 20
22.12061366813208
 30
0.0
  0
SPLINE
  5
117
330
1F
100
AcDbEntity
  8
Default
100
AcDbSpline
210
0.0
220
0.0
230
1.0
 70
     8
 71
     3
 72
     8
 73
     4
 74
     0
 42
0.0000000001
 43
0.0000000001
 40
0.0
 40
0.0
 40
0.0
 40
0.0
 40
1.0
 40
1.0
 40
1.0
 40
1.0
 10
-32.53921264286728
 20
22.12061366813208
 30
0.0
 10
-32.42322562438273
 20
21.84179329279695
 30
0.0
 10
-32.30836743332869
 20
21.56240850374659
 30
0.0
 10
-32.19520248342041
 20
21.28217709412332
 30
0.0
  0
SPLINE
  5
118
330
1F
100
AcDbEntity
  8
Default
100
AcDbSpline
210
0.0
220
0.0
230
1.0
 70
     8
 71
     3
 72
     8
 73
     4
 74
     0
 42
0.0000000001
 43
0.0000000001
 40
0.0
 40
0.0
 40
0.0
 40
0.0
 40
1.0
 40
1.0
 40
1.0
 40
1.0
 10
-32.19520248342041
 20
21.28217709412332
 30
0.0
 10
-32.08203753351212
 20
21.00222789135769
 30
0.0
 10
-31.9705658247496
 20
20.72143206801919
 30
0.0
 10
-31.86022294341758
 20
20.44035403782306
 30
0.0
  0
SPLINE
  5
119
330
1F
100
AcDbEntity
  8
Default
100
AcDbSpline
210
0.0
220
0.0
230
1.0
 70
     8
 71
     3
 72
     8
 73
     4
 74
     0
 42
0.0000000001
 43
0.0000000001
 40
0.0
 40
0.0
 40
0.0
 40
0.0
 40
1.0
 40
1.0
 40
1.0
 40
1.0
 10
-31.86022294341758
 20
20.44035403782306
 30
0.0
 10
-31.7501622689432
 20
20.1589938007693
 30
0.0
 10
-31.64151262875693
 20
19.87706915000028
 30
0.0
 10
-31.53427402285881
 20
19.59486229237364
 30
0.0
  0
SPLINE
  5
11A
330
1F
100
AcDbEntity
  8
Default
100
AcDbSpline
210
0.0
220
0.0
230
1.0
 70
     8
 71
     3
 72
     8
 73
     4
 74
     0
 42
0.0000000001
 43
0.0000000001
 40
0.0
 40
0.0
 40
0.0
 40
0.0
 40
1.0
 40
1.0
 40
1.0
 40
1.0
 10
-31.53427402285881
 20
19.59486229237364
 30
0.0
 10
-31.42731762381832
 20
19.31237322788937
 30
0.0
 10
-31.32149005220833
 20
19.02931974968986
 30
0.0
 10
-31.21707351488647
 20
18.7459840646327
 30
0.0
  0
SPLINE
  5
11B
330
1F
100
AcDbEntity
  8
Default
100
AcDbSpline
210
0.0
220
0.0
230
1.0
 70
     8
 71
     3
 72
     8
 73
     4
 74
     0
 42
0.0000000001
 43
0.0000000001
 40
0.0
 40
0.0
 40
0.0
 40
0.0
 40
1.0
 40
1.0
 40
1.0
 40
1.0
 10
-31.21707351488647
 20
18.7459840646327
 30
0.0
 10
-31.11293918442224
 20
18.46236617271792
 30
0.0
 10
-31.01021588824614
 20
18.17846607394553
 30
0.0
 10
-30.90946804007343
 20
17.89371935460025
 30
0.0
  0
SPLINE
  5
11C
330
1F
100
AcDbEntity
  8
Default
100
AcDbSpline
210
0.0
220
0.0
230
1.0
 70
     8
 71
     3
 72
     8
 73
     4
 74
     0
 42
0.0000000001
 43
0.0000000001
 40
0.0
 40
0.0
 40
0.0
 40
0.0
 40
1.0
 40
1.0
 40
1.0
 40
1.0
 10
-30.90946804007343
 20
17.89371935460025
 30
0.0
 10
-30.80843798504309
 20
17.60897263525497
 30
0.0
 10
-30.70966558487377
 20
17.32366150219444
 30
0.0
 10
-30.61286863270783
 20
17.03750374856102
 30
0.0
  0
SPLINE
  5
11D
330
1F
100
AcDbEntity
  8
Default
100
AcDbSpline
210
0.0
220
0.0
230
1.0
 70
     8
 71
     3
 72
     8
 73
     4
 74
     0
 42
0.0000000001
 43
0.0000000001
 40
0.0
 40
0.0
 40
0.0
 40
0.0
 40
1.0
 40
1.0
 40
1.0
 40
1.0
 10
-30.61286863270783
 20
17.03750374856102
 30
0.0
 10
-30.51635388739952
 20
16.7513459949276
 30
0.0
 10
-30.4218145900946
 20
16.46434162072131
 30
0.0
 10
-30.32981515450831
 20
16.17677283279977
 30
0.0
  0
SPLINE
  5
11E
330
1F
100
AcDbEntity
  8
Default
100
AcDbSpline
210
0.0
220
0.0
230
1.0
 70
     8
 71
     3
 72
     8
 73
     4
 74
     0
 42
0.0000000001
 43
0.0000000001
 40
0.0
 40
0.0
 40
0.0
 40
0.0
 40
1.0
 40
1.0
 40
1.0
 40
1.0
 10
-30.32981515450831
 20
16.17677283279977
 30
0.0
 10
-30.23781571892203
 20
15.88892183802059
 30
0.0
 10
-30.14835614505438
 20
15.60050642952616
 30
0.0
 10
-30.061718639763
 20
15.31124440045886
 30
0.0
  0
SPLINE
  5
11F
330
1F
100
AcDbEntity
  8
Default
100
AcDbSpline
210
0.0
220
0.0
230
1.0
 70
     8
 71
     3
 72
     8
 73
     4
 74
     0
 42
0.0000000001
 43
0.0000000001
 40
0.0
 40
0.0
 40
0.0
 40
0.0
 40
1.0
 40
1.0
 40
1.0
 40
1.0
 10
-30.061718639763
 20
15.31124440045886
 30
0.0
 10
-29.974798927614
 20
15.02170016453392
 30
0.0
 10
-29.89070128404126
 20
14.73159151489374
 30
0.0
 10
-29.81817412163121
 20
14.43837858981965
 30
0.0
  0
SPLINE
  5
120
330
1F
100
AcDbEntity
  8
Default
100
AcDbSpline
210
0.0
220
0.0
230
1.0
 70
     8
 71
     3
 72
     8
 73
     4
 74
     0
 42
0.0000000001
 43
0.0000000001
 40
0.0
 40
0.0
 40
0.0
 40
0.0
 40
1.0
 40
1.0
 40
1.0
 40
1.0
 10
-29.81817412163121
 20
14.43837858981965
 30
0.0
 10
-29.74564695922116
 20
14.14516566474558
 30
0.0
 10
-29.68469027797381
 20
13.8488484642376
 30
0.0
 10
-29.64461690419082
 20
13.54942698829574
 30
0.0
  0
SPLINE
  5
121
330
1F
100
AcDbEntity
  8
Default
100
AcDbSpline
210
0.0
220
0.0
230
1.0
 70
     8
 71
     3
 72
     8
 73
     4
 74
     0
 42
0.0000000001
 43
0.0000000001
 40
0.0
 40
0.0
 40
0.0
 40
0.0
 40
1.0
 40
1.0
 40
1.0
 40
1.0
 10
-29.64461690419082
 20
13.54942698829574
 30
0.0
 10
-29.60426132355021
 20
13.2502877192115
 30
0.0
 10
-29.58478905037398
 20
12.94804417469337
 30
0.0
 10
-29.58789332580787
 20
12.64608283703286
 30
0.0
  0
SPLINE
  5
122
330
1F
100
AcDbEntity
  8
Default
100
AcDbSpline
210
0.0
220
0.0
230
1.0
 70
     8
 71
     3
 72
     8
 73
     4
 74
     0
 42
0.0000000001
 43
0.0000000001
 40
0.0
 40
0.0
 40
0.0
 40
0.0
 40
1.0
 40
1.0
 40
1.0
 40
1.0
 10
-29.58789332580787
 20
12.64608283703286
 30
0.0
 10
-29.59099760124176
 20
12.34412149937235
 30
0.0
 10
-29.61696063214342
 20
12.04216016171185
 30
0.0
 10
-29.70303372371954
 20
11.74951165035302
 30
0.0
  0
SPLINE
  5
123
330
1F
100
AcDbEntity
  8
Default
100
AcDbSpline
210
0.0
220
0.0
230
1.0
 70
     8
 71
     3
 72
     8
 73
     4
 74
     0
 42
0.0000000001
 43
0.0000000001
 40
0.0
 40
0.0
 40
0.0
 40
0.0
 40
1.0
 40
1.0
 40
1.0
 40
1.0
 10
-29.70303372371954
 20
11.74951165035302
 30
0.0
 10
-29.78910681529566
 20
11.45658093213657
 30
0.0
 10
-29.93557217440389
 20
11.17268083336416
 30
0.0
 10
-30.16726400451536
 20
10.99093961705261
 30
0.0
  0
SPLINE
  5
124
330
1F
100
AcDbEntity
  8
Default
100
AcDbSpline
210
0.0
220
0.0
230
1.0
 70
     8
 71
     3
 72
     8
 73
     4
 74
     0
 42
0.0000000001
 43
0.0000000001
 40
0.0
 40
0.0
 40
0.0
 40
0.0
 40
1.0
 40
1.0
 40
1.0
 40
1.0
 10
-30.16726400451536
 20
10.99093961705261
 30
0.0
 10
-30.38428107803025
 20
10.82076888190374
 30
0.0
 10
-30.6760829688162
 20
10.74033992748015
 30
0.0
 10
-30.96224072244962
 20
10.74033992748015
 30
0.0
  0
SPLINE
  5
125
330
1F
100
AcDbEntity
  8
Default
100
AcDbSpline
210
0.0
220
0.0
230
1.0
 70
     8
 71
     3
 72
     8
 73
     4
 74
     0
 42
0.0000000001
 43
0.0000000001
 40
0.0
 40
0.0
 40
0.0
 40
0.0
 40
1.0
 40
1.0
 40
1.0
 40
1.0
 10
-30.96224072244962
 20
10.74033992748015
 30
0.0
 10
-30.98171299562585
 20
10.74033992748015
 30
0.0
 10
-31.00090306194446
 20
10.74062213433778
 30
0.0
 10
-31.0203753351207
 20
10.74118654805303
 30
0.0
  0
SPLINE
  5
126
330
1F
100
AcDbEntity
  8
Default
100
AcDbSpline
210
0.0
220
0.0
230
1.0
 70
     8
 71
     3
 72
     8
 73
     4
 74
     0
 42
0.0000000001
 43
0.0000000001
 40
0.0
 40
0.0
 40
0.0
 40
0.0
 40
1.0
 40
1.0
 40
1.0
 40
1.0
 10
-31.0203753351207
 20
10.74118654805303
 30
0.0
 10
-31.32459432764222
 20
10.75303923607336
 30
0.0
 10
-31.61583180471291
 20
10.85576253224945
 30
0.0
 10
-31.87574432058705
 20
11.00900085594071
 30
0.0
  0
SPLINE
  5
127
330
1F
100
AcDbEntity
  8
Default
100
AcDbSpline
210
0.0
220
0.0
230
1.0
 70
     8
 71
     3
 72
     8
 73
     4
 74
     0
 42
0.0000000001
 43
0.0000000001
 40
0.0
 40
0.0
 40
0.0
 40
0.0
 40
1.0
 40
1.0
 40
1.0
 40
1.0
 10
-31.87574432058705
 20
11.00900085594071
 30
0.0
 10
-32.13565683646118
 20
11.1625213864896
 30
0.0
 10
-32.36396218428114
 20
11.36627473769605
 30
0.0
 10
-32.56432905319605
 20
11.59288684437024
 30
0.0
  0
SPLINE
  5
128
330
1F
100
AcDbEntity
  8
Default
100
AcDbSpline
210
0.0
220
0.0
230
1.0
 70
     8
 71
     3
 72
     8
 73
     4
 74
     0
 42
0.0000000001
 43
0.0000000001
 40
0.0
 40
0.0
 40
0.0
 40
0.0
 40
1.0
 40
1.0
 40
1.0
 40
1.0
 10
-32.56432905319605
 20
11.59288684437024
 30
0.0
 10
-32.76469592211097
 20
11.8192167441868
 30
0.0
 10
-32.93740651897848
 20
12.06840539947113
 30
0.0
 10
-33.09064484266974
 20
12.32860012220289
 30
0.0
  0
SPLINE
  5
129
330
1F
100
AcDbEntity
  8
Default
100
AcDbSpline
210
0.0
220
0.0
230
1.0
 70
     8
 71
     3
 72
     8
 73
     4
 74
     0
 42
0.0000000001
 43
0.0000000001
 40
0.0
 40
0.0
 40
0.0
 40
0.0
 40
1.0
 40
1.0
 40
1.0
 40
1.0
 10
-33.09064484266974
 20
12.32860012220289
 30
0.0
 10
-33.24388316636101
 20
12.58879484493466
 30
0.0
 10
-33.37793142373366
 20
12.85999563511385
 30
0.0
 10
-33.50577113023854
 20
13.1337362870117
 30
0.0
  0
SPLINE
  5
12A
330
1F
100
AcDbEntity
  8
Default
100
AcDbSpline
210
0.0
220
0.0
230
1.0
 70
     8
 71
     3
 72
     8
 73
     4
 74
     0
 42
0.0000000001
 43
0.0000000001
 40
0.0
 40
0.0
 40
0.0
 40
0.0
 40
1.0
 40
1.0
 40
1.0
 40
1.0
 10
-33.50577113023854
 20
13.1337362870117
 30
0.0
 10
-33.63389304360102
 20
13.40747693890953
 30
0.0
 10
-33.75608861295336
 20
13.68347524566839
 30
0.0
 10
-33.88082404402433
 20
13.95862693185437
 30
0.0
  0
SPLINE
  5
12B
330
1F
100
AcDbEntity
  8
Default
100
AcDbSpline
210
0.0
220
0.0
230
1.0
 70
     8
 71
     3
 72
     8
 73
     4
 74
     0
 42
0.0000000001
 43
0.0000000001
 40
0.0
 40
0.0
 40
0.0
 40
0.0
 40
1.0
 40
1.0
 40
1.0
 40
1.0
 10
-33.88082404402433
 20
13.95862693185437
 30
0.0
 10
-34.00555947509531
 20
14.23377861804034
 30
0.0
 10
-34.13283476788492
 20
14.50751926993818
 30
0.0
 10
-34.25841681952878
 20
14.78238874926653
 30
0.0
  0
SPLINE
  5
12C
330
1F
100
AcDbEntity
  8
Default
100
AcDbSpline
210
0.0
220
0.0
230
1.0
 70
     8
 71
     3
 72
     8
 73
     4
 74
     0
 42
0.0000000001
 43
0.0000000001
 40
0.0
 40
0.0
 40
0.0
 40
0.0
 40
1.0
 40
1.0
 40
1.0
 40
1.0
 10
-34.25841681952878
 20
14.78238874926653
 30
0.0
 10
-34.383716664315
 20
15.05725822859488
 30
0.0
 10
-34.50732326795548
 20
15.33297432849611
 30
0.0
 10
-34.62951883730781
 20
15.60897263525497
 30
0.0
  0
SPLINE
  5
12D
330
1F
100
AcDbEntity
  8
Default
100
AcDbSpline
210
0.0
220
0.0
230
1.0
 70
     8
 71
     3
 72
     8
 73
     4
 74
     0
 42
0.0000000001
 43
0.0000000001
 40
0.0
 40
0.0
 40
0.0
 40
0.0
 40
1.0
 40
1.0
 40
1.0
 40
1.0
 10
-34.62951883730781
 20
15.60897263525497
 30
0.0
 10
-34.75199661351778
 20
15.88525314887144
 30
0.0
 10
-34.8730633554396
 20
16.16181586934556
 30
0.0
 10
-34.99356568364617
 20
16.43894300353491
 30
0.0
  0
SPLINE
  5
12E
330
1F
100
AcDbEntity
  8
Default
100
AcDbSpline
210
0.0
220
0.0
230
1.0
 70
     8
 71
     3
 72
     8
 73
     4
 74
     0
 42
0.0000000001
 43
0.0000000001
 40
0.0
 40
0.0
 40
0.0
 40
0.0
 40
1.0
 40
1.0
 40
1.0
 40
1.0
 10
-34.99356568364617
 20
16.43894300353491
 30
0.0
 10
-35.11378580499513
 20
16.71578793086665
 30
0.0
 10
-35.23372371948645
 20
16.99319727191363
 30
0.0
 10
-35.35253280654726
 20
17.27088881981825
 30
0.0
  0
SPLINE
  5
12F
330
1F
100
AcDbEntity
  8
Default
100
AcDbSpline
210
0.0
220
0.0
230
1.0
 70
     8
 71
     3
 72
     8
 73
     4
 74
     0
 42
0.0000000001
 43
0.0000000001
 40
0.0
 40
0.0
 40
0.0
 40
0.0
 40
1.0
 40
1.0
 40
1.0
 40
1.0
 10
-35.35253280654726
 20
17.27088881981825
 30
0.0
 10
-35.47134189360808
 20
17.54858036772287
 30
0.0
 10
-35.58930436009602
 20
17.82655412248511
 30
0.0
 10
-35.7067024128687
 20
18.10481008410498
 30
0.0
  0
SPLINE
  5
130
330
1F
100
AcDbEntity
  8
Default
100
AcDbSpline
210
0.0
220
0.0
230
1.0
 70
     8
 71
     3
 72
     8
 73
     4
 74
     0
 42
0.0000000001
 43
0.0000000001
 40
0.0
 40
0.0
 40
0.0
 40
0.0
 40
1.0
 40
1.0
 40
1.0
 40
1.0
 10
-35.7067024128687
 20
18.10481008410498
 30
0.0
 10
-35.82381825878375
 20
18.38334825258247
 30
0.0
 10
-35.94036969098356
 20
18.66188642105996
 30
0.0
 10
-36.05607450261049
 20
18.94098900325271
 30
0.0
  0
SPLINE
  5
131
330
1F
100
AcDbEntity
  8
Default
100
AcDbSpline
210
0.0
220
0.0
230
1.0
 70
     8
 71
     3
 72
     8
 73
     4
 74
     0
 42
0.0000000001
 43
0.0000000001
 40
0.0
 40
0.0
 40
0.0
 40
0.0
 40
1.0
 40
1.0
 40
1.0
 40
1.0
 10
-36.05607450261049
 20
18.94098900325271
 30
0.0
 10
-36.1717793142374
 20
19.22009158544546
 30
0.0
 10
-36.28691971214907
 20
19.49919416763821
 30
0.0
 10
-36.40093128263024
 20
19.77886116354621
 30
0.0
  0
SPLINE
  5
132
330
1F
100
AcDbEntity
  8
Default
100
AcDbSpline
210
0.0
220
0.0
230
1.0
 70
     8
 71
     3
 72
     8
 73
     4
 74
     0
 42
0.0000000001
 43
0.0000000001
 40
0.0
 40
0.0
 40
0.0
 40
0.0
 40
1.0
 40
1.0
 40
1.0
 40
1.0
 10
-36.40093128263024
 20
19.77886116354621
 30
0.0
 10
-36.51522505996903
 20
20.05852815945422
 30
0.0
 10
-36.62867221673493
 20
20.33847736221983
 30
0.0
 10
-36.74155495978559
 20
20.61870877184309
 30
0.0
  0
SPLINE
  5
133
330
1F
100
AcDbEntity
  8
Default
100
AcDbSpline
210
0.0
220
0.0
230
1.0
 70
     8
 71
     3
 72
     8
 73
     4
 74
     0
 42
0.0000000001
 43
0.0000000001
 40
0.0
 40
0.0
 40
0.0
 40
0.0
 40
1.0
 40
1.0
 40
1.0
 40
1.0
 10
-36.74155495978559
 20
20.61870877184309
 30
0.0
 10
-36.85415549597862
 20
20.89894018146635
 30
0.0
 10
-36.96590941159877
 20
21.17945379794722
 30
0.0
 10
-37.07709891350367
 20
21.46024962128573
 30
0.0
  0
SPLINE
  5
134
330
1F
100
AcDbEntity
  8
Default
100
AcDbSpline
210
0.0
220
0.0
230
1.0
 70
     8
 71
     3
 72
     8
 73
     4
 74
     0
 42
0.0000000001
 43
0.0000000001
 40
0.0
 40
0.0
 40
0.0
 40
0.0
 40
1.0
 40
1.0
 40
1.0
 40
1.0
 10
-37.07709891350367
 20
21.46024962128573
 30
0.0
 10
-37.18828841540857
 20
21.74132765148187
 30
0.0
 10
-37.29834908988295
 20
22.022405681678
 30
0.0
 10
-37.40756314378446
 20
22.30404812558939
 30
0.0
  0
SPLINE
  5
135
330
1F
100
AcDbEntity
  8
Default
100
AcDbSpline
210
0.0
220
0.0
230
1.0
 70
     8
 71
     3
 72
     8
 73
     4
 74
     0
 42
0.0000000001
 43
0.0000000001
 40
0.0
 40
0.0
 40
0.0
 40
0.0
 40
1.0
 40
1.0
 40
1.0
 40
1.0
 10
-37.40756314378446
 20
22.30404812558939
 30
0.0
 10
-37.5170594045436
 20
22.58569056950078
 30
0.0
 10
-37.62542683787223
 20
22.86761522026979
 30
0.0
 10
-37.73294765062798
 20
23.14982207789644
 30
0.0
  0
SPLINE
  5
136
330
1F
100
AcDbEntity
  8
Default
100
AcDbSpline
210
0.0
220
0.0
230
1.0
 70
     8
 71
     3
 72
     8
 73
     4
 74
     0
 42
0.0000000001
 43
0.0000000001
 40
0.0
 40
0.0
 40
0.0
 40
0.0
 40
1.0
 40
1.0
 40
1.0
 40
1.0
 10
-37.73294765062798
 20
23.14982207789644
 30
0.0
 10
-37.84046846338373
 20
23.43202893552308
 30
0.0
 10
-37.9471426555666
 20
23.71480020686497
 30
0.0
 10
-38.05268802031897
 20
23.99757147820687
 30
0.0
  0
SPLINE
  5
137
330
1F
100
AcDbEntity
  8
Default
100
AcDbSpline
210
0.0
220
0.0
230
1.0
 70
     8
 71
     3
 72
     8
 73
     4
 74
     0
 42
0.0000000001
 43
0.0000000001
 40
0.0
 40
0.0
 40
0.0
 40
0.0
 40
1.0
 40
1.0
 40
1.0
 40
1.0
 10
-38.05268802031897
 20
23.99757147820687
 30
0.0
 10
-38.15851559192896
 20
24.28062495640638
 30
0.0
 10
-38.26349654296606
 20
24.56367843460591
 30
0.0
 10
-38.36621983914216
 20
24.84786074023593
 30
0.0
  0
SPLINE
  5
138
330
1F
100
AcDbEntity
  8
Default
100
AcDbSpline
210
0.0
220
0.0
230
1.0
 70
     8
 71
     3
 72
     8
 73
     4
 74
     0
 42
0.0000000001
 43
0.0000000001
 40
0.0
 40
0.0
 40
0.0
 40
0.0
 40
1.0
 40
1.0
 40
1.0
 40
1.0
 10
-38.36621983914216
 20
24.84786074023593
 30
0.0
 10
-38.46866092846064
 20
25.13204304586596
 30
0.0
 10
-38.56884436291809
 20
25.41707197206887
 30
0.0
 10
-38.67043883166368
 20
25.70153648455652
 30
0.0
  0
SPLINE
  5
139
330
1F
100
AcDbEntity
  8
Default
100
AcDbSpline
210
0.0
220
0.0
230
1.0
 70
     8
 71
     3
 72
     8
 73
     4
 74
     0
 42
0.0000000001
 43
0.0000000001
 40
0.0
 40
0.0
 40
0.0
 40
0.0
 40
1.0
 40
1.0
 40
1.0
 40
1.0
 10
-38.67043883166368
 20
25.70153648455652
 30
0.0
 10
-38.77175109355164
 20
25.98600099704418
 30
0.0
 10
-38.87419218287012
 20
26.26990109581658
 30
0.0
 10
-38.97240016932418
 20
26.55577664259237
 30
0.0
  0
SPLINE
  5
13A
330
1F
100
AcDbEntity
  8
Default
100
AcDbSpline
210
0.0
220
0.0
230
1.0
 70
     8
 71
     3
 72
     8
 73
     4
 74
     0
 42
0.0000000001
 43
0.0000000001
 40
0.0
 40
0.0
 40
0.0
 40
0.0
 40
1.0
 40
1.0
 40
1.0
 40
1.0
 10
-38.97240016932418
 20
26.55577664259237
 30
0.0
 10
-39.07089036263589
 20
26.84165218936815
 30
0.0
 10
-39.16514745308319
 20
27.1292209772897
 30
0.0
 10
-39.22949061662205
 20
27.42412714350954
 30
0.0
  0
SPLINE
  5
13B
330
1F
100
AcDbEntity
  8
Default
100
AcDbSpline
210
0.0
220
0.0
230
1.0
 70
     8
 71
     3
 72
     8
 73
     4
 74
     0
 42
0.0000000001
 43
0.0000000001
 40
0.0
 40
0.0
 40
0.0
 40
0.0
 40
1.0
 40
1.0
 40
1.0
 40
1.0
 10
-39.22949061662205
 20
27.42412714350954
 30
0.0
 10
-39.29411598701856
 20
27.71903330972938
 30
0.0
 10
-39.32882743050663
 20
28.02127685424751
 30
0.0
 10
-39.32459432764224
 20
28.32323819190801
 30
0.0
  0
SPLINE
  5
13C
330
1F
100
AcDbEntity
  8
Default
100
AcDbSpline
210
0.0
220
0.0
230
1.0
 70
     8
 71
     3
 72
     8
 73
     4
 74
     0
 42
0.0000000001
 43
0.0000000001
 40
0.0
 40
0.0
 40
0.0
 40
0.0
 40
1.0
 40
1.0
 40
1.0
 40
1.0
 10
-39.32459432764224
 20
28.32323819190801
 30
0.0
 10
-39.32007901792021
 20
28.62491732271089
 30
0.0
 10
-39.27661916184571
 20
28.92603203979852
 30
0.0
 10
-39.16909834908995
 20
29.21162537971668
 30
0.0
  0
SPLINE
  5
13D
330
1F
100
AcDbEntity
  8
Default
100
AcDbSpline
210
0.0
220
0.0
230
1.0
 70
     8
 71
     3
 72
     8
 73
     4
 74
     0
 42
0.0000000001
 43
0.0000000001
 40
0.0
 40
0.0
 40
0.0
 40
0.0
 40
1.0
 40
1.0
 40
1.0
 40
1.0
 10
-39.16909834908995
 20
29.21162537971668
 30
0.0
 10
-39.06157753633421
 20
29.49750092649247
 30
0.0
 10
-38.88971356003959
 20
29.76757288924116
 30
0.0
 10
-38.64673345562304
 20
29.93463934895613
 30
0.0
  0
SPLINE
  5
13E
330
1F
100
AcDbEntity
  8
Default
100
AcDbSpline
210
0.0
220
0.0
230
1.0
 70
     8
 71
     3
 72
     8
 73
     4
 74
     0
 42
0.0000000001
 43
0.0000000001
 40
0.0
 40
0.0
 40
0.0
 40
0.0
 40
1.0
 40
1.0
 40
1.0
 40
1.0
 10
-38.64673345562304
 20
29.93463934895613
 30
0.0
 10
-38.41447721179632
 20
30.09436843037281
 30
0.0
 10
-38.11674897700021
 20
30.16040483505745
 30
0.0
 10
-37.82410046564139
 20
30.16040483505745
 30
0.0
  0
SPLINE
  5
13F
330
1F
100
AcDbEntity
  8
Default
100
AcDbSpline
210
0.0
220
0.0
230
1.0
 70
     8
 71
     3
 72
     8
 73
     4
 74
     0
 42
0.0000000001
 43
0.0000000001
 40
0.0
 40
0.0
 40
0.0
 40
0.0
 40
1.0
 40
1.0
 40
1.0
 40
1.0
 10
37.82412868632718
 20
30.16040483505745
 30
0.0
 10
38.11677719768598
 20
30.16040483505745
 30
0.0
 10
38.41450543248209
 20
30.09436843037281
 30
0.0
 10
38.64676167630883
 20
29.93463934895613
 30
0.0
  0
SPLINE
  5
140
330
1F
100
AcDbEntity
  8
Default
100
AcDbSpline
210
0.0
220
0.0
230
1.0
 70
     8
 71
     3
 72
     8
 73
     4
 74
     0
 42
0.0000000001
 43
0.0000000001
 40
0.0
 40
0.0
 40
0.0
 40
0.0
 40
1.0
 40
1.0
 40
1.0
 40
1.0
 10
38.64676167630883
 20
29.93463934895613
 30
0.0
 10
38.89002398758299
 20
29.76757288924116
 30
0.0
 10
39.06160575702
 20
29.49750092649247
 30
0.0
 10
39.16912656977573
 20
29.21162537971668
 30
0.0
  0
SPLINE
  5
141
330
1F
100
AcDbEntity
  8
Default
100
AcDbSpline
210
0.0
220
0.0
230
1.0
 70
     8
 71
     3
 72
     8
 73
     4
 74
     0
 42
0.0000000001
 43
0.0000000001
 40
0.0
 40
0.0
 40
0.0
 40
0.0
 40
1.0
 40
1.0
 40
1.0
 40
1.0
 10
39.16912656977573
 20
29.21162537971668
 30
0.0
 10
39.27664738253149
 20
28.92603203979852
 30
0.0
 10
39.32010723860599
 20
28.62491732271089
 30
0.0
 10
39.32462254832802
 20
28.32323819190801
 30
0.0
  0
SPLINE
  5
142
330
1F
100
AcDbEntity
  8
Default
100
AcDbSpline
210
0.0
220
0.0
230
1.0
 70
     8
 71
     3
 72
     8
 73
     4
 74
     0
 42
0.0000000001
 43
0.0000000001
 40
0.0
 40
0.0
 40
0.0
 40
0.0
 40
1.0
 40
1.0
 40
1.0
 40
1.0
 10
39.32462254832802
 20
28.32323819190801
 30
0.0
 10
39.32885565119241
 20
28.02127685424751
 30
0.0
 10
39.29414420770433
 20
27.71903330972938
 30
0.0
 10
39.22951883730784
 20
27.42412714350954
 30
0.0
  0
SPLINE
  5
143
330
1F
100
AcDbEntity
  8
Default
100
AcDbSpline
210
0.0
220
0.0
230
1.0
 70
     8
 71
     3
 72
     8
 73
     4
 74
     0
 42
0.0000000001
 43
0.0000000001
 40
0.0
 40
0.0
 40
0.0
 40
0.0
 40
1.0
 40
1.0
 40
1.0
 40
1.0
 10
39.22951883730784
 20
27.42412714350954
 30
0.0
 10
39.16517567376896
 20
27.1292209772897
 30
0.0
 10
39.07091858332168
 20
26.84165218936815
 30
0.0
 10
38.97242839000997
 20
26.55577664259237
 30
0.0
  0
SPLINE
  5
144
330
1F
100
AcDbEntity
  8
Default
100
AcDbSpline
210
0.0
220
0.0
230
1.0
 70
     8
 71
     3
 72
     8
 73
     4
 74
     0
 42
0.0000000001
 43
0.0000000001
 40
0.0
 40
0.0
 40
0.0
 40
0.0
 40
1.0
 40
1.0
 40
1.0
 40
1.0
 10
38.97242839000997
 20
26.55577664259237
 30
0.0
 10
38.8742204035559
 20
26.26990109581658
 30
0.0
 10
38.77177931423743
 20
25.98600099704418
 30
0.0
 10
38.67046705234947
 20
25.70153648455652
 30
0.0
  0
SPLINE
  5
145
330
1F
100
AcDbEntity
  8
Default
100
AcDbSpline
210
0.0
220
0.0
230
1.0
 70
     8
 71
     3
 72
     8
 73
     4
 74
     0
 42
0.0000000001
 43
0.0000000001
 40
0.0
 40
0.0
 40
0.0
 40
0.0
 40
1.0
 40
1.0
 40
1.0
 40
1.0
 10
38.67046705234947
 20
25.70153648455652
 30
0.0
 10
38.56887258360387
 20
25.41707197206887
 30
0.0
 10
38.46868914914642
 20
25.13204304586596
 30
0.0
 10
38.36624805982795
 20
24.84786074023593
 30
0.0
  0
SPLINE
  5
146
330
1F
100
AcDbEntity
  8
Default
100
AcDbSpline
210
0.0
220
0.0
230
1.0
 70
     8
 71
     3
 72
     8
 73
     4
 74
     0
 42
0.0000000001
 43
0.0000000001
 40
0.0
 40
0.0
 40
0.0
 40
0.0
 40
1.0
 40
1.0
 40
1.0
 40
1.0
 10
38.36624805982795
 20
24.84786074023593
 30
0.0
 10
38.26352476365185
 20
24.56367843460591
 30
0.0
 10
38.15854381261475
 20
24.28062495640638
 30
0.0
 10
38.05271624100474
 20
23.99757147820687
 30
0.0
  0
SPLINE
  5
147
330
1F
100
AcDbEntity
  8
Default
100
AcDbSpline
210
0.0
220
0.0
230
1.0
 70
     8
 71
     3
 72
     8
 73
     4
 74
     0
 42
0.0000000001
 43
0.0000000001
 40
0.0
 40
0.0
 40
0.0
 40
0.0
 40
1.0
 40
1.0
 40
1.0
 40
1.0
 10
38.05271624100474
 20
23.99757147820687
 30
0.0
 10
37.94717087625238
 20
23.71480020686497
 30
0.0
 10
37.84049668406951
 20
23.43202893552308
 30
0.0
 10
37.73297587131376
 20
23.14982207789644
 30
0.0
  0
SPLINE
  5
148
330
1F
100
AcDbEntity
  8
Default
100
AcDbSpline
210
0.0
220
0.0
230
1.0
 70
     8
 71
     3
 72
     8
 73
     4
 74
     0
 42
0.0000000001
 43
0.0000000001
 40
0.0
 40
0.0
 40
0.0
 40
0.0
 40
1.0
 40
1.0
 40
1.0
 40
1.0
 10
37.73297587131376
 20
23.14982207789644
 30
0.0
 10
37.62545505855801
 20
22.86761522026979
 30
0.0
 10
37.51708762522937
 20
22.58569056950078
 30
0.0
 10
37.40787357132788
 20
22.30404812558939
 30
0.0
  0
SPLINE
  5
149
330
1F
100
AcDbEntity
  8
Default
100
AcDbSpline
210
0.0
220
0.0
230
1.0
 70
     8
 71
     3
 72
     8
 73
     4
 74
     0
 42
0.0000000001
 43
0.0000000001
 40
0.0
 40
0.0
 40
0.0
 40
0.0
 40
1.0
 40
1.0
 40
1.0
 40
1.0
 10
37.40787357132788
 20
22.30404812558939
 30
0.0
 10
37.29837731056873
 20
22.022405681678
 30
0.0
 10
37.18831663609433
 20
21.74132765148187
 30
0.0
 10
37.07712713418945
 20
21.46024962128573
 30
0.0
  0
SPLINE
  5
14A
330
1F
100
AcDbEntity
  8
Default
100
AcDbSpline
210
0.0
220
0.0
230
1.0
 70
     8
 71
     3
 72
     8
 73
     4
 74
     0
 42
0.0000000001
 43
0.0000000001
 40
0.0
 40
0.0
 40
0.0
 40
0.0
 40
1.0
 40
1.0
 40
1.0
 40
1.0
 10
37.07712713418945
 20
21.46024962128573
 30
0.0
 10
36.96593763228456
 20
21.17945379794722
 30
0.0
 10
36.85418371666439
 20
20.89894018146635
 30
0.0
 10
36.74158318047136
 20
20.61870877184309
 30
0.0
  0
SPLINE
  5
14B
330
1F
100
AcDbEntity
  8
Default
100
AcDbSpline
210
0.0
220
0.0
230
1.0
 70
     8
 71
     3
 72
     8
 73
     4
 74
     0
 42
0.0000000001
 43
0.0000000001
 40
0.0
 40
0.0
 40
0.0
 40
0.0
 40
1.0
 40
1.0
 40
1.0
 40
1.0
 10
36.74158318047136
 20
20.61870877184309
 30
0.0
 10
36.62870043742073
 20
20.33847736221983
 30
0.0
 10
36.51525328065481
 20
20.05852815945422
 30
0.0
 10
36.40095950331601
 20
19.77886116354621
 30
0.0
  0
SPLINE
  5
14C
330
1F
100
AcDbEntity
  8
Default
100
AcDbSpline
210
0.0
220
0.0
230
1.0
 70
     8
 71
     3
 72
     8
 73
     4
 74
     0
 42
0.0000000001
 43
0.0000000001
 40
0.0
 40
0.0
 40
0.0
 40
0.0
 40
1.0
 40
1.0
 40
1.0
 40
1.0
 10
36.40095950331601
 20
19.77886116354621
 30
0.0
 10
36.28694793283486
 20
19.49919416763821
 30
0.0
 10
36.17180753492317
 20
19.22009158544546
 30
0.0
 10
36.05610272329626
 20
18.94098900325271
 30
0.0
  0
SPLINE
  5
14D
330
1F
100
AcDbEntity
  8
Default
100
AcDbSpline
210
0.0
220
0.0
230
1.0
 70
     8
 71
     3
 72
     8
 73
     4
 74
     0
 42
0.0000000001
 43
0.0000000001
 40
0.0
 40
0.0
 40
0.0
 40
0.0
 40
1.0
 40
1.0
 40
1.0
 40
1.0
 10
36.05610272329626
 20
18.94098900325271
 30
0.0
 10
35.94039791166934
 20
18.66188642105996
 30
0.0
 10
35.82384647946952
 20
18.38334825258247
 30
0.0
 10
35.70673063355449
 20
18.10481008410498
 30
0.0
  0
SPLINE
  5
14E
330
1F
100
AcDbEntity
  8
Default
100
AcDbSpline
210
0.0
220
0.0
230
1.0
 70
     8
 71
     3
 72
     8
 73
     4
 74
     0
 42
0.0000000001
 43
0.0000000001
 40
0.0
 40
0.0
 40
0.0
 40
0.0
 40
1.0
 40
1.0
 40
1.0
 40
1.0
 10
35.70673063355449
 20
18.10481008410498
 30
0.0
 10
35.58933258078179
 20
17.82655412248511
 30
0.0
 10
35.47137011429387
 20
17.54858036772287
 30
0.0
 10
35.35256102723306
 20
17.27088881981825
 30
0.0
  0
SPLINE
  5
14F
330
1F
100
AcDbEntity
  8
Default
100
AcDbSpline
210
0.0
220
0.0
230
1.0
 70
     8
 71
     3
 72
     8
 73
     4
 74
     0
 42
0.0000000001
 43
0.0000000001
 40
0.0
 40
0.0
 40
0.0
 40
0.0
 40
1.0
 40
1.0
 40
1.0
 40
1.0
 10
35.35256102723306
 20
17.27088881981825
 30
0.0
 10
35.23375194017225
 20
16.99319727191363
 30
0.0
 10
35.11381402568092
 20
16.71578793086665
 30
0.0
 10
34.99359390433197
 20
16.43894300353491
 30
0.0
  0
SPLINE
  5
150
330
1F
100
AcDbEntity
  8
Default
100
AcDbSpline
210
0.0
220
0.0
230
1.0
 70
     8
 71
     3
 72
     8
 73
     4
 74
     0
 42
0.0000000001
 43
0.0000000001
 40
0.0
 40
0.0
 40
0.0
 40
0.0
 40
1.0
 40
1.0
 40
1.0
 40
1.0
 10
34.99359390433197
 20
16.43894300353491
 30
0.0
 10
34.87309157612538
 20
16.16181586934556
 30
0.0
 10
34.75202483420355
 20
15.88525314887144
 30
0.0
 10
34.62954705799358
 20
15.60897263525497
 30
0.0
  0
SPLINE
  5
151
330
1F
100
AcDbEntity
  8
Default
100
AcDbSpline
210
0.0
220
0.0
230
1.0
 70
     8
 71
     3
 72
     8
 73
     4
 74
     0
 42
0.0000000001
 43
0.0000000001
 40
0.0
 40
0.0
 40
0.0
 40
0.0
 40
1.0
 40
1.0
 40
1.0
 40
1.0
 10
34.62954705799358
 20
15.60897263525497
 30
0.0
 10
34.50735148864127
 20
15.33297432849611
 30
0.0
 10
34.38374488500079
 20
15.05725822859488
 30
0.0
 10
34.25844504021455
 20
14.78238874926653
 30
0.0
  0
SPLINE
  5
152
330
1F
100
AcDbEntity
  8
Default
100
AcDbSpline
210
0.0
220
0.0
230
1.0
 70
     8
 71
     3
 72
     8
 73
     4
 74
     0
 42
0.0000000001
 43
0.0000000001
 40
0.0
 40
0.0
 40
0.0
 40
0.0
 40
1.0
 40
1.0
 40
1.0
 40
1.0
 10
34.25844504021455
 20
14.78238874926653
 30
0.0
 10
34.13286298857071
 20
14.50751926993818
 30
0.0
 10
34.00558769578108
 20
14.23377861804034
 30
0.0
 10
33.88085226471012
 20
13.95862693185437
 30
0.0
  0
SPLINE
  5
153
330
1F
100
AcDbEntity
  8
Default
100
AcDbSpline
210
0.0
220
0.0
230
1.0
 70
     8
 71
     3
 72
     8
 73
     4
 74
     0
 42
0.0000000001
 43
0.0000000001
 40
0.0
 40
0.0
 40
0.0
 40
0.0
 40
1.0
 40
1.0
 40
1.0
 40
1.0
 10
33.88085226471012
 20
13.95862693185437
 30
0.0
 10
33.75611683363912
 20
13.68347524566839
 30
0.0
 10
33.6339212642868
 20
13.40747693890953
 30
0.0
 10
33.5057993509243
 20
13.1337362870117
 30
0.0
  0
SPLINE
  5
154
330
1F
100
AcDbEntity
  8
Default
100
AcDbSpline
210
0.0
220
0.0
230
1.0
 70
     8
 71
     3
 72
     8
 73
     4
 74
     0
 42
0.0000000001
 43
0.0000000001
 40
0.0
 40
0.0
 40
0.0
 40
0.0
 40
1.0
 40
1.0
 40
1.0
 40
1.0
 10
33.5057993509243
 20
13.1337362870117
 30
0.0
 10
33.37795964441944
 20
12.85999563511385
 30
0.0
 10
33.24391138704679
 20
12.58879484493466
 30
0.0
 10
33.0906730633555
 20
12.32860012220289
 30
0.0
  0
SPLINE
  5
155
330
1F
100
AcDbEntity
  8
Default
100
AcDbSpline
210
0.0
220
0.0
230
1.0
 70
     8
 71
     3
 72
     8
 73
     4
 74
     0
 42
0.0000000001
 43
0.0000000001
 40
0.0
 40
0.0
 40
0.0
 40
0.0
 40
1.0
 40
1.0
 40
1.0
 40
1.0
 10
33.0906730633555
 20
12.32860012220289
 30
0.0
 10
32.93743473966426
 20
12.06840539947113
 30
0.0
 10
32.76472414279674
 20
11.8192167441868
 30
0.0
 10
32.56435727388185
 20
11.59288684437024
 30
0.0
  0
SPLINE
  5
156
330
1F
100
AcDbEntity
  8
Default
100
AcDbSpline
210
0.0
220
0.0
230
1.0
 70
     8
 71
     3
 72
     8
 73
     4
 74
     0
 42
0.0000000001
 43
0.0000000001
 40
0.0
 40
0.0
 40
0.0
 40
0.0
 40
1.0
 40
1.0
 40
1.0
 40
1.0
 10
32.56435727388185
 20
11.59288684437024
 30
0.0
 10
32.36399040496692
 20
11.36627473769605
 30
0.0
 10
32.13568505714698
 20
11.1625213864896
 30
0.0
 10
31.87577254127283
 20
11.00900085594071
 30
0.0
  0
SPLINE
  5
157
330
1F
100
AcDbEntity
  8
Default
100
AcDbSpline
210
0.0
220
0.0
230
1.0
 70
     8
 71
     3
 72
     8
 73
     4
 74
     0
 42
0.0000000001
 43
0.0000000001
 40
0.0
 40
0.0
 40
0.0
 40
0.0
 40
1.0
 40
1.0
 40
1.0
 40
1.0
 10
31.87577254127283
 20
11.00900085594071
 30
0.0
 10
31.61586002539868
 20
10.85576253224945
 30
0.0
 10
31.32462254832799
 20
10.75303923607336
 30
0.0
 10
31.02040355580649
 20
10.74118654805303
 30
0.0
  0
SPLINE
  5
158
330
1F
100
AcDbEntity
  8
Default
100
AcDbSpline
210
0.0
220
0.0
230
1.0
 70
     8
 71
     3
 72
     8
 73
     4
 74
     0
 42
0.0000000001
 43
0.0000000001
 40
0.0
 40
0.0
 40
0.0
 40
0.0
 40
1.0
 40
1.0
 40
1.0
 40
1.0
 10
31.02040355580649
 20
10.74118654805303
 30
0.0
 10
31.00093128263024
 20
10.74062213433778
 30
0.0
 10
30.98174121631163
 20
10.74033992748015
 30
0.0
 10
30.96226894313539
 20
10.74033992748015
 30
0.0
  0
SPLINE
  5
159
330
1F
100
AcDbEntity
  8
Default
100
AcDbSpline
210
0.0
220
0.0
230
1.0
 70
     8
 71
     3
 72
     8
 73
     4
 74
     0
 42
0.0000000001
 43
0.0000000001
 40
0.0
 40
0.0
 40
0.0
 40
0.0
 40
1.0
 40
1.0
 40
1.0
 40
1.0
 10
30.96226894313539
 20
10.74033992748015
 30
0.0
 10
30.67611118950197
 20
10.74033992748015
 30
0.0
 10
30.38430929871604
 20
10.82076888190374
 30
0.0
 10
30.16729222520114
 20
10.99093961705261
 30
0.0
  0
SPLINE
  5
15A
330
1F
100
AcDbEntity
  8
Default
100
AcDbSpline
210
0.0
220
0.0
230
1.0
 70
     8
 71
     3
 72
     8
 73
     4
 74
     0
 42
0.0000000001
 43
0.0000000001
 40
0.0
 40
0.0
 40
0.0
 40
0.0
 40
1.0
 40
1.0
 40
1.0
 40
1.0
 10
30.16729222520114
 20
10.99093961705261
 30
0.0
 10
29.93560039508967
 20
11.17268083336416
 30
0.0
 10
29.78913503598145
 20
11.45658093213657
 30
0.0
 10
29.70306194440533
 20
11.74951165035302
 30
0.0
  0
SPLINE
  5
15B
330
1F
100
AcDbEntity
  8
Default
100
AcDbSpline
210
0.0
220
0.0
230
1.0
 70
     8
 71
     3
 72
     8
 73
     4
 74
     0
 42
0.0000000001
 43
0.0000000001
 40
0.0
 40
0.0
 40
0.0
 40
0.0
 40
1.0
 40
1.0
 40
1.0
 40
1.0
 10
29.70306194440533
 20
11.74951165035302
 30
0.0
 10
29.6169888528292
 20
12.04216016171185
 30
0.0
 10
29.59102582192755
 20
12.34412149937235
 30
0.0
 10
29.58792154649364
 20
12.64608283703286
 30
0.0
  0
SPLINE
  5
15C
330
1F
100
AcDbEntity
  8
Default
100
AcDbSpline
210
0.0
220
0.0
230
1.0
 70
     8
 71
     3
 72
     8
 73
     4
 74
     0
 42
0.0000000001
 43
0.0000000001
 40
0.0
 40
0.0
 40
0.0
 40
0.0
 40
1.0
 40
1.0
 40
1.0
 40
1.0
 10
29.58792154649364
 20
12.64608283703286
 30
0.0
 10
29.58481727105974
 20
12.94804417469337
 30
0.0
 10
29.604289544236
 20
13.2502877192115
 30
0.0
 10
29.64464512487661
 20
13.54942698829574
 30
0.0
  0
SPLINE
  5
15D
330
1F
100
AcDbEntity
  8
Default
100
AcDbSpline
210
0.0
220
0.0
230
1.0
 70
     8
 71
     3
 72
     8
 73
     4
 74
     0
 42
0.0000000001
 43
0.0000000001
 40
0.0
 40
0.0
 40
0.0
 40
0.0
 40
1.0
 40
1.0
 40
1.0
 40
1.0
 10
29.64464512487661
 20
13.54942698829574
 30
0.0
 10
29.68471849865958
 20
13.8488484642376
 30
0.0
 10
29.74567517990695
 20
14.14516566474558
 30
0.0
 10
29.81820234231697
 20
14.43837858981965
 30
0.0
  0
SPLINE
  5
15E
330
1F
100
AcDbEntity
  8
Default
100
AcDbSpline
210
0.0
220
0.0
230
1.0
 70
     8
 71
     3
 72
     8
 73
     4
 74
     0
 42
0.0000000001
 43
0.0000000001
 40
0.0
 40
0.0
 40
0.0
 40
0.0
 40
1.0
 40
1.0
 40
1.0
 40
1.0
 10
29.81820234231697
 20
14.43837858981965
 30
0.0
 10
29.89072950472703
 20
14.73159151489374
 30
0.0
 10
29.97482714829976
 20
15.02170016453392
 30
0.0
 10
30.06174686044879
 20
15.31124440045886
 30
0.0
  0
SPLINE
  5
15F
330
1F
100
AcDbEntity
  8
Default
100
AcDbSpline
210
0.0
220
0.0
230
1.0
 70
     8
 71
     3
 72
     8
 73
     4
 74
     0
 42
0.0000000001
 43
0.0000000001
 40
0.0
 40
0.0
 40
0.0
 40
0.0
 40
1.0
 40
1.0
 40
1.0
 40
1.0
 10
30.06174686044879
 20
15.31124440045886
 30
0.0
 10
30.14838436574015
 20
15.60050642952616
 30
0.0
 10
30.23784393960781
 20
15.88892183802059
 30
0.0
 10
30.32984337519408
 20
16.17677283279977
 30
0.0
  0
SPLINE
  5
160
330
1F
100
AcDbEntity
  8
Default
100
AcDbSpline
210
0.0
220
0.0
230
1.0
 70
     8
 71
     3
 72
     8
 73
     4
 74
     0
 42
0.0000000001
 43
0.0000000001
 40
0.0
 40
0.0
 40
0.0
 40
0.0
 40
1.0
 40
1.0
 40
1.0
 40
1.0
 10
30.32984337519408
 20
16.17677283279977
 30
0.0
 10
30.42184281078037
 20
16.46434162072131
 30
0.0
 10
30.5163821080853
 20
16.7513459949276
 30
0.0
 10
30.6128968533936
 20
17.03750374856102
 30
0.0
  0
SPLINE
  5
161
330
1F
100
AcDbEntity
  8
Default
100
AcDbSpline
210
0.0
220
0.0
230
1.0
 70
     8
 71
     3
 72
     8
 73
     4
 74
     0
 42
0.0000000001
 43
0.0000000001
 40
0.0
 40
0.0
 40
0.0
 40
0.0
 40
1.0
 40
1.0
 40
1.0
 40
1.0
 10
30.6128968533936
 20
17.03750374856102
 30
0.0
 10
30.70969380555955
 20
17.32366150219444
 30
0.0
 10
30.80846620572887
 20
17.60897263525497
 30
0.0
 10
30.90949626075921
 20
17.89371935460025
 30
0.0
  0
SPLINE
  5
162
330
1F
100
AcDbEntity
  8
Default
100
AcDbSpline
210
0.0
220
0.0
230
1.0
 70
     8
 71
     3
 72
     8
 73
     4
 74
     0
 42
0.0000000001
 43
0.0000000001
 40
0.0
 40
0.0
 40
0.0
 40
0.0
 40
1.0
 40
1.0
 40
1.0
 40
1.0
 10
30.90949626075921
 20
17.89371935460025
 30
0.0
 10
31.01024410893192
 20
18.17846607394553
 30
0.0
 10
31.11296740510803
 20
18.46236617271792
 30
0.0
 10
31.21710173557225
 20
18.7459840646327
 30
0.0
  0
SPLINE
  5
163
330
1F
100
AcDbEntity
  8
Default
100
AcDbSpline
210
0.0
220
0.0
230
1.0
 70
     8
 71
     3
 72
     8
 73
     4
 74
     0
 42
0.0000000001
 43
0.0000000001
 40
0.0
 40
0.0
 40
0.0
 40
0.0
 40
1.0
 40
1.0
 40
1.0
 40
1.0
 10
31.21710173557225
 20
18.7459840646327
 30
0.0
 10
31.32151827289409
 20
19.02931974968986
 30
0.0
 10
31.4273458445041
 20
19.31237322788937
 30
0.0
 10
31.53430224354459
 20
19.59486229237364
 30
0.0
  0
SPLINE
  5
164
330
1F
100
AcDbEntity
  8
Default
100
AcDbSpline
210
0.0
220
0.0
230
1.0
 70
     8
 71
     3
 72
     8
 73
     4
 74
     0
 42
0.0000000001
 43
0.0000000001
 40
0.0
 40
0.0
 40
0.0
 40
0.0
 40
1.0
 40
1.0
 40
1.0
 40
1.0
 10
31.53430224354459
 20
19.59486229237364
 30
0.0
 10
31.64154084944271
 20
19.87706915000028
 30
0.0
 10
31.75019048962896
 20
20.1589938007693
 30
0.0
 10
31.86025116410338
 20
20.44035403782306
 30
0.0
  0
SPLINE
  5
165
330
1F
100
AcDbEntity
  8
Default
100
AcDbSpline
210
0.0
220
0.0
230
1.0
 70
     8
 71
     3
 72
     8
 73
     4
 74
     0
 42
0.0000000001
 43
0.0000000001
 40
0.0
 40
0.0
 40
0.0
 40
0.0
 40
1.0
 40
1.0
 40
1.0
 40
1.0
 10
31.86025116410338
 20
20.44035403782306
 30
0.0
 10
31.97059404543538
 20
20.72143206801919
 30
0.0
 10
32.08206575419792
 20
21.00222789135769
 30
0.0
 10
32.19523070410617
 20
21.28217709412332
 30
0.0
  0
SPLINE
  5
166
330
1F
100
AcDbEntity
  8
Default
100
AcDbSpline
210
0.0
220
0.0
230
1.0
 70
     8
 71
     3
 72
     8
 73
     4
 74
     0
 42
0.0000000001
 43
0.0000000001
 40
0.0
 40
0.0
 40
0.0
 40
0.0
 40
1.0
 40
1.0
 40
1.0
 40
1.0
 10
32.19523070410617
 20
21.28217709412332
 30
0.0
 10
32.30839565401445
 20
21.56240850374659
 30
0.0
 10
32.42325384506852
 20
21.84179329279695
 30
0.0
 10
32.53924086355307
 20
22.12061366813208
 30
0.0
  0
SPLINE
  5
167
330
1F
100
AcDbEntity
  8
Default
100
AcDbSpline
210
0.0
220
0.0
230
1.0
 70
     8
 71
     3
 72
     8
 73
     4
 74
     0
 42
0.0000000001
 43
0.0000000001
 40
0.0
 40
0.0
 40
0.0
 40
0.0
 40
1.0
 40
1.0
 40
1.0
 40
1.0
 10
32.53924086355307
 20
22.12061366813208
 30
0.0
 10
32.65551008889523
 20
22.39943404346719
 30
0.0
 10
32.77319034852554
 20
22.67769000508707
 30
0.0
 10
32.89228164244398
 20
22.95509934613405
 30
0.0
  0
SPLINE
  5
168
330
1F
100
AcDbEntity
  8
Default
100
AcDbSpline
210
0.0
220
0.0
230
1.0
 70
     8
 71
     3
 72
     8
 73
     4
 74
     0
 42
0.0000000001
 43
0.0000000001
 40
0.0
 40
0.0
 40
0.0
 40
0.0
 40
1.0
 40
1.0
 40
1.0
 40
1.0
 10
32.89228164244398
 20
22.95509934613405
 30
0.0
 10
33.01137293636244
 20
23.23279089403867
 30
0.0
 10
33.131875264569
 20
23.5096358213704
 30
0.0
 10
33.25407083392134
 20
23.78591633498688
 30
0.0
  0
SPLINE
  5
169
330
1F
100
AcDbEntity
  8
Default
100
AcDbSpline
210
0.0
220
0.0
230
1.0
 70
     8
 71
     3
 72
     8
 73
     4
 74
     0
 42
0.0000000001
 43
0.0000000001
 40
0.0
 40
0.0
 40
0.0
 40
0.0
 40
1.0
 40
1.0
 40
1.0
 40
1.0
 10
33.25407083392134
 20
23.78591633498688
 30
0.0
 10
33.37598419641605
 20
24.06219684860336
 30
0.0
 10
33.49930859319891
 20
24.33791294850459
 30
0.0
 10
33.62460843798512
 20
24.61278242783293
 30
0.0
  0
SPLINE
  5
16A
330
1F
100
AcDbEntity
  8
Default
100
AcDbSpline
210
0.0
220
0.0
230
1.0
 70
     8
 71
     3
 72
     8
 73
     4
 74
     0
 42
0.0000000001
 43
0.0000000001
 40
0.0
 40
0.0
 40
0.0
 40
0.0
 40
1.0
 40
1.0
 40
1.0
 40
1.0
 10
33.62460843798512
 20
24.61278242783293
 30
0.0
 10
33.74962607591372
 20
24.88765190716128
 30
0.0
 10
33.8763369549881
 20
25.16195697277439
 30
0.0
 10
34.00586990263873
 20
25.43485100409934
 30
0.0
  0
SPLINE
  5
16B
330
1F
100
AcDbEntity
  8
Default
100
AcDbSpline
210
0.0
220
0.0
230
1.0
 70
     8
 71
     3
 72
     8
 73
     4
 74
     0
 42
0.0000000001
 43
0.0000000001
 40
0.0
 40
0.0
 40
0.0
 40
0.0
 40
1.0
 40
1.0
 40
1.0
 40
1.0
 10
34.00586990263873
 20
25.43485100409934
 30
0.0
 10
34.13512064343171
 20
25.70774503542431
 30
0.0
 10
34.26691124594334
 20
25.97979244617639
 30
0.0
 10
34.40124171017364
 20
26.25014661578271
 30
0.0
  0
SPLINE
  5
16C
330
1F
100
AcDbEntity
  8
Default
100
AcDbSpline
210
0.0
220
0.0
230
1.0
 70
     8
 71
     3
 72
     8
 73
     4
 74
     0
 42
0.0000000001
 43
0.0000000001
 40
0.0
 40
0.0
 40
0.0
 40
0.0
 40
1.0
 40
1.0
 40
1.0
 40
1.0
 10
34.40124171017364
 20
26.25014661578271
 30
0.0
 10
34.53557217440392
 20
26.52078299224666
 30
0.0
 10
34.67244250035285
 20
26.79000833442247
 30
0.0
 10
34.80931282630176
 20
27.05923367659829
 30
0.0
  0
SPLINE
  5
16D
330
1F
100
AcDbEntity
  8
Default
100
AcDbSpline
210
0.0
220
0.0
230
1.0
 70
     8
 71
     3
 72
     8
 73
     4
 74
     0
 42
0.0000000001
 43
0.0000000001
 40
0.0
 40
0.0
 40
0.0
 40
0.0
 40
1.0
 40
1.0
 40
1.0
 40
1.0
 10
34.80931282630176
 20
27.05923367659829
 30
0.0
 10
34.94590094539306
 20
27.32874122563173
 30
0.0
 10
35.08220685762672
 20
27.59796656780754
 30
0.0
 10
35.2207704247214
 20
27.86662749626812
 30
0.0
  0
SPLINE
  5
16E
330
1F
100
AcDbEntity
  8
Default
100
AcDbSpline
210
0.0
220
0.0
230
1.0
 70
     8
 71
     3
 72
     8
 73
     4
 74
     0
 42
0.0000000001
 43
0.0000000001
 40
0.0
 40
0.0
 40
0.0
 40
0.0
 40
1.0
 40
1.0
 40
1.0
 40
1.0
 10
35.2207704247214
 20
27.86662749626812
 30
0.0
 10
35.35933399181608
 20
28.13500621787104
 30
0.0
 10
35.50015521377177
 20
28.40282052575873
 30
0.0
 10
35.65960208833084
 20
28.65906435248372
 30
0.0
  0
SPLINE
  5
16F
330
1F
100
AcDbEntity
  8
Default
100
AcDbSpline
210
0.0
220
0.0
230
1.0
 70
     8
 71
     3
 72
     8
 73
     4
 74
     0
 42
0.0000000001
 43
0.0000000001
 40
0.0
 40
0.0
 40
0.0
 40
0.0
 40
1.0
 40
1.0
 40
1.0
 40
1.0
 10
35.65960208833084
 20
28.65906435248372
 30
0.0
 10
35.81933116974752
 20
28.91502597235108
 30
0.0
 10
35.99768590376755
 20
29.15969931791338
 30
0.0
 10
36.2048257372655
 20
29.38094949429266
 30
0.0
  0
SPLINE
  5
170
330
1F
100
AcDbEntity
  8
Default
100
AcDbSpline
210
0.0
220
0.0
230
1.0
 70
     8
 71
     3
 72
     8
 73
     4
 74
     0
 42
0.0000000001
 43
0.0000000001
 40
0.0
 40
0.0
 40
0.0
 40
0.0
 40
1.0
 40
1.0
 40
1.0
 40
1.0
 10
36.2048257372655
 20
29.38094949429266
 30
0.0
 10
36.41196557076345
 20
29.60248187752958
 30
0.0
 10
36.64789050373933
 20
29.80059109158348
 30
0.0
 10
36.91401157048123
 20
29.93859024496291
 30
0.0
  0
SPLINE
  5
171
330
1F
100
AcDbEntity
  8
Default
100
AcDbSpline
210
0.0
220
0.0
230
1.0
 70
     8
 71
     3
 72
     8
 73
     4
 74
     0
 42
0.0000000001
 43
0.0000000001
 40
0.0
 40
0.0
 40
0.0
 40
0.0
 40
1.0
 40
1.0
 40
1.0
 40
1.0
 10
36.91401157048123
 20
29.93859024496291
 30
0.0
 10
37.18041484408079
 20
30.07630719148471
 30
0.0
 10
37.47729645830403
 20
30.15363187047441
 30
0.0
 10
37.78292648511367
 20
30.15984042134219
 30
0.0
  0
SPLINE
  5
172
330
1F
100
AcDbEntity
  8
Default
100
AcDbSpline
210
0.0
220
0.0
230
1.0
 70
     8
 71
     3
 72
     8
 73
     4
 74
     0
 42
0.0000000001
 43
0.0000000001
 40
0.0
 40
0.0
 40
0.0
 40
0.0
 40
1.0
 40
1.0
 40
1.0
 40
1.0
 10
37.78292648511367
 20
30.15984042134219
 30
0.0
 10
37.79675462113739
 20
30.16012262819982
 30
0.0
 10
37.81030055030347
 20
30.16040483505745
 30
0.0
 10
37.82412868632718
 20
30.16040483505745
 30
0.0
  0
SPLINE
  5
173
330
1F
100
AcDbEntity
  8
Default
100
AcDbSpline
210
0.0
220
0.0
230
1.0
 70
     8
 71
     3
 72
     8
 73
     4
 74
     0
 42
0.0000000001
 43
0.0000000001
 40
0.0
 40
0.0
 40
0.0
 40
0.0
 40
1.0
 40
1.0
 40
1.0
 40
1.0
 10
18.46312967405112
 20
105.5458994025756
 30
0.0
 10
19.42743050656135
 20
105.5458994025756
 30
0.0
 10
20.39060251164108
 20
105.5213474059621
 30
0.0
 10
21.35179906871741
 20
105.4462803818334
 30
0.0
  0
SPLINE
  5
174
330
1F
100
AcDbEntity
  8
Default
100
AcDbSpline
210
0.0
220
0.0
230
1.0
 70
     8
 71
     3
 72
     8
 73
     4
 74
     0
 42
0.0000000001
 43
0.0000000001
 40
0.0
 40
0.0
 40
0.0
 40
0.0
 40
1.0
 40
1.0
 40
1.0
 40
1.0
 10
21.35179906871741
 20
105.4462803818334
 30
0.0
 10
23.70596867503885
 20
105.2631281312337
 30
0.0
 10
26.04800338648236
 20
104.7780145429735
 30
0.0
 10
28.21958515591934
 20
103.8690262545581
 30
0.0
  0
SPLINE
  5
175
330
1F
100
AcDbEntity
  8
Default
100
AcDbSpline
210
0.0
220
0.0
230
1.0
 70
     8
 71
     3
 72
     8
 73
     4
 74
     0
 42
0.0000000001
 43
0.0000000001
 40
0.0
 40
0.0
 40
0.0
 40
0.0
 40
1.0
 40
1.0
 40
1.0
 40
1.0
 10
28.21958515591934
 20
103.8690262545581
 30
0.0
 10
30.39088471849873
 20
102.9603201730003
 30
0.0
 10
32.39173133907162
 20
101.6274571844297
 30
0.0
 10
34.10670241286869
 20
99.99658375420535
 30
0.0
  0
SPLINE
  5
176
330
1F
100
AcDbEntity
  8
Default
100
AcDbSpline
210
0.0
220
0.0
230
1.0
 70
     8
 71
     3
 72
     8
 73
     4
 74
     0
 42
0.0000000001
 43
0.0000000001
 40
0.0
 40
0.0
 40
0.0
 40
0.0
 40
1.0
 40
1.0
 40
1.0
 40
1.0
 10
34.10670241286869
 20
99.99658375420535
 30
0.0
 10
35.82167348666581
 20
98.36571032398098
 30
0.0
 10
37.25076901368713
 20
96.43682645210288
 30
0.0
 10
38.2740510794413
 20
94.31463088275055
 30
0.0
  0
SPLINE
  5
177
330
1F
100
AcDbEntity
  8
Default
100
AcDbSpline
210
0.0
220
0.0
230
1.0
 70
     8
 71
     3
 72
     8
 73
     4
 74
     0
 42
0.0000000001
 43
0.0000000001
 40
0.0
 40
0.0
 40
0.0
 40
0.0
 40
1.0
 40
1.0
 40
1.0
 40
1.0
 10
38.2740510794413
 20
94.31463088275055
 30
0.0
 10
39.29761535205315
 20
92.19215310654057
 30
0.0
 10
39.91480174968262
 20
89.8769280465716
 30
0.0
 10
40.28957245661078
 20
87.55069691915521
 30
0.0
  0
SPLINE
  5
178
330
1F
100
AcDbEntity
  8
Default
100
AcDbSpline
210
0.0
220
0.0
230
1.0
 70
     8
 71
     3
 72
     8
 73
     4
 74
     0
 42
0.0000000001
 43
0.0000000001
 40
0.0
 40
0.0
 40
0.0
 40
0.0
 40
1.0
 40
1.0
 40
1.0
 40
1.0
 10
40.28957245661078
 20
87.55069691915521
 30
0.0
 10
40.3956822350784
 20
86.89315494088514
 30
0.0
 10
40.50179201354602
 20
86.23533075575743
 30
0.0
 10
40.60761958515602
 20
85.57750657062975
 30
0.0
  0
SPLINE
  5
179
330
1F
100
AcDbEntity
  8
Default
100
AcDbSpline
210
0.0
220
0.0
230
1.0
 70
     8
 71
     3
 72
     8
 73
     4
 74
     0
 42
0.0000000001
 43
0.0000000001
 40
0.0
 40
0.0
 40
0.0
 40
0.0
 40
1.0
 40
1.0
 40
1.0
 40
1.0
 10
40.60761958515602
 20
85.57750657062975
 30
0.0
 10
40.66575419782709
 20
85.19088317568126
 30
0.0
 10
40.73009736136597
 20
84.80482419444802
 30
0.0
 10
40.79472273176248
 20
84.41904742007239
 30
0.0
  0
SPLINE
  5
17A
330
1F
100
AcDbEntity
  8
Default
100
AcDbSpline
210
0.0
220
0.0
230
1.0
 70
     8
 71
     3
 72
     8
 73
     4
 74
     0
 42
0.0000000001
 43
0.0000000001
 40
0.0
 40
0.0
 40
0.0
 40
0.0
 40
1.0
 40
1.0
 40
1.0
 40
1.0
 10
40.79472273176248
 20
84.41904742007239
 30
0.0
 10
40.85963030901662
 20
84.03327064569676
 30
0.0
 10
40.92482009312837
 20
83.64777607817877
 30
0.0
 10
40.98690560180622
 20
83.26143489008791
 30
0.0
  0
SPLINE
  5
17B
330
1F
100
AcDbEntity
  8
Default
100
AcDbSpline
210
0.0
220
0.0
230
1.0
 70
     8
 71
     3
 72
     8
 73
     4
 74
     0
 42
0.0000000001
 43
0.0000000001
 40
0.0
 40
0.0
 40
0.0
 40
0.0
 40
1.0
 40
1.0
 40
1.0
 40
1.0
 10
40.98690560180622
 20
83.26143489008791
 30
0.0
 10
41.04870890362644
 20
82.87509370199702
 30
0.0
 10
41.10712572315514
 20
82.48847030704853
 30
0.0
 10
41.1678001975449
 20
82.09648498180512
 30
0.0
  0
SPLINE
  5
17C
330
1F
100
AcDbEntity
  8
Default
100
AcDbSpline
210
0.0
220
0.0
230
1.0
 70
     8
 71
     3
 72
     8
 73
     4
 74
     0
 42
0.0000000001
 43
0.0000000001
 40
0.0
 40
0.0
 40
0.0
 40
0.0
 40
1.0
 40
1.0
 40
1.0
 40
1.0
 10
41.1678001975449
 20
82.09648498180512
 30
0.0
 10
41.22819246507699
 20
81.70449965656172
 30
0.0
 10
41.29084238747011
 20
81.30715240102342
 30
0.0
 10
41.33486665725986
 20
80.91940017864441
 30
0.0
  0
SPLINE
  5
17D
330
1F
100
AcDbEntity
  8
Default
100
AcDbSpline
210
0.0
220
0.0
230
1.0
 70
     8
 71
     3
 72
     8
 73
     4
 74
     0
 42
0.0000000001
 43
0.0000000001
 40
0.0
 40
0.0
 40
0.0
 40
0.0
 40
1.0
 40
1.0
 40
1.0
 40
1.0
 10
41.33486665725986
 20
80.91940017864441
 30
0.0
 10
41.37860872019198
 20
80.53164795626542
 30
0.0
 10
41.40428954423601
 20
80.15320856018809
 30
0.0
 10
41.40908706081567
 20
79.76714957895484
 30
0.0
  0
SPLINE
  5
17E
330
1F
100
AcDbEntity
  8
Default
100
AcDbSpline
210
0.0
220
0.0
230
1.0
 70
     8
 71
     3
 72
     8
 73
     4
 74
     0
 42
0.0000000001
 43
0.0000000001
 40
0.0
 40
0.0
 40
0.0
 40
0.0
 40
1.0
 40
1.0
 40
1.0
 40
1.0
 10
41.40908706081567
 20
79.76714957895484
 30
0.0
 10
41.41416678425295
 20
79.3810905977216
 30
0.0
 10
41.3989276139411
 20
78.98741203133243
 30
0.0
 10
41.35095244814458
 20
78.60191746381443
 30
0.0
  0
SPLINE
  5
17F
330
1F
100
AcDbEntity
  8
Default
100
AcDbSpline
210
0.0
220
0.0
230
1.0
 70
     8
 71
     3
 72
     8
 73
     4
 74
     0
 42
0.0000000001
 43
0.0000000001
 40
0.0
 40
0.0
 40
0.0
 40
0.0
 40
1.0
 40
1.0
 40
1.0
 40
1.0
 10
41.35095244814458
 20
78.60191746381443
 30
0.0
 10
41.30325948920569
 20
78.21670510315407
 30
0.0
 10
41.22283053478208
 20
77.83967674136487
 30
0.0
 10
41.10204599971788
 20
77.45728644928079
 30
0.0
  0
SPLINE
  5
180
330
1F
100
AcDbEntity
  8
Default
100
AcDbSpline
210
0.0
220
0.0
230
1.0
 70
     8
 71
     3
 72
     8
 73
     4
 74
     0
 42
0.0000000001
 43
0.0000000001
 40
0.0
 40
0.0
 40
0.0
 40
0.0
 40
1.0
 40
1.0
 40
1.0
 40
1.0
 10
41.10204599971788
 20
77.45728644928079
 30
0.0
 10
40.98126146465368
 20
77.07461395033906
 30
0.0
 10
40.82012134894885
 20
76.68657952110243
 30
0.0
 10
40.41628333568516
 20
76.56889926147211
 30
0.0
  0
SPLINE
  5
181
330
1F
100
AcDbEntity
  8
Default
100
AcDbSpline
210
0.0
220
0.0
230
1.0
 70
     8
 71
     3
 72
     8
 73
     4
 74
     0
 42
0.0000000001
 43
0.0000000001
 40
0.0
 40
0.0
 40
0.0
 40
0.0
 40
1.0
 40
1.0
 40
1.0
 40
1.0
 10
40.41628333568516
 20
76.56889926147211
 30
0.0
 10
40.37338789332589
 20
76.55648215973655
 30
0.0
 10
40.32654155495988
 20
76.55083802258402
 30
0.0
 10
40.27743756173286
 20
76.55083802258402
 30
0.0
  0
SPLINE
  5
182
330
1F
100
AcDbEntity
  8
Default
100
AcDbSpline
210
0.0
220
0.0
230
1.0
 70
     8
 71
     3
 72
     8
 73
     4
 74
     0
 42
0.0000000001
 43
0.0000000001
 40
0.0
 40
0.0
 40
0.0
 40
0.0
 40
1.0
 40
1.0
 40
1.0
 40
1.0
 10
40.27743756173286
 20
76.55083802258402
 30
0.0
 10
40.08779455340774
 20
76.55083802258402
 30
0.0
 10
39.86344010159454
 20
76.63239580443812
 30
0.0
 10
39.6870608155779
 20
76.70576958742103
 30
0.0
  0
SPLINE
  5
183
330
1F
100
AcDbEntity
  8
Default
100
AcDbSpline
210
0.0
220
0.0
230
1.0
 70
     8
 71
     3
 72
     8
 73
     4
 74
     0
 42
0.0000000001
 43
0.0000000001
 40
0.0
 40
0.0
 40
0.0
 40
0.0
 40
1.0
 40
1.0
 40
1.0
 40
1.0
 10
39.6870608155779
 20
76.70576958742103
 30
0.0
 10
39.33148017496833
 20
76.85336377395977
 30
0.0
 10
39.01004656413159
 20
77.07122746804752
 30
0.0
 10
38.72219556935243
 20
77.32521363991151
 30
0.0
  0
SPLINE
  5
184
330
1F
100
AcDbEntity
  8
Default
100
AcDbSpline
210
0.0
220
0.0
230
1.0
 70
     8
 71
     3
 72
     8
 73
     4
 74
     0
 42
0.0000000001
 43
0.0000000001
 40
0.0
 40
0.0
 40
0.0
 40
0.0
 40
1.0
 40
1.0
 40
1.0
 40
1.0
 10
38.72219556935243
 20
77.32521363991151
 30
0.0
 10
38.43434457457324
 20
77.5791998117755
 30
0.0
 10
38.18007619585166
 20
77.86902625455805
 30
0.0
 10
37.94584450402153
 20
78.17352745393721
 30
0.0
  0
SPLINE
  5
185
330
1F
100
AcDbEntity
  8
Default
100
AcDbSpline
210
0.0
220
0.0
230
1.0
 70
     8
 71
     3
 72
     8
 73
     4
 74
     0
 42
0.0000000001
 43
0.0000000001
 40
0.0
 40
0.0
 40
0.0
 40
0.0
 40
1.0
 40
1.0
 40
1.0
 40
1.0
 10
37.94584450402153
 20
78.17352745393721
 30
0.0
 10
37.71161281219141
 20
78.47831086017398
 30
0.0
 10
37.49770001411043
 20
78.79748681614969
 30
0.0
 10
37.30410610977854
 20
79.12879766700338
 30
0.0
  0
SPLINE
  5
186
330
1F
100
AcDbEntity
  8
Default
100
AcDbSpline
210
0.0
220
0.0
230
1.0
 70
     8
 71
     3
 72
     8
 73
     4
 74
     0
 42
0.0000000001
 43
0.0000000001
 40
0.0
 40
0.0
 40
0.0
 40
0.0
 40
1.0
 40
1.0
 40
1.0
 40
1.0
 10
37.30410610977854
 20
79.12879766700338
 30
0.0
 10
37.11022999858903
 20
79.46010851785705
 30
0.0
 10
36.93695498800628
 20
79.80355426358867
 30
0.0
 10
36.78174121631164
 20
80.15461959447622
 30
0.0
  0
SPLINE
  5
187
330
1F
100
AcDbEntity
  8
Default
100
AcDbSpline
210
0.0
220
0.0
230
1.0
 70
     8
 71
     3
 72
     8
 73
     4
 74
     0
 42
0.0000000001
 43
0.0000000001
 40
0.0
 40
0.0
 40
0.0
 40
0.0
 40
1.0
 40
1.0
 40
1.0
 40
1.0
 10
36.78174121631164
 20
80.15461959447622
 30
0.0
 10
36.62652744461699
 20
80.50568492536374
 30
0.0
 10
36.48937491181044
 20
80.86465204826483
 30
0.0
 10
36.36943699731912
 20
81.23010992889134
 30
0.0
  0
SPLINE
  5
188
330
1F
100
AcDbEntity
  8
Default
100
AcDbSpline
210
0.0
220
0.0
230
1.0
 70
     8
 71
     3
 72
     8
 73
     4
 74
     0
 42
0.0000000001
 43
0.0000000001
 40
0.0
 40
0.0
 40
0.0
 40
0.0
 40
1.0
 40
1.0
 40
1.0
 40
1.0
 10
36.36943699731912
 20
81.23010992889134
 30
0.0
 10
36.24949908282779
 20
81.59528560266023
 30
0.0
 10
36.14649357979406
 20
81.96666982729688
 30
0.0
 10
36.04151262875695
 20
82.33720743136065
 30
0.0
  0
SPLINE
  5
189
330
1F
100
AcDbEntity
  8
Default
100
AcDbSpline
210
0.0
220
0.0
230
1.0
 70
     8
 71
     3
 72
     8
 73
     4
 74
     0
 42
0.0000000001
 43
0.0000000001
 40
0.0
 40
0.0
 40
0.0
 40
0.0
 40
1.0
 40
1.0
 40
1.0
 40
1.0
 10
36.04151262875695
 20
82.33720743136065
 30
0.0
 10
35.93681388457748
 20
82.70774503542444
 30
0.0
 10
35.82985748553697
 20
83.0771538120577
 30
0.0
 10
35.73926908423882
 20
83.45023127784012
 30
0.0
  0
SPLINE
  5
18A
330
1F
100
AcDbEntity
  8
Default
100
AcDbSpline
210
0.0
220
0.0
230
1.0
 70
     8
 71
     3
 72
     8
 73
     4
 74
     0
 42
0.0000000001
 43
0.0000000001
 40
0.0
 40
0.0
 40
0.0
 40
0.0
 40
1.0
 40
1.0
 40
1.0
 40
1.0
 10
35.73926908423882
 20
83.45023127784012
 30
0.0
 10
35.64868068294067
 20
83.82330874362253
 30
0.0
 10
35.57446027938487
 20
84.19977269169648
 30
0.0
 10
35.50023987582906
 20
84.57651884662805
 30
0.0
  0
SPLINE
  5
18B
330
1F
100
AcDbEntity
  8
Default
100
AcDbSpline
210
0.0
220
0.0
230
1.0
 70
     8
 71
     3
 72
     8
 73
     4
 74
     0
 42
0.0000000001
 43
0.0000000001
 40
0.0
 40
0.0
 40
0.0
 40
0.0
 40
1.0
 40
1.0
 40
1.0
 40
1.0
 10
35.50023987582906
 20
84.57651884662805
 30
0.0
 10
35.23383660222951
 20
85.88200777000888
 30
0.0
 10
34.96715112177235
 20
87.18749669338973
 30
0.0
 10
34.70074784817279
 20
88.4932678236282
 30
0.0
  0
SPLINE
  5
18C
330
1F
100
AcDbEntity
  8
Default
100
AcDbSpline
210
0.0
220
0.0
230
1.0
 70
     8
 71
     3
 72
     8
 73
     4
 74
     0
 42
0.0000000001
 43
0.0000000001
 40
0.0
 40
0.0
 40
0.0
 40
0.0
 40
1.0
 40
1.0
 40
1.0
 40
1.0
 10
34.70074784817279
 20
88.4932678236282
 30
0.0
 10
34.51138704670532
 20
89.42144617836222
 30
0.0
 10
34.23369549880069
 20
90.33212770792338
 30
0.0
 10
33.86993085931996
 20
91.20696896656598
 30
0.0
  0
SPLINE
  5
18D
330
1F
100
AcDbEntity
  8
Default
100
AcDbSpline
210
0.0
220
0.0
230
1.0
 70
     8
 71
     3
 72
     8
 73
     4
 74
     0
 42
0.0000000001
 43
0.0000000001
 40
0.0
 40
0.0
 40
0.0
 40
0.0
 40
1.0
 40
1.0
 40
1.0
 40
1.0
 10
33.86993085931996
 20
91.20696896656598
 30
0.0
 10
33.50644842669683
 20
92.08181022520857
 30
0.0
 10
33.05661069563997
 20
92.92081121293256
 30
0.0
 10
32.52973049245104
 20
93.70845055256852
 30
0.0
  0
SPLINE
  5
18E
330
1F
100
AcDbEntity
  8
Default
100
AcDbSpline
210
0.0
220
0.0
230
1.0
 70
     8
 71
     3
 72
     8
 73
     4
 74
     0
 42
0.0000000001
 43
0.0000000001
 40
0.0
 40
0.0
 40
0.0
 40
0.0
 40
1.0
 40
1.0
 40
1.0
 40
1.0
 10
32.52973049245104
 20
93.70845055256852
 30
0.0
 10
32.00285028926211
 20
94.49580768534685
 30
0.0
 10
31.39864540708346
 20
95.23180317003713
 30
0.0
 10
30.72896853393544
 20
95.90204445690041
 30
0.0
  0
SPLINE
  5
18F
330
1F
100
AcDbEntity
  8
Default
100
AcDbSpline
210
0.0
220
0.0
230
1.0
 70
     8
 71
     3
 72
     8
 73
     4
 74
     0
 42
0.0000000001
 43
0.0000000001
 40
0.0
 40
0.0
 40
0.0
 40
0.0
 40
1.0
 40
1.0
 40
1.0
 40
1.0
 10
30.72896853393544
 20
95.90204445690041
 30
0.0
 10
30.05929166078742
 20
96.57200353690605
 30
0.0
 10
29.3238605898124
 20
97.17677283279994
 30
0.0
 10
28.5367856638917
 20
97.70393524284651
 30
0.0
  0
SPLINE
  5
190
330
1F
100
AcDbEntity
  8
Default
100
AcDbSpline
210
0.0
220
0.0
230
1.0
 70
     8
 71
     3
 72
     8
 73
     4
 74
     0
 42
0.0000000001
 43
0.0000000001
 40
0.0
 40
0.0
 40
0.0
 40
0.0
 40
1.0
 40
1.0
 40
1.0
 40
1.0
 10
28.5367856638917
 20
97.70393524284651
 30
0.0
 10
27.74971073797098
 20
98.2313798597507
 30
0.0
 10
26.91099195710462
 20
98.68178200452282
 30
0.0
 10
26.03643290531966
 20
99.04639326457644
 30
0.0
  0
SPLINE
  5
191
330
1F
100
AcDbEntity
  8
Default
100
AcDbSpline
210
0.0
220
0.0
230
1.0
 70
     8
 71
     3
 72
     8
 73
     4
 74
     0
 42
0.0000000001
 43
0.0000000001
 40
0.0
 40
0.0
 40
0.0
 40
0.0
 40
1.0
 40
1.0
 40
1.0
 40
1.0
 10
26.03643290531966
 20
99.04639326457644
 30
0.0
 10
25.16187385353471
 20
99.41128673148769
 30
0.0
 10
24.25175673768879
 20
99.69038931368041
 30
0.0
 10
23.3230139692395
 20
99.87805687400216
 30
0.0
  0
SPLINE
  5
192
330
1F
100
AcDbEntity
  8
Default
100
AcDbSpline
210
0.0
220
0.0
230
1.0
 70
     8
 71
     3
 72
     8
 73
     4
 74
     0
 42
0.0000000001
 43
0.0000000001
 40
0.0
 40
0.0
 40
0.0
 40
0.0
 40
1.0
 40
1.0
 40
1.0
 40
1.0
 10
23.3230139692395
 20
99.87805687400216
 30
0.0
 10
22.39427120079024
 20
100.0660066411815
 30
0.0
 10
21.44718498659523
 20
100.1622391796322
 30
0.0
 10
20.49981656554259
 20
100.1684477304999
 30
0.0
  0
LINE
  5
193
330
1F
100
AcDbEntity
  8
Default
100
AcDbLine
 10
20.49981656554259
 20
100.1684477304999
 30
0.0
 11
-20.49976012417105
 21
100.1684477304999
 31
0.0
  0
SPLINE
  5
194
330
1F
100
AcDbEntity
  8
Default
100
AcDbSpline
210
0.0
220
0.0
230
1.0
 70
     8
 71
     3
 72
     8
 73
     4
 74
     0
 42
0.0000000001
 43
0.0000000001
 40
0.0
 40
0.0
 40
0.0
 40
0.0
 40
1.0
 40
1.0
 40
1.0
 40
1.0
 10
-20.49976012417105
 20
100.1684477304999
 30
0.0
 10
-21.44741075208131
 20
100.1622391796322
 30
0.0
 10
-22.39421475941869
 20
100.0660066411815
 30
0.0
 10
-23.32295752786797
 20
99.87805687400216
 30
0.0
  0
SPLINE
  5
195
330
1F
100
AcDbEntity
  8
Default
100
AcDbSpline
210
0.0
220
0.0
230
1.0
 70
     8
 71
     3
 72
     8
 73
     4
 74
     0
 42
0.0000000001
 43
0.0000000001
 40
0.0
 40
0.0
 40
0.0
 40
0.0
 40
1.0
 40
1.0
 40
1.0
 40
1.0
 10
-23.32295752786797
 20
99.87805687400216
 30
0.0
 10
-24.25170029631725
 20
99.69038931368041
 30
0.0
 10
-25.16181741216316
 20
99.41128673148769
 30
0.0
 10
-26.03637646394812
 20
99.04639326457644
 30
0.0
  0
SPLINE
  5
196
330
1F
100
AcDbEntity
  8
Default
100
AcDbSpline
210
0.0
220
0.0
230
1.0
 70
     8
 71
     3
 72
     8
 73
     4
 74
     0
 42
0.0000000001
 43
0.0000000001
 40
0.0
 40
0.0
 40
0.0
 40
0.0
 40
1.0
 40
1.0
 40
1.0
 40
1.0
 10
-26.03637646394812
 20
99.04639326457644
 30
0.0
 10
-26.91093551573308
 20
98.68178200452282
 30
0.0
 10
-27.74965429659945
 20
98.2313798597507
 30
0.0
 10
-28.53672922252017
 20
97.70393524284651
 30
0.0
  0
SPLINE
  5
197
330
1F
100
AcDbEntity
  8
Default
100
AcDbSpline
210
0.0
220
0.0
230
1.0
 70
     8
 71
     3
 72
     8
 73
     4
 74
     0
 42
0.0000000001
 43
0.0000000001
 40
0.0
 40
0.0
 40
0.0
 40
0.0
 40
1.0
 40
1.0
 40
1.0
 40
1.0
 10
-28.53672922252017
 20
97.70393524284651
 30
0.0
 10
-29.32380414844086
 20
97.17677283279994
 30
0.0
 10
-30.05923521941588
 20
96.57200353690605
 30
0.0
 10
-30.72891209256391
 20
95.90204445690041
 30
0.0
  0
SPLINE
  5
198
330
1F
100
AcDbEntity
  8
Default
100
AcDbSpline
210
0.0
220
0.0
230
1.0
 70
     8
 71
     3
 72
     8
 73
     4
 74
     0
 42
0.0000000001
 43
0.0000000001
 40
0.0
 40
0.0
 40
0.0
 40
0.0
 40
1.0
 40
1.0
 40
1.0
 40
1.0
 10
-30.72891209256391
 20
95.90204445690041
 30
0.0
 10
-31.39887117256956
 20
95.23180317003713
 30
0.0
 10
-32.00279384789057
 20
94.49580768534685
 30
0.0
 10
-32.5296740510795
 20
93.70845055256852
 30
0.0
  0
SPLINE
  5
199
330
1F
100
AcDbEntity
  8
Default
100
AcDbSpline
210
0.0
220
0.0
230
1.0
 70
     8
 71
     3
 72
     8
 73
     4
 74
     0
 42
0.0000000001
 43
0.0000000001
 40
0.0
 40
0.0
 40
0.0
 40
0.0
 40
1.0
 40
1.0
 40
1.0
 40
1.0
 10
-32.5296740510795
 20
93.70845055256852
 30
0.0
 10
-33.05655425426844
 20
92.92081121293256
 30
0.0
 10
-33.5063919853253
 20
92.08181022520857
 30
0.0
 10
-33.86987441794842
 20
91.20696896656598
 30
0.0
  0
SPLINE
  5
19A
330
1F
100
AcDbEntity
  8
Default
100
AcDbSpline
210
0.0
220
0.0
230
1.0
 70
     8
 71
     3
 72
     8
 73
     4
 74
     0
 42
0.0000000001
 43
0.0000000001
 40
0.0
 40
0.0
 40
0.0
 40
0.0
 40
1.0
 40
1.0
 40
1.0
 40
1.0
 10
-33.86987441794842
 20
91.20696896656598
 30
0.0
 10
-34.23363905742916
 20
90.33212770792338
 30
0.0
 10
-34.51133060533378
 20
89.42144617836222
 30
0.0
 10
-34.70069140680125
 20
88.4932678236282
 30
0.0
  0
SPLINE
  5
19B
330
1F
100
AcDbEntity
  8
Default
100
AcDbSpline
210
0.0
220
0.0
230
1.0
 70
     8
 71
     3
 72
     8
 73
     4
 74
     0
 42
0.0000000001
 43
0.0000000001
 40
0.0
 40
0.0
 40
0.0
 40
0.0
 40
1.0
 40
1.0
 40
1.0
 40
1.0
 10
-34.70069140680125
 20
88.4932678236282
 30
0.0
 10
-34.9670946804008
 20
87.18749669338973
 30
0.0
 10
-35.23378016085798
 20
85.88200777000888
 30
0.0
 10
-35.50018343445752
 20
84.57651884662805
 30
0.0
  0
SPLINE
  5
19C
330
1F
100
AcDbEntity
  8
Default
100
AcDbSpline
210
0.0
220
0.0
230
1.0
 70
     8
 71
     3
 72
     8
 73
     4
 74
     0
 42
0.0000000001
 43
0.0000000001
 40
0.0
 40
0.0
 40
0.0
 40
0.0
 40
1.0
 40
1.0
 40
1.0
 40
1.0
 10
-35.50018343445752
 20
84.57651884662805
 30
0.0
 10
-35.57440383801333
 20
84.19977269169648
 30
0.0
 10
-35.64862424156914
 20
83.82330874362253
 30
0.0
 10
-35.73921264286729
 20
83.45023127784012
 30
0.0
  0
SPLINE
  5
19D
330
1F
100
AcDbEntity
  8
Default
100
AcDbSpline
210
0.0
220
0.0
230
1.0
 70
     8
 71
     3
 72
     8
 73
     4
 74
     0
 42
0.0000000001
 43
0.0000000001
 40
0.0
 40
0.0
 40
0.0
 40
0.0
 40
1.0
 40
1.0
 40
1.0
 40
1.0
 10
-35.73921264286729
 20
83.45023127784012
 30
0.0
 10
-35.82980104416544
 20
83.0771538120577
 30
0.0
 10
-35.93675744320593
 20
82.70774503542444
 30
0.0
 10
-36.04145618738542
 20
82.33720743136065
 30
0.0
  0
SPLINE
  5
19E
330
1F
100
AcDbEntity
  8
Default
100
AcDbSpline
210
0.0
220
0.0
230
1.0
 70
     8
 71
     3
 72
     8
 73
     4
 74
     0
 42
0.0000000001
 43
0.0000000001
 40
0.0
 40
0.0
 40
0.0
 40
0.0
 40
1.0
 40
1.0
 40
1.0
 40
1.0
 10
-36.04145618738542
 20
82.33720743136065
 30
0.0
 10
-36.14643713842253
 20
81.96666982729688
 30
0.0
 10
-36.24944264145626
 20
81.59528560266023
 30
0.0
 10
-36.36938055594757
 20
81.23010992889134
 30
0.0
  0
SPLINE
  5
19F
330
1F
100
AcDbEntity
  8
Default
100
AcDbSpline
210
0.0
220
0.0
230
1.0
 70
     8
 71
     3
 72
     8
 73
     4
 74
     0
 42
0.0000000001
 43
0.0000000001
 40
0.0
 40
0.0
 40
0.0
 40
0.0
 40
1.0
 40
1.0
 40
1.0
 40
1.0
 10
-36.36938055594757
 20
81.23010992889134
 30
0.0
 10
-36.4893184704389
 20
80.86465204826483
 30
0.0
 10
-36.62647100324545
 20
80.50568492536374
 30
0.0
 10
-36.7816847749401
 20
80.15461959447622
 30
0.0
  0
SPLINE
  5
1A0
330
1F
100
AcDbEntity
  8
Default
100
AcDbSpline
210
0.0
220
0.0
230
1.0
 70
     8
 71
     3
 72
     8
 73
     4
 74
     0
 42
0.0000000001
 43
0.0000000001
 40
0.0
 40
0.0
 40
0.0
 40
0.0
 40
1.0
 40
1.0
 40
1.0
 40
1.0
 10
-36.7816847749401
 20
80.15461959447622
 30
0.0
 10
-36.93689854663476
 20
79.80355426358867
 30
0.0
 10
-37.11045576407513
 20
79.46010851785705
 30
0.0
 10
-37.304049668407
 20
79.12879766700338
 30
0.0
  0
SPLINE
  5
1A1
330
1F
100
AcDbEntity
  8
Default
100
AcDbSpline
210
0.0
220
0.0
230
1.0
 70
     8
 71
     3
 72
     8
 73
     4
 74
     0
 42
0.0000000001
 43
0.0000000001
 40
0.0
 40
0.0
 40
0.0
 40
0.0
 40
1.0
 40
1.0
 40
1.0
 40
1.0
 10
-37.304049668407
 20
79.12879766700338
 30
0.0
 10
-37.49764357273889
 20
78.79748681614969
 30
0.0
 10
-37.71183857767751
 20
78.47831086017398
 30
0.0
 10
-37.94578806264999
 20
78.17352745393721
 30
0.0
  0
SPLINE
  5
1A2
330
1F
100
AcDbEntity
  8
Default
100
AcDbSpline
210
0.0
220
0.0
230
1.0
 70
     8
 71
     3
 72
     8
 73
     4
 74
     0
 42
0.0000000001
 43
0.0000000001
 40
0.0
 40
0.0
 40
0.0
 40
0.0
 40
1.0
 40
1.0
 40
1.0
 40
1.0
 10
-37.94578806264999
 20
78.17352745393721
 30
0.0
 10
-38.18001975448011
 20
77.86902625455805
 30
0.0
 10
-38.43428813320171
 20
77.5791998117755
 30
0.0
 10
-38.72213912798088
 20
77.32521363991151
 30
0.0
  0
SPLINE
  5
1A3
330
1F
100
AcDbEntity
  8
Default
100
AcDbSpline
210
0.0
220
0.0
230
1.0
 70
     8
 71
     3
 72
     8
 73
     4
 74
     0
 42
0.0000000001
 43
0.0000000001
 40
0.0
 40
0.0
 40
0.0
 40
0.0
 40
1.0
 40
1.0
 40
1.0
 40
1.0
 10
-38.72213912798088
 20
77.32521363991151
 30
0.0
 10
-39.00999012276006
 20
77.07122746804752
 30
0.0
 10
-39.33142373359679
 20
76.85336377395977
 30
0.0
 10
-39.68700437420637
 20
76.70576958742103
 30
0.0
  0
SPLINE
  5
1A4
330
1F
100
AcDbEntity
  8
Default
100
AcDbSpline
210
0.0
220
0.0
230
1.0
 70
     8
 71
     3
 72
     8
 73
     4
 74
     0
 42
0.0000000001
 43
0.0000000001
 40
0.0
 40
0.0
 40
0.0
 40
0.0
 40
1.0
 40
1.0
 40
1.0
 40
1.0
 10
-39.68700437420637
 20
76.70576958742103
 30
0.0
 10
-39.86338366022302
 20
76.63267801129572
 30
0.0
 10
-40.08802031889383
 20
76.55083802258402
 30
0.0
 10
-40.2773811203613
 20
76.55083802258402
 30
0.0
  0
SPLINE
  5
1A5
330
1F
100
AcDbEntity
  8
Default
100
AcDbSpline
210
0.0
220
0.0
230
1.0
 70
     8
 71
     3
 72
     8
 73
     4
 74
     0
 42
0.0000000001
 43
0.0000000001
 40
0.0
 40
0.0
 40
0.0
 40
0.0
 40
1.0
 40
1.0
 40
1.0
 40
1.0
 10
-40.2773811203613
 20
76.55083802258402
 30
0.0
 10
-40.32648511358833
 20
76.55083802258402
 30
0.0
 10
-40.37333145195436
 20
76.55648215973655
 30
0.0
 10
-40.41650910117123
 20
76.56889926147211
 30
0.0
  0
SPLINE
  5
1A6
330
1F
100
AcDbEntity
  8
Default
100
AcDbSpline
210
0.0
220
0.0
230
1.0
 70
     8
 71
     3
 72
     8
 73
     4
 74
     0
 42
0.0000000001
 43
0.0000000001
 40
0.0
 40
0.0
 40
0.0
 40
0.0
 40
1.0
 40
1.0
 40
1.0
 40
1.0
 10
-40.41650910117123
 20
76.56889926147211
 30
0.0
 10
-40.82006490757733
 20
76.68657952110243
 30
0.0
 10
-40.98120502328214
 20
77.07461395033906
 30
0.0
 10
-41.10227176520397
 20
77.45728644928079
 30
0.0
  0
SPLINE
  5
1A7
330
1F
100
AcDbEntity
  8
Default
100
AcDbSpline
210
0.0
220
0.0
230
1.0
 70
     8
 71
     3
 72
     8
 73
     4
 74
     0
 42
0.0000000001
 43
0.0000000001
 40
0.0
 40
0.0
 40
0.0
 40
0.0
 40
1.0
 40
1.0
 40
1.0
 40
1.0
 10
-41.10227176520397
 20
77.45728644928079
 30
0.0
 10
-41.22305630026817
 20
77.83967674136487
 30
0.0
 10
-41.30320304783415
 20
78.21670510315407
 30
0.0
 10
-41.35117821363067
 20
78.60191746381443
 30
0.0
  0
SPLINE
  5
1A8
330
1F
100
AcDbEntity
  8
Default
100
AcDbSpline
210
0.0
220
0.0
230
1.0
 70
     8
 71
     3
 72
     8
 73
     4
 74
     0
 42
0.0000000001
 43
0.0000000001
 40
0.0
 40
0.0
 40
0.0
 40
0.0
 40
1.0
 40
1.0
 40
1.0
 40
1.0
 10
-41.35117821363067
 20
78.60191746381443
 30
0.0
 10
-41.39887117256958
 20
78.98741203133243
 30
0.0
 10
-41.41411034288141
 20
79.3810905977216
 30
0.0
 10
-41.40931282630175
 20
79.76714957895484
 30
0.0
  0
SPLINE
  5
1A9
330
1F
100
AcDbEntity
  8
Default
100
AcDbSpline
210
0.0
220
0.0
230
1.0
 70
     8
 71
     3
 72
     8
 73
     4
 74
     0
 42
0.0000000001
 43
0.0000000001
 40
0.0
 40
0.0
 40
0.0
 40
0.0
 40
1.0
 40
1.0
 40
1.0
 40
1.0
 10
-41.40931282630175
 20
79.76714957895484
 30
0.0
 10
-41.40423310286447
 20
80.15320856018809
 30
0.0
 10
-41.37883448567808
 20
80.53164795626542
 30
0.0
 10
-41.33481021588833
 20
80.91940017864441
 30
0.0
  0
SPLINE
  5
1AA
330
1F
100
AcDbEntity
  8
Default
100
AcDbSpline
210
0.0
220
0.0
230
1.0
 70
     8
 71
     3
 72
     8
 73
     4
 74
     0
 42
0.0000000001
 43
0.0000000001
 40
0.0
 40
0.0
 40
0.0
 40
0.0
 40
1.0
 40
1.0
 40
1.0
 40
1.0
 10
-41.33481021588833
 20
80.91940017864441
 30
0.0
 10
-41.29078594609857
 20
81.30715240102342
 30
0.0
 10
-41.22813602370545
 20
81.70449965656172
 30
0.0
 10
-41.16774375617335
 20
82.09648498180512
 30
0.0
  0
SPLINE
  5
1AB
330
1F
100
AcDbEntity
  8
Default
100
AcDbSpline
210
0.0
220
0.0
230
1.0
 70
     8
 71
     3
 72
     8
 73
     4
 74
     0
 42
0.0000000001
 43
0.0000000001
 40
0.0
 40
0.0
 40
0.0
 40
0.0
 40
1.0
 40
1.0
 40
1.0
 40
1.0
 10
-41.16774375617335
 20
82.09648498180512
 30
0.0
 10
-41.10735148864125
 20
82.48847030704853
 30
0.0
 10
-41.04865246225491
 20
82.87509370199702
 30
0.0
 10
-40.98684916043468
 20
83.26143489008791
 30
0.0
  0
SPLINE
  5
1AC
330
1F
100
AcDbEntity
  8
Default
100
AcDbSpline
210
0.0
220
0.0
230
1.0
 70
     8
 71
     3
 72
     8
 73
     4
 74
     0
 42
0.0000000001
 43
0.0000000001
 40
0.0
 40
0.0
 40
0.0
 40
0.0
 40
1.0
 40
1.0
 40
1.0
 40
1.0
 10
-40.98684916043468
 20
83.26143489008791
 30
0.0
 10
-40.92504585861445
 20
83.64777607817877
 30
0.0
 10
-40.85957386764506
 20
84.03327064569676
 30
0.0
 10
-40.79494849724856
 20
84.41904742007239
 30
0.0
  0
SPLINE
  5
1AD
330
1F
100
AcDbEntity
  8
Default
100
AcDbSpline
210
0.0
220
0.0
230
1.0
 70
     8
 71
     3
 72
     8
 73
     4
 74
     0
 42
0.0000000001
 43
0.0000000001
 40
0.0
 40
0.0
 40
0.0
 40
0.0
 40
1.0
 40
1.0
 40
1.0
 40
1.0
 10
-40.79494849724856
 20
84.41904742007239
 30
0.0
 10
-40.73004091999444
 20
84.80482419444802
 30
0.0
 10
-40.66569775645556
 20
85.19088317568126
 30
0.0
 10
-40.60756314378447
 20
85.57750657062975
 30
0.0
  0
SPLINE
  5
1AE
330
1F
100
AcDbEntity
  8
Default
100
AcDbSpline
210
0.0
220
0.0
230
1.0
 70
     8
 71
     3
 72
     8
 73
     4
 74
     0
 42
0.0000000001
 43
0.0000000001
 40
0.0
 40
0.0
 40
0.0
 40
0.0
 40
1.0
 40
1.0
 40
1.0
 40
1.0
 10
-40.60756314378447
 20
85.57750657062975
 30
0.0
 10
-40.50173557217448
 20
86.23533075575743
 30
0.0
 10
-40.39562579370686
 20
86.89315494088514
 30
0.0
 10
-40.28979822209688
 20
87.55069691915521
 30
0.0
  0
SPLINE
  5
1AF
330
1F
100
AcDbEntity
  8
Default
100
AcDbSpline
210
0.0
220
0.0
230
1.0
 70
     8
 71
     3
 72
     8
 73
     4
 74
     0
 42
0.0000000001
 43
0.0000000001
 40
0.0
 40
0.0
 40
0.0
 40
0.0
 40
1.0
 40
1.0
 40
1.0
 40
1.0
 10
-40.28979822209688
 20
87.55069691915521
 30
0.0
 10
-39.91474530831106
 20
89.8769280465716
 30
0.0
 10
-39.29755891068161
 20
92.19215310654057
 30
0.0
 10
-38.2742768449274
 20
94.31463088275055
 30
0.0
  0
SPLINE
  5
1B0
330
1F
100
AcDbEntity
  8
Default
100
AcDbSpline
210
0.0
220
0.0
230
1.0
 70
     8
 71
     3
 72
     8
 73
     4
 74
     0
 42
0.0000000001
 43
0.0000000001
 40
0.0
 40
0.0
 40
0.0
 40
0.0
 40
1.0
 40
1.0
 40
1.0
 40
1.0
 10
-38.2742768449274
 20
94.31463088275055
 30
0.0
 10
-37.25071257231558
 20
96.43682645210288
 30
0.0
 10
-35.82161704529426
 20
98.36571032398098
 30
0.0
 10
-34.10664597149717
 20
99.99658375420535
 30
0.0
  0
SPLINE
  5
1B1
330
1F
100
AcDbEntity
  8
Default
100
AcDbSpline
210
0.0
220
0.0
230
1.0
 70
     8
 71
     3
 72
     8
 73
     4
 74
     0
 42
0.0000000001
 43
0.0000000001
 40
0.0
 40
0.0
 40
0.0
 40
0.0
 40
1.0
 40
1.0
 40
1.0
 40
1.0
 10
-34.10664597149717
 20
99.99658375420535
 30
0.0
 10
-32.39167489770008
 20
101.6274571844297
 30
0.0
 10
-30.39082827712719
 20
102.9603201730003
 30
0.0
 10
-28.21952871454781
 20
103.8690262545581
 30
0.0
  0
SPLINE
  5
1B2
330
1F
100
AcDbEntity
  8
Default
100
AcDbSpline
210
0.0
220
0.0
230
1.0
 70
     8
 71
     3
 72
     8
 73
     4
 74
     0
 42
0.0000000001
 43
0.0000000001
 40
0.0
 40
0.0
 40
0.0
 40
0.0
 40
1.0
 40
1.0
 40
1.0
 40
1.0
 10
-28.21952871454781
 20
103.8690262545581
 30
0.0
 10
-26.04794694511082
 20
104.7780145429735
 30
0.0
 10
-23.70591223366731
 20
105.2631281312337
 30
0.0
 10
-21.35174262734588
 20
105.4462803818334
 30
0.0
  0
SPLINE
  5
1B3
330
1F
100
AcDbEntity
  8
Default
100
AcDbSpline
210
0.0
220
0.0
230
1.0
 70
     8
 71
     3
 72
     8
 73
     4
 74
     0
 42
0.0000000001
 43
0.0000000001
 40
0.0
 40
0.0
 40
0.0
 40
0.0
 40
1.0
 40
1.0
 40
1.0
 40
1.0
 10
-21.35174262734588
 20
105.4462803818334
 30
0.0
 10
-20.39054607026954
 20
105.5213474059621
 30
0.0
 10
-19.42737406518981
 20
105.5458994025756
 30
0.0
 10
-18.46307323267959
 20
105.5458994025756
 30
0.0
  0
LINE
  5
1B4
330
1F
100
AcDbEntity
  8
Default
100
AcDbLine
 10
-18.46307323267959
 20
105.5458994025756
 30
0.0
 11
18.46312967405112
 21
105.5458994025756
 31
0.0
  0
SPLINE
  5
1B5
330
1F
100
AcDbEntity
  8
Default
100
AcDbSpline
210
0.0
220
0.0
230
1.0
 70
     8
 71
     3
 72
     8
 73
     4
 74
     0
 42
0.0000000001
 43
0.0000000001
 40
0.0
 40
0.0
 40
0.0
 40
0.0
 40
1.0
 40
1.0
 40
1.0
 40
1.0
 10
20.40138281360242
 20
92.55526867024878
 30
0.0
 10
21.20115704811632
 20
92.55526867024878
 30
0.0
 10
22.00093128263022
 20
92.4158584825812
 30
0.0
 10
22.75329476506285
 20
92.14522210611727
 30
0.0
  0
SPLINE
  5
1B6
330
1F
100
AcDbEntity
  8
Default
100
AcDbSpline
210
0.0
220
0.0
230
1.0
 70
     8
 71
     3
 72
     8
 73
     4
 74
     0
 42
0.0000000001
 43
0.0000000001
 40
0.0
 40
0.0
 40
0.0
 40
0.0
 40
1.0
 40
1.0
 40
1.0
 40
1.0
 10
22.75329476506285
 20
92.14522210611727
 30
0.0
 10
23.5059404543531
 20
91.87458572965332
 30
0.0
 10
24.21117539156207
 20
91.47300537125061
 30
0.0
 10
24.82779737547627
 20
90.96418640694978
 30
0.0
  0
SPLINE
  5
1B7
330
1F
100
AcDbEntity
  8
Default
100
AcDbSpline
210
0.0
220
0.0
230
1.0
 70
     8
 71
     3
 72
     8
 73
     4
 74
     0
 42
0.0000000001
 43
0.0000000001
 40
0.0
 40
0.0
 40
0.0
 40
0.0
 40
1.0
 40
1.0
 40
1.0
 40
1.0
 10
24.82779737547627
 20
90.96418640694978
 30
0.0
 10
25.4444193593905
 20
90.45508523579132
 30
0.0
 10
25.97242839000993
 20
89.8384632518771
 30
0.0
 10
26.38078171299568
 20
89.1510073466986
 30
0.0
  0
SPLINE
  5
1B8
330
1F
100
AcDbEntity
  8
Default
100
AcDbSpline
210
0.0
220
0.0
230
1.0
 70
     8
 71
     3
 72
     8
 73
     4
 74
     0
 42
0.0000000001
 43
0.0000000001
 40
0.0
 40
0.0
 40
0.0
 40
0.0
 40
1.0
 40
1.0
 40
1.0
 40
1.0
 10
26.38078171299568
 20
89.1510073466986
 30
0.0
 10
26.78913503598144
 20
88.4635514415201
 30
0.0
 10
27.07811485819112
 20
87.7049794082197
 30
0.0
 10
27.23050656130952
 20
86.92016213716
 30
0.0
  0
SPLINE
  5
1B9
330
1F
100
AcDbEntity
  8
Default
100
AcDbSpline
210
0.0
220
0.0
230
1.0
 70
     8
 71
     3
 72
     8
 73
     4
 74
     0
 42
0.0000000001
 43
0.0000000001
 40
0.0
 40
0.0
 40
0.0
 40
0.0
 40
1.0
 40
1.0
 40
1.0
 40
1.0
 10
27.23050656130952
 20
86.92016213716
 30
0.0
 10
28.15727388175539
 20
82.43674179004556
 30
0.0
 10
29.08404120220128
 20
77.95360364978875
 30
0.0
 10
30.01080852264716
 20
73.4701833026743
 30
0.0
  0
SPLINE
  5
1BA
330
1F
100
AcDbEntity
  8
Default
100
AcDbSpline
210
0.0
220
0.0
230
1.0
 70
     8
 71
     3
 72
     8
 73
     4
 74
     0
 42
0.0000000001
 43
0.0000000001
 40
0.0
 40
0.0
 40
0.0
 40
0.0
 40
1.0
 40
1.0
 40
1.0
 40
1.0
 10
30.01080852264716
 20
73.4701833026743
 30
0.0
 10
30.09208409764364
 20
73.08553535572919
 30
0.0
 10
30.07571609990129
 20
72.68000410131971
 30
0.0
 10
29.96509101171164
 20
72.30297573953051
 30
0.0
  0
SPLINE
  5
1BB
330
1F
100
AcDbEntity
  8
Default
100
AcDbSpline
210
0.0
220
0.0
230
1.0
 70
     8
 71
     3
 72
     8
 73
     4
 74
     0
 42
0.0000000001
 43
0.0000000001
 40
0.0
 40
0.0
 40
0.0
 40
0.0
 40
1.0
 40
1.0
 40
1.0
 40
1.0
 10
29.96509101171164
 20
72.30297573953051
 30
0.0
 10
29.85446592352202
 20
71.92594737774131
 30
0.0
 10
29.64958374488508
 20
71.57770411543004
 30
0.0
 10
29.37386764498384
 20
71.2954972578034
 30
0.0
  0
SPLINE
  5
1BC
330
1F
100
AcDbEntity
  8
Default
100
AcDbSpline
210
0.0
220
0.0
230
1.0
 70
     8
 71
     3
 72
     8
 73
     4
 74
     0
 42
0.0000000001
 43
0.0000000001
 40
0.0
 40
0.0
 40
0.0
 40
0.0
 40
1.0
 40
1.0
 40
1.0
 40
1.0
 10
29.37386764498384
 20
71.2954972578034
 30
0.0
 10
29.09815154508261
 20
71.0135726070344
 30
0.0
 10
28.75188373077473
 20
70.79824877466527
 30
0.0
 10
28.37683081698892
 20
70.68705927276038
 30
0.0
  0
SPLINE
  5
1BD
330
1F
100
AcDbEntity
  8
Default
100
AcDbSpline
210
0.0
220
0.0
230
1.0
 70
     8
 71
     3
 72
     8
 73
     4
 74
     0
 42
0.0000000001
 43
0.0000000001
 40
0.0
 40
0.0
 40
0.0
 40
0.0
 40
1.0
 40
1.0
 40
1.0
 40
1.0
 10
28.37683081698892
 20
70.68705927276038
 30
0.0
 10
28.06950754903352
 20
70.59590645774696
 30
0.0
 10
27.74299421475947
 20
70.57502315028259
 30
0.0
 10
27.4201495696346
 20
70.57502315028259
 30
0.0
  0
SPLINE
  5
1BE
330
1F
100
AcDbEntity
  8
Default
100
AcDbSpline
210
0.0
220
0.0
230
1.0
 70
     8
 71
     3
 72
     8
 73
     4
 74
     0
 42
0.0000000001
 43
0.0000000001
 40
0.0
 40
0.0
 40
0.0
 40
0.0
 40
1.0
 40
1.0
 40
1.0
 40
1.0
 10
27.4201495696346
 20
70.57502315028259
 30
0.0
 10
27.34931564837033
 20
70.57502315028259
 30
0.0
 10
27.27848172710602
 20
70.57586977085546
 30
0.0
 10
27.20821221955701
 20
70.57756301200125
 30
0.0
  0
LINE
  5
1BF
330
1F
100
AcDbEntity
  8
Default
100
AcDbLine
 10
27.20821221955701
 20
70.57756301200125
 30
0.0
 11
-27.20804289544241
 21
70.57756301200125
 31
0.0
  0
SPLINE
  5
1C0
330
1F
100
AcDbEntity
  8
Default
100
AcDbSpline
210
0.0
220
0.0
230
1.0
 70
     8
 71
     3
 72
     8
 73
     4
 74
     0
 42
0.0000000001
 43
0.0000000001
 40
0.0
 40
0.0
 40
0.0
 40
0.0
 40
1.0
 40
1.0
 40
1.0
 40
1.0
 10
-27.20804289544241
 20
70.57756301200125
 30
0.0
 10
-27.27831240299144
 20
70.57586977085546
 30
0.0
 10
-27.34914632425573
 20
70.57502315028259
 30
0.0
 10
-27.42026245237764
 20
70.57502315028259
 30
0.0
  0
SPLINE
  5
1C1
330
1F
100
AcDbEntity
  8
Default
100
AcDbSpline
210
0.0
220
0.0
230
1.0
 70
     8
 71
     3
 72
     8
 73
     4
 74
     0
 42
0.0000000001
 43
0.0000000001
 40
0.0
 40
0.0
 40
0.0
 40
0.0
 40
1.0
 40
1.0
 40
1.0
 40
1.0
 10
-27.42026245237764
 20
70.57502315028259
 30
0.0
 10
-27.74310709750252
 20
70.57502315028259
 30
0.0
 10
-28.06962043177655
 20
70.59590645774696
 30
0.0
 10
-28.37694369973196
 20
70.68705927276038
 30
0.0
  0
SPLINE
  5
1C2
330
1F
100
AcDbEntity
  8
Default
100
AcDbSpline
210
0.0
220
0.0
230
1.0
 70
     8
 71
     3
 72
     8
 73
     4
 74
     0
 42
0.0000000001
 43
0.0000000001
 40
0.0
 40
0.0
 40
0.0
 40
0.0
 40
1.0
 40
1.0
 40
1.0
 40
1.0
 10
-28.37694369973196
 20
70.68705927276038
 30
0.0
 10
-28.75171440666013
 20
70.79824877466527
 30
0.0
 10
-29.09826442782565
 20
71.0135726070344
 30
0.0
 10
-29.37398052772687
 20
71.2954972578034
 30
0.0
  0
SPLINE
  5
1C3
330
1F
100
AcDbEntity
  8
Default
100
AcDbSpline
210
0.0
220
0.0
230
1.0
 70
     8
 71
     3
 72
     8
 73
     4
 74
     0
 42
0.0000000001
 43
0.0000000001
 40
0.0
 40
0.0
 40
0.0
 40
0.0
 40
1.0
 40
1.0
 40
1.0
 40
1.0
 10
-29.37398052772687
 20
71.2954972578034
 30
0.0
 10
-29.64941442077048
 20
71.57770411543004
 30
0.0
 10
-29.85457880626505
 20
71.92594737774131
 30
0.0
 10
-29.96520389445468
 20
72.30297573953051
 30
0.0
  0
SPLINE
  5
1C4
330
1F
100
AcDbEntity
  8
Default
100
AcDbSpline
210
0.0
220
0.0
230
1.0
 70
     8
 71
     3
 72
     8
 73
     4
 74
     0
 42
0.0000000001
 43
0.0000000001
 40
0.0
 40
0.0
 40
0.0
 40
0.0
 40
1.0
 40
1.0
 40
1.0
 40
1.0
 10
-29.96520389445468
 20
72.30297573953051
 30
0.0
 10
-30.07582898264434
 20
72.68000410131971
 30
0.0
 10
-30.09219698038668
 20
73.08553535572919
 30
0.0
 10
-30.01063919853258
 20
73.4701833026743
 30
0.0
  0
SPLINE
  5
1C5
330
1F
100
AcDbEntity
  8
Default
100
AcDbSpline
210
0.0
220
0.0
230
1.0
 70
     8
 71
     3
 72
     8
 73
     4
 74
     0
 42
0.0000000001
 43
0.0000000001
 40
0.0
 40
0.0
 40
0.0
 40
0.0
 40
1.0
 40
1.0
 40
1.0
 40
1.0
 10
-30.01063919853258
 20
73.4701833026743
 30
0.0
 10
-29.08387187808669
 20
77.95360364978875
 30
0.0
 10
-28.1571045576408
 20
82.43674179004556
 30
0.0
 10
-27.23033723719491
 20
86.92016213716
 30
0.0
  0
SPLINE
  5
1C6
330
1F
100
AcDbEntity
  8
Default
100
AcDbSpline
210
0.0
220
0.0
230
1.0
 70
     8
 71
     3
 72
     8
 73
     4
 74
     0
 42
0.0000000001
 43
0.0000000001
 40
0.0
 40
0.0
 40
0.0
 40
0.0
 40
1.0
 40
1.0
 40
1.0
 40
1.0
 10
-27.23033723719491
 20
86.92016213716
 30
0.0
 10
-27.07794553407652
 20
87.7049794082197
 30
0.0
 10
-26.78924791872448
 20
88.4635514415201
 30
0.0
 10
-26.38089459573872
 20
89.1510073466986
 30
0.0
  0
SPLINE
  5
1C7
330
1F
100
AcDbEntity
  8
Default
100
AcDbSpline
210
0.0
220
0.0
230
1.0
 70
     8
 71
     3
 72
     8
 73
     4
 74
     0
 42
0.0000000001
 43
0.0000000001
 40
0.0
 40
0.0
 40
0.0
 40
0.0
 40
1.0
 40
1.0
 40
1.0
 40
1.0
 10
-26.38089459573872
 20
89.1510073466986
 30
0.0
 10
-25.97254127275297
 20
89.8384632518771
 30
0.0
 10
-25.44453224213353
 20
90.45508523579132
 30
0.0
 10
-24.82791025821932
 20
90.96418640694978
 30
0.0
  0
SPLINE
  5
1C8
330
1F
100
AcDbEntity
  8
Default
100
AcDbSpline
210
0.0
220
0.0
230
1.0
 70
     8
 71
     3
 72
     8
 73
     4
 74
     0
 42
0.0000000001
 43
0.0000000001
 40
0.0
 40
0.0
 40
0.0
 40
0.0
 40
1.0
 40
1.0
 40
1.0
 40
1.0
 10
-24.82791025821932
 20
90.96418640694978
 30
0.0
 10
-24.21128827430511
 20
91.47300537125061
 30
0.0
 10
-23.50577113023851
 20
91.87458572965332
 30
0.0
 10
-22.75340764780589
 20
92.14522210611727
 30
0.0
  0
SPLINE
  5
1C9
330
1F
100
AcDbEntity
  8
Default
100
AcDbSpline
210
0.0
220
0.0
230
1.0
 70
     8
 71
     3
 72
     8
 73
     4
 74
     0
 42
0.0000000001
 43
0.0000000001
 40
0.0
 40
0.0
 40
0.0
 40
0.0
 40
1.0
 40
1.0
 40
1.0
 40
1.0
 10
-22.75340764780589
 20
92.14522210611727
 30
0.0
 10
-22.00076195851563
 20
92.4158584825812
 30
0.0
 10
-21.20098772400173
 20
92.55526867024878
 30
0.0
 10
-20.40149569634546
 20
92.55526867024878
 30
0.0
  0
LINE
  5
1CA
330
1F
100
AcDbEntity
  8
Default
100
AcDbLine
 10
-20.40149569634546
 20
92.55526867024878
 30
0.0
 11
20.40138281360242
 21
92.55526867024878
 31
0.0
  0
LINE
  5
1CB
330
1F
100
AcDbEntity
  8
Default
100
AcDbLine
 10
39.53534640891782
 20
8.399434043467174
 30
0.0
 11
-39.53534640891782
 21
8.399434043467174
 31
0.0
  0
LINE
  5
1CC
330
1F
100
AcDbEntity
  8
Default
100
AcDbLine
 10
-39.53534640891782
 20
8.399434043467174
 30
0.0
 11
-39.53534640891782
 21
10.79932116072412
 31
0.0
  0
LINE
  5
1CD
330
1F
100
AcDbEntity
  8
Default
100
AcDbLine
 10
-39.53534640891782
 20
10.79932116072412
 30
0.0
 11
39.53534640891782
 21
10.79932116072412
 31
0.0
  0
LINE
  5
1CE
330
1F
100
AcDbEntity
  8
Default
100
AcDbLine
 10
39.53534640891782
 20
10.79932116072412
 30
0.0
 11
39.53534640891782
 21
8.399434043467174
 31
0.0
  0
LINE
  5
1CF
330
1F
100
AcDbEntity
  8
Default
100
AcDbLine
 10
-20.98557922957533
 20
8.399434043467174
 30
0.0
 11
-20.98557922957533
 21
6.180723728806525
 31
0.0
  0
LINE
  5
1D0
330
1F
100
AcDbEntity
  8
Default
100
AcDbLine
 10
-20.98557922957533
 20
6.180723728806525
 30
0.0
 11
-20.98557922957533
 21
0.9974303747780092
 31
0.0
  0
SPLINE
  5
1D1
330
1F
100
AcDbEntity
  8
Default
100
AcDbSpline
210
0.0
220
0.0
230
1.0
 70
     8
 71
     3
 72
     8
 73
     4
 74
     0
 42
0.0000000001
 43
0.0000000001
 40
0.0
 40
0.0
 40
0.0
 40
0.0
 40
1.0
 40
1.0
 40
1.0
 40
1.0
 10
-20.98557922957533
 20
0.9974303747780092
 30
0.0
 10
-20.98557922957533
 20
0.9065597666222265
 30
0.0
 10
-20.99094115987022
 20
0.8156891584664485
 30
0.0
 10
-21.00476929589394
 20
0.7256651708835513
 30
0.0
  0
SPLINE
  5
1D2
330
1F
100
AcDbEntity
  8
Default
100
AcDbSpline
210
0.0
220
0.0
230
1.0
 70
     8
 71
     3
 72
     8
 73
     4
 74
     0
 42
0.0000000001
 43
0.0000000001
 40
0.0
 40
0.0
 40
0.0
 40
0.0
 40
1.0
 40
1.0
 40
1.0
 40
1.0
 10
-21.00476929589394
 20
0.7256651708835513
 30
0.0
 10
-21.01831522506001
 20
0.6356411833006541
 30
0.0
 10
-21.04032735995488
 20
0.5470282300058857
 30
0.0
 10
-21.0753210103006
 20
0.4629305864331463
 30
0.0
  0
SPLINE
  5
1D3
330
1F
100
AcDbEntity
  8
Default
100
AcDbSpline
210
0.0
220
0.0
230
1.0
 70
     8
 71
     3
 72
     8
 73
     4
 74
     0
 42
0.0000000001
 43
0.0000000001
 40
0.0
 40
0.0
 40
0.0
 40
0.0
 40
1.0
 40
1.0
 40
1.0
 40
1.0
 10
-21.0753210103006
 20
0.4629305864331463
 30
0.0
 10
-21.11059686750393
 20
0.3788329428604114
 30
0.0
 10
-21.15857203330045
 20
0.299815022724953
 30
0.0
 10
-21.22093974883594
 20
0.2340608248979434
 30
0.0
  0
SPLINE
  5
1D4
330
1F
100
AcDbEntity
  8
Default
100
AcDbSpline
210
0.0
220
0.0
230
1.0
 70
     8
 71
     3
 72
     8
 73
     4
 74
     0
 42
0.0000000001
 43
0.0000000001
 40
0.0
 40
0.0
 40
0.0
 40
0.0
 40
1.0
 40
1.0
 40
1.0
 40
1.0
 10
-21.22093974883594
 20
0.2340608248979434
 30
0.0
 10
-21.28358967122906
 20
0.1685888339285626
 30
0.0
 10
-21.36063214336113
 20
0.1163805652676349
 30
0.0
 10
-21.44360095950335
 20
0.0796936737761749
 30
0.0
  0
SPLINE
  5
1D5
330
1F
100
AcDbEntity
  8
Default
100
AcDbSpline
210
0.0
220
0.0
230
1.0
 70
     8
 71
     3
 72
     8
 73
     4
 74
     0
 42
0.0000000001
 43
0.0000000001
 40
0.0
 40
0.0
 40
0.0
 40
0.0
 40
1.0
 40
1.0
 40
1.0
 40
1.0
 10
-21.44360095950335
 20
0.0796936737761749
 30
0.0
 10
-21.52685198250322
 20
0.0432889891423343
 30
0.0
 10
-21.61631155637087
 20
0.0221234748203374
 30
0.0
 10
-21.70831099195715
 20
0.0108352005152745
 30
0.0
  0
SPLINE
  5
1D6
330
1F
100
AcDbEntity
  8
Default
100
AcDbSpline
210
0.0
220
0.0
230
1.0
 70
     8
 71
     3
 72
     8
 73
     4
 74
     0
 42
0.0000000001
 43
0.0000000001
 40
0.0
 40
0.0
 40
0.0
 40
0.0
 40
1.0
 40
1.0
 40
1.0
 40
1.0
 10
-21.70831099195715
 20
0.0108352005152745
 30
0.0
 10
-21.80031042754344
 20
-0.000735280647417
 30
0.0
 10
-21.89513193170599
 20
-0.0024285217931788
 30
0.0
 10
-21.98600253986175
 20
-0.0024285217931788
 30
0.0
  0
SPLINE
  5
1D7
330
1F
100
AcDbEntity
  8
Default
100
AcDbSpline
210
0.0
220
0.0
230
1.0
 70
     8
 71
     3
 72
     8
 73
     4
 74
     0
 42
0.0000000001
 43
0.0000000001
 40
0.0
 40
0.0
 40
0.0
 40
0.0
 40
1.0
 40
1.0
 40
1.0
 40
1.0
 10
-21.98600253986175
 20
-0.0024285217931788
 30
0.0
 10
-22.07687314801753
 20
-0.0024285217931788
 30
0.0
 10
-22.17141244532247
 20
-0.000453073789793
 30
0.0
 10
-22.26341188090875
 20
0.0108352005152745
 30
0.0
  0
SPLINE
  5
1D8
330
1F
100
AcDbEntity
  8
Default
100
AcDbSpline
210
0.0
220
0.0
230
1.0
 70
     8
 71
     3
 72
     8
 73
     4
 74
     0
 42
0.0000000001
 43
0.0000000001
 40
0.0
 40
0.0
 40
0.0
 40
0.0
 40
1.0
 40
1.0
 40
1.0
 40
1.0
 10
-22.26341188090875
 20
0.0108352005152745
 30
0.0
 10
-22.35541131649504
 20
0.0224056816779659
 30
0.0
 10
-22.44487089036268
 20
0.0435711959999583
 30
0.0
 10
-22.52783970650491
 20
0.0799758806337987
 30
0.0
  0
SPLINE
  5
1D9
330
1F
100
AcDbEntity
  8
Default
100
AcDbSpline
210
0.0
220
0.0
230
1.0
 70
     8
 71
     3
 72
     8
 73
     4
 74
     0
 42
0.0000000001
 43
0.0000000001
 40
0.0
 40
0.0
 40
0.0
 40
0.0
 40
1.0
 40
1.0
 40
1.0
 40
1.0
 10
-22.52783970650491
 20
0.0799758806337987
 30
0.0
 10
-22.61109072950477
 20
0.1166627721252633
 30
0.0
 10
-22.68785099477922
 20
0.1688710407861911
 30
0.0
 10
-22.75021871031471
 20
0.234625238613196
 30
0.0
  0
SPLINE
  5
1DA
330
1F
100
AcDbEntity
  8
Default
100
AcDbSpline
210
0.0
220
0.0
230
1.0
 70
     8
 71
     3
 72
     8
 73
     4
 74
     0
 42
0.0000000001
 43
0.0000000001
 40
0.0
 40
0.0
 40
0.0
 40
0.0
 40
1.0
 40
1.0
 40
1.0
 40
1.0
 10
-22.75021871031471
 20
0.234625238613196
 30
0.0
 10
-22.81286863270781
 20
0.300097229582577
 30
0.0
 10
-22.86084379850435
 20
0.3793973565756639
 30
0.0
 10
-22.89583744885005
 20
0.4632127932907748
 30
0.0
  0
SPLINE
  5
1DB
330
1F
100
AcDbEntity
  8
Default
100
AcDbSpline
210
0.0
220
0.0
230
1.0
 70
     8
 71
     3
 72
     8
 73
     4
 74
     0
 42
0.0000000001
 43
0.0000000001
 40
0.0
 40
0.0
 40
0.0
 40
0.0
 40
1.0
 40
1.0
 40
1.0
 40
1.0
 10
-22.89583744885005
 20
0.4632127932907748
 30
0.0
 10
-22.93083109919576
 20
0.5473104368635142
 30
0.0
 10
-22.952561027233
 20
0.6359233901582781
 30
0.0
 10
-22.96638916325671
 20
0.7259473777411798
 30
0.0
  0
SPLINE
  5
1DC
330
1F
100
AcDbEntity
  8
Default
100
AcDbSpline
210
0.0
220
0.0
230
1.0
 70
     8
 71
     3
 72
     8
 73
     4
 74
     0
 42
0.0000000001
 43
0.0000000001
 40
0.0
 40
0.0
 40
0.0
 40
0.0
 40
1.0
 40
1.0
 40
1.0
 40
1.0
 10
-22.96638916325671
 20
0.7259473777411798
 30
0.0
 10
-22.97993509242279
 20
0.8156891584664485
 30
0.0
 10
-22.98557922957533
 20
0.9065597666222265
 30
0.0
 10
-22.98557922957533
 20
0.9974303747780092
 30
0.0
  0
LINE
  5
1DD
330
1F
100
AcDbEntity
  8
Default
100
AcDbLine
 10
-22.98557922957533
 20
0.9974303747780092
 30
0.0
 11
-22.98557922957533
 21
8.399434043467174
 31
0.0
  0
LINE
  5
1DE
330
1F
100
AcDbEntity
  8
Default
100
AcDbLine
 10
-22.98557922957533
 20
8.399434043467174
 30
0.0
 11
-20.98557922957533
 21
8.399434043467174
 31
0.0
  0
LINE
  5
1DF
330
1F
100
AcDbEntity
  8
Default
100
AcDbLine
 10
22.98549456751802
 20
8.399434043467174
 30
0.0
 11
22.98549456751802
 21
6.180723728806525
 31
0.0
  0
LINE
  5
1E0
330
1F
100
AcDbEntity
  8
Default
100
AcDbLine
 10
22.98549456751802
 20
6.180723728806525
 30
0.0
 11
22.98549456751802
 21
0.9974303747780092
 31
0.0
  0
SPLINE
  5
1E1
330
1F
100
AcDbEntity
  8
Default
100
AcDbSpline
210
0.0
220
0.0
230
1.0
 70
     8
 71
     3
 72
     8
 73
     4
 74
     0
 42
0.0000000001
 43
0.0000000001
 40
0.0
 40
0.0
 40
0.0
 40
0.0
 40
1.0
 40
1.0
 40
1.0
 40
1.0
 10
22.98549456751802
 20
0.9974303747780092
 30
0.0
 10
22.98549456751802
 20
0.9065597666222265
 30
0.0
 10
22.98013263722313
 20
0.8156891584664485
 30
0.0
 10
22.96630450119944
 20
0.7256651708835513
 30
0.0
  0
SPLINE
  5
1E2
330
1F
100
AcDbEntity
  8
Default
100
AcDbSpline
210
0.0
220
0.0
230
1.0
 70
     8
 71
     3
 72
     8
 73
     4
 74
     0
 42
0.0000000001
 43
0.0000000001
 40
0.0
 40
0.0
 40
0.0
 40
0.0
 40
1.0
 40
1.0
 40
1.0
 40
1.0
 10
22.96630450119944
 20
0.7256651708835513
 30
0.0
 10
22.95275857203334
 20
0.6356411833006541
 30
0.0
 10
22.93074643713846
 20
0.5470282300058857
 30
0.0
 10
22.89575278679278
 20
0.4629305864331463
 30
0.0
  0
SPLINE
  5
1E3
330
1F
100
AcDbEntity
  8
Default
100
AcDbSpline
210
0.0
220
0.0
230
1.0
 70
     8
 71
     3
 72
     8
 73
     4
 74
     0
 42
0.0000000001
 43
0.0000000001
 40
0.0
 40
0.0
 40
0.0
 40
0.0
 40
1.0
 40
1.0
 40
1.0
 40
1.0
 10
22.89575278679278
 20
0.4629305864331463
 30
0.0
 10
22.86047692958943
 20
0.3788329428604114
 30
0.0
 10
22.8125017637929
 20
0.299815022724953
 30
0.0
 10
22.75013404825742
 20
0.2340608248979434
 30
0.0
  0
SPLINE
  5
1E4
330
1F
100
AcDbEntity
  8
Default
100
AcDbSpline
210
0.0
220
0.0
230
1.0
 70
     8
 71
     3
 72
     8
 73
     4
 74
     0
 42
0.0000000001
 43
0.0000000001
 40
0.0
 40
0.0
 40
0.0
 40
0.0
 40
1.0
 40
1.0
 40
1.0
 40
1.0
 10
22.75013404825742
 20
0.2340608248979434
 30
0.0
 10
22.68748412586431
 20
0.1685888339285626
 30
0.0
 10
22.61044165373223
 20
0.1163805652676349
 30
0.0
 10
22.52747283759
 20
0.0796936737761749
 30
0.0
  0
SPLINE
  5
1E5
330
1F
100
AcDbEntity
  8
Default
100
AcDbSpline
210
0.0
220
0.0
230
1.0
 70
     8
 71
     3
 72
     8
 73
     4
 74
     0
 42
0.0000000001
 43
0.0000000001
 40
0.0
 40
0.0
 40
0.0
 40
0.0
 40
1.0
 40
1.0
 40
1.0
 40
1.0
 10
22.52747283759
 20
0.0796936737761749
 30
0.0
 10
22.44422181459013
 20
0.0432889891423343
 30
0.0
 10
22.35476224072249
 20
0.0221234748203374
 30
0.0
 10
22.26276280513622
 20
0.0108352005152745
 30
0.0
  0
SPLINE
  5
1E6
330
1F
100
AcDbEntity
  8
Default
100
AcDbSpline
210
0.0
220
0.0
230
1.0
 70
     8
 71
     3
 72
     8
 73
     4
 74
     0
 42
0.0000000001
 43
0.0000000001
 40
0.0
 40
0.0
 40
0.0
 40
0.0
 40
1.0
 40
1.0
 40
1.0
 40
1.0
 10
22.26276280513622
 20
0.0108352005152745
 30
0.0
 10
22.17048116269231
 20
-0.000735280647417
 30
0.0
 10
22.07594186538738
 20
-0.0024285217931788
 30
0.0
 10
21.98507125723159
 20
-0.0024285217931788
 30
0.0
  0
SPLINE
  5
1E7
330
1F
100
AcDbEntity
  8
Default
100
AcDbSpline
210
0.0
220
0.0
230
1.0
 70
     8
 71
     3
 72
     8
 73
     4
 74
     0
 42
0.0000000001
 43
0.0000000001
 40
0.0
 40
0.0
 40
0.0
 40
0.0
 40
1.0
 40
1.0
 40
1.0
 40
1.0
 10
21.98507125723159
 20
-0.0024285217931788
 30
0.0
 10
21.89420064907581
 20
-0.0024285217931788
 30
0.0
 10
21.79966135177089
 20
-0.000453073789793
 30
0.0
 10
21.70766191618461
 20
0.0108352005152745
 30
0.0
  0
SPLINE
  5
1E8
330
1F
100
AcDbEntity
  8
Default
100
AcDbSpline
210
0.0
220
0.0
230
1.0
 70
     8
 71
     3
 72
     8
 73
     4
 74
     0
 42
0.0000000001
 43
0.0000000001
 40
0.0
 40
0.0
 40
0.0
 40
0.0
 40
1.0
 40
1.0
 40
1.0
 40
1.0
 10
21.70766191618461
 20
0.0108352005152745
 30
0.0
 10
21.61566248059832
 20
0.0224056816779659
 30
0.0
 10
21.52620290673067
 20
0.0435711959999583
 30
0.0
 10
21.44323409058845
 20
0.0799758806337987
 30
0.0
  0
SPLINE
  5
1E9
330
1F
100
AcDbEntity
  8
Default
100
AcDbSpline
210
0.0
220
0.0
230
1.0
 70
     8
 71
     3
 72
     8
 73
     4
 74
     0
 42
0.0000000001
 43
0.0000000001
 40
0.0
 40
0.0
 40
0.0
 40
0.0
 40
1.0
 40
1.0
 40
1.0
 40
1.0
 10
21.44323409058845
 20
0.0799758806337987
 30
0.0
 10
21.35998306758859
 20
0.1166627721252633
 30
0.0
 10
21.28322280231415
 20
0.1688710407861911
 30
0.0
 10
21.22085508677866
 20
0.234625238613196
 30
0.0
  0
SPLINE
  5
1EA
330
1F
100
AcDbEntity
  8
Default
100
AcDbSpline
210
0.0
220
0.0
230
1.0
 70
     8
 71
     3
 72
     8
 73
     4
 74
     0
 42
0.0000000001
 43
0.0000000001
 40
0.0
 40
0.0
 40
0.0
 40
0.0
 40
1.0
 40
1.0
 40
1.0
 40
1.0
 10
21.22085508677866
 20
0.234625238613196
 30
0.0
 10
21.15820516438554
 20
0.300097229582577
 30
0.0
 10
21.11022999858901
 20
0.3793973565756639
 30
0.0
 10
21.07523634824329
 20
0.4632127932907748
 30
0.0
  0
SPLINE
  5
1EB
330
1F
100
AcDbEntity
  8
Default
100
AcDbSpline
210
0.0
220
0.0
230
1.0
 70
     8
 71
     3
 72
     8
 73
     4
 74
     0
 42
0.0000000001
 43
0.0000000001
 40
0.0
 40
0.0
 40
0.0
 40
0.0
 40
1.0
 40
1.0
 40
1.0
 40
1.0
 10
21.07523634824329
 20
0.4632127932907748
 30
0.0
 10
21.04024269789762
 20
0.5473104368635142
 30
0.0
 10
21.01851276986034
 20
0.6359233901582781
 30
0.0
 10
21.00468463383665
 20
0.7259473777411798
 30
0.0
  0
SPLINE
  5
1EC
330
1F
100
AcDbEntity
  8
Default
100
AcDbSpline
210
0.0
220
0.0
230
1.0
 70
     8
 71
     3
 72
     8
 73
     4
 74
     0
 42
0.0000000001
 43
0.0000000001
 40
0.0
 40
0.0
 40
0.0
 40
0.0
 40
1.0
 40
1.0
 40
1.0
 40
1.0
 10
21.00468463383665
 20
0.7259473777411798
 30
0.0
 10
20.99113870467055
 20
0.8156891584664485
 30
0.0
 10
20.98549456751804
 20
0.9065597666222265
 30
0.0
 10
20.98549456751804
 20
0.9974303747780092
 30
0.0
  0
LINE
  5
1ED
330
1F
100
AcDbEntity
  8
Default
100
AcDbLine
 10
20.98549456751804
 20
0.9974303747780092
 30
0.0
 11
20.98549456751804
 21
8.399434043467174
 31
0.0
  0
LINE
  5
1EE
330
1F
100
AcDbEntity
  8
Default
100
AcDbLine
 10
20.98549456751804
 20
8.399434043467174
 30
0.0
 11
22.98549456751802
 21
8.399434043467174
 31
0.0
  0
LINE
  5
1EF
330
1F
100
AcDbEntity
  8
Default
100
AcDbLine
 10
39.53534640891782
 20
8.399434043467174
 30
0.0
 11
39.53534640891782
 21
6.180723728806525
 31
0.0
  0
LINE
  5
1F0
330
1F
100
AcDbEntity
  8
Default
100
AcDbLine
 10
39.53534640891782
 20
6.180723728806525
 30
0.0
 11
39.53534640891782
 21
0.9974303747780092
 31
0.0
  0
SPLINE
  5
1F1
330
1F
100
AcDbEntity
  8
Default
100
AcDbSpline
210
0.0
220
0.0
230
1.0
 70
     8
 71
     3
 72
     8
 73
     4
 74
     0
 42
0.0000000001
 43
0.0000000001
 40
0.0
 40
0.0
 40
0.0
 40
0.0
 40
1.0
 40
1.0
 40
1.0
 40
1.0
 10
39.53534640891782
 20
0.9974303747780092
 30
0.0
 10
39.53534640891782
 20
0.9065597666222265
 30
0.0
 10
39.52998447862291
 20
0.8156891584664485
 30
0.0
 10
39.51615634259922
 20
0.7256651708835513
 30
0.0
  0
SPLINE
  5
1F2
330
1F
100
AcDbEntity
  8
Default
100
AcDbSpline
210
0.0
220
0.0
230
1.0
 70
     8
 71
     3
 72
     8
 73
     4
 74
     0
 42
0.0000000001
 43
0.0000000001
 40
0.0
 40
0.0
 40
0.0
 40
0.0
 40
1.0
 40
1.0
 40
1.0
 40
1.0
 10
39.51615634259922
 20
0.7256651708835513
 30
0.0
 10
39.50261041343312
 20
0.6356411833006541
 30
0.0
 10
39.48059827853825
 20
0.5470282300058857
 30
0.0
 10
39.44560462819256
 20
0.4629305864331463
 30
0.0
  0
SPLINE
  5
1F3
330
1F
100
AcDbEntity
  8
Default
100
AcDbSpline
210
0.0
220
0.0
230
1.0
 70
     8
 71
     3
 72
     8
 73
     4
 74
     0
 42
0.0000000001
 43
0.0000000001
 40
0.0
 40
0.0
 40
0.0
 40
0.0
 40
1.0
 40
1.0
 40
1.0
 40
1.0
 10
39.44560462819256
 20
0.4629305864331463
 30
0.0
 10
39.41032877098922
 20
0.3788329428604114
 30
0.0
 10
39.36235360519269
 20
0.299815022724953
 30
0.0
 10
39.2999858896572
 20
0.2340608248979434
 30
0.0
  0
SPLINE
  5
1F4
330
1F
100
AcDbEntity
  8
Default
100
AcDbSpline
210
0.0
220
0.0
230
1.0
 70
     8
 71
     3
 72
     8
 73
     4
 74
     0
 42
0.0000000001
 43
0.0000000001
 40
0.0
 40
0.0
 40
0.0
 40
0.0
 40
1.0
 40
1.0
 40
1.0
 40
1.0
 10
39.2999858896572
 20
0.2340608248979434
 30
0.0
 10
39.23733596726409
 20
0.1685888339285626
 30
0.0
 10
39.16029349513202
 20
0.1163805652676349
 30
0.0
 10
39.07732467898979
 20
0.0796936737761749
 30
0.0
  0
SPLINE
  5
1F5
330
1F
100
AcDbEntity
  8
Default
100
AcDbSpline
210
0.0
220
0.0
230
1.0
 70
     8
 71
     3
 72
     8
 73
     4
 74
     0
 42
0.0000000001
 43
0.0000000001
 40
0.0
 40
0.0
 40
0.0
 40
0.0
 40
1.0
 40
1.0
 40
1.0
 40
1.0
 10
39.07732467898979
 20
0.0796936737761749
 30
0.0
 10
38.99407365598992
 20
0.0432889891423343
 30
0.0
 10
38.90461408212227
 20
0.0221234748203374
 30
0.0
 10
38.81261464653601
 20
0.0108352005152745
 30
0.0
  0
SPLINE
  5
1F6
330
1F
100
AcDbEntity
  8
Default
100
AcDbSpline
210
0.0
220
0.0
230
1.0
 70
     8
 71
     3
 72
     8
 73
     4
 74
     0
 42
0.0000000001
 43
0.0000000001
 40
0.0
 40
0.0
 40
0.0
 40
0.0
 40
1.0
 40
1.0
 40
1.0
 40
1.0
 10
38.81261464653601
 20
0.0108352005152745
 30
0.0
 10
38.7203330040921
 20
-0.000735280647417
 30
0.0
 10
38.62579370678717
 20
-0.0024285217931788
 30
0.0
 10
38.53492309863137
 20
-0.0024285217931788
 30
0.0
  0
SPLINE
  5
1F7
330
1F
100
AcDbEntity
  8
Default
100
AcDbSpline
210
0.0
220
0.0
230
1.0
 70
     8
 71
     3
 72
     8
 73
     4
 74
     0
 42
0.0000000001
 43
0.0000000001
 40
0.0
 40
0.0
 40
0.0
 40
0.0
 40
1.0
 40
1.0
 40
1.0
 40
1.0
 10
38.53492309863137
 20
-0.0024285217931788
 30
0.0
 10
38.44405249047559
 20
-0.0024285217931788
 30
0.0
 10
38.34951319317067
 20
-0.000453073789793
 30
0.0
 10
38.25751375758438
 20
0.0108352005152745
 30
0.0
  0
SPLINE
  5
1F8
330
1F
100
AcDbEntity
  8
Default
100
AcDbSpline
210
0.0
220
0.0
230
1.0
 70
     8
 71
     3
 72
     8
 73
     4
 74
     0
 42
0.0000000001
 43
0.0000000001
 40
0.0
 40
0.0
 40
0.0
 40
0.0
 40
1.0
 40
1.0
 40
1.0
 40
1.0
 10
38.25751375758438
 20
0.0108352005152745
 30
0.0
 10
38.16551432199811
 20
0.0224056816779659
 30
0.0
 10
38.07605474813045
 20
0.0435711959999583
 30
0.0
 10
37.99308593198823
 20
0.0799758806337987
 30
0.0
  0
SPLINE
  5
1F9
330
1F
100
AcDbEntity
  8
Default
100
AcDbSpline
210
0.0
220
0.0
230
1.0
 70
     8
 71
     3
 72
     8
 73
     4
 74
     0
 42
0.0000000001
 43
0.0000000001
 40
0.0
 40
0.0
 40
0.0
 40
0.0
 40
1.0
 40
1.0
 40
1.0
 40
1.0
 10
37.99308593198823
 20
0.0799758806337987
 30
0.0
 10
37.90983490898838
 20
0.1166627721252633
 30
0.0
 10
37.83307464371394
 20
0.1688710407861911
 30
0.0
 10
37.77070692817845
 20
0.234625238613196
 30
0.0
  0
SPLINE
  5
1FA
330
1F
100
AcDbEntity
  8
Default
100
AcDbSpline
210
0.0
220
0.0
230
1.0
 70
     8
 71
     3
 72
     8
 73
     4
 74
     0
 42
0.0000000001
 43
0.0000000001
 40
0.0
 40
0.0
 40
0.0
 40
0.0
 40
1.0
 40
1.0
 40
1.0
 40
1.0
 10
37.77070692817845
 20
0.234625238613196
 30
0.0
 10
37.70833921264295
 20
0.300097229582577
 30
0.0
 10
37.6600818399888
 20
0.3793973565756639
 30
0.0
 10
37.62508818964309
 20
0.4632127932907748
 30
0.0
  0
SPLINE
  5
1FB
330
1F
100
AcDbEntity
  8
Default
100
AcDbSpline
210
0.0
220
0.0
230
1.0
 70
     8
 71
     3
 72
     8
 73
     4
 74
     0
 42
0.0000000001
 43
0.0000000001
 40
0.0
 40
0.0
 40
0.0
 40
0.0
 40
1.0
 40
1.0
 40
1.0
 40
1.0
 10
37.62508818964309
 20
0.4632127932907748
 30
0.0
 10
37.5900945392974
 20
0.5473104368635142
 30
0.0
 10
37.56836461126012
 20
0.6359233901582781
 30
0.0
 10
37.55453647523644
 20
0.7259473777411798
 30
0.0
  0
SPLINE
  5
1FC
330
1F
100
AcDbEntity
  8
Default
100
AcDbSpline
210
0.0
220
0.0
230
1.0
 70
     8
 71
     3
 72
     8
 73
     4
 74
     0
 42
0.0000000001
 43
0.0000000001
 40
0.0
 40
0.0
 40
0.0
 40
0.0
 40
1.0
 40
1.0
 40
1.0
 40
1.0
 10
37.55453647523644
 20
0.7259473777411798
 30
0.0
 10
37.54099054607034
 20
0.8156891584664485
 30
0.0
 10
37.53534640891782
 20
0.9065597666222265
 30
0.0
 10
37.53534640891782
 20
0.9974303747780092
 30
0.0
  0
LINE
  5
1FD
330
1F
100
AcDbEntity
  8
Default
100
AcDbLine
 10
37.53534640891782
 20
0.9974303747780092
 30
0.0
 11
37.53534640891782
 21
8.399434043467174
 31
0.0
  0
LINE
  5
1FE
330
1F
100
AcDbEntity
  8
Default
100
AcDbLine
 10
37.53534640891782
 20
8.399434043467174
 30
0.0
 11
39.53534640891782
 21
8.399434043467174
 31
0.0
  0
LINE
  5
1FF
330
1F
100
AcDbEntity
  8
Default
100
AcDbLine
 10
-37.53545929166086
 20
8.399434043467174
 30
0.0
 11
-37.53545929166086
 21
6.180723728806525
 31
0.0
  0
LINE
  5
200
330
1F
100
AcDbEntity
  8
Default
100
AcDbLine
 10
-37.53545929166086
 20
6.180723728806525
 30
0.0
 11
-37.53545929166086
 21
0.9974303747780092
 31
0.0
  0
SPLINE
  5
201
330
1F
100
AcDbEntity
  8
Default
100
AcDbSpline
210
0.0
220
0.0
230
1.0
 70
     8
 71
     3
 72
     8
 73
     4
 74
     0
 42
0.0000000001
 43
0.0000000001
 40
0.0
 40
0.0
 40
0.0
 40
0.0
 40
1.0
 40
1.0
 40
1.0
 40
1.0
 10
-37.53545929166086
 20
0.9974303747780092
 30
0.0
 10
-37.53545929166086
 20
0.9065597666222265
 30
0.0
 10
-37.54082122195577
 20
0.8156891584664485
 30
0.0
 10
-37.55464935797947
 20
0.7256651708835513
 30
0.0
  0
SPLINE
  5
202
330
1F
100
AcDbEntity
  8
Default
100
AcDbSpline
210
0.0
220
0.0
230
1.0
 70
     8
 71
     3
 72
     8
 73
     4
 74
     0
 42
0.0000000001
 43
0.0000000001
 40
0.0
 40
0.0
 40
0.0
 40
0.0
 40
1.0
 40
1.0
 40
1.0
 40
1.0
 10
-37.55464935797947
 20
0.7256651708835513
 30
0.0
 10
-37.56819528714556
 20
0.6356411833006541
 30
0.0
 10
-37.59020742204043
 20
0.5470282300058857
 30
0.0
 10
-37.62520107238613
 20
0.4629305864331463
 30
0.0
  0
SPLINE
  5
203
330
1F
100
AcDbEntity
  8
Default
100
AcDbSpline
210
0.0
220
0.0
230
1.0
 70
     8
 71
     3
 72
     8
 73
     4
 74
     0
 42
0.0000000001
 43
0.0000000001
 40
0.0
 40
0.0
 40
0.0
 40
0.0
 40
1.0
 40
1.0
 40
1.0
 40
1.0
 10
-37.62520107238613
 20
0.4629305864331463
 30
0.0
 10
-37.66047692958946
 20
0.3788329428604114
 30
0.0
 10
-37.70845209538599
 20
0.299815022724953
 30
0.0
 10
-37.77081981092148
 20
0.2340608248979434
 30
0.0
  0
SPLINE
  5
204
330
1F
100
AcDbEntity
  8
Default
100
AcDbSpline
210
0.0
220
0.0
230
1.0
 70
     8
 71
     3
 72
     8
 73
     4
 74
     0
 42
0.0000000001
 43
0.0000000001
 40
0.0
 40
0.0
 40
0.0
 40
0.0
 40
1.0
 40
1.0
 40
1.0
 40
1.0
 10
-37.77081981092148
 20
0.2340608248979434
 30
0.0
 10
-37.8334697333146
 20
0.1685888339285626
 30
0.0
 10
-37.91051220544666
 20
0.1163805652676349
 30
0.0
 10
-37.9934810215889
 20
0.0796936737761749
 30
0.0
  0
SPLINE
  5
205
330
1F
100
AcDbEntity
  8
Default
100
AcDbSpline
210
0.0
220
0.0
230
1.0
 70
     8
 71
     3
 72
     8
 73
     4
 74
     0
 42
0.0000000001
 43
0.0000000001
 40
0.0
 40
0.0
 40
0.0
 40
0.0
 40
1.0
 40
1.0
 40
1.0
 40
1.0
 10
-37.9934810215889
 20
0.0796936737761749
 30
0.0
 10
-38.07673204458876
 20
0.0432889891423343
 30
0.0
 10
-38.16619161845641
 20
0.0221234748203374
 30
0.0
 10
-38.25819105404269
 20
0.0108352005152745
 30
0.0
  0
SPLINE
  5
206
330
1F
100
AcDbEntity
  8
Default
100
AcDbSpline
210
0.0
220
0.0
230
1.0
 70
     8
 71
     3
 72
     8
 73
     4
 74
     0
 42
0.0000000001
 43
0.0000000001
 40
0.0
 40
0.0
 40
0.0
 40
0.0
 40
1.0
 40
1.0
 40
1.0
 40
1.0
 10
-38.25819105404269
 20
0.0108352005152745
 30
0.0
 10
-38.35019048962897
 20
-0.000735280647417
 30
0.0
 10
-38.44501199379152
 20
-0.0024285217931788
 30
0.0
 10
-38.5358826019473
 20
-0.0024285217931788
 30
0.0
  0
SPLINE
  5
207
330
1F
100
AcDbEntity
  8
Default
100
AcDbSpline
210
0.0
220
0.0
230
1.0
 70
     8
 71
     3
 72
     8
 73
     4
 74
     0
 42
0.0000000001
 43
0.0000000001
 40
0.0
 40
0.0
 40
0.0
 40
0.0
 40
1.0
 40
1.0
 40
1.0
 40
1.0
 10
-38.5358826019473
 20
-0.0024285217931788
 30
0.0
 10
-38.62675321010308
 20
-0.0024285217931788
 30
0.0
 10
-38.72129250740801
 20
-0.000453073789793
 30
0.0
 10
-38.81329194299429
 20
0.0108352005152745
 30
0.0
  0
SPLINE
  5
208
330
1F
100
AcDbEntity
  8
Default
100
AcDbSpline
210
0.0
220
0.0
230
1.0
 70
     8
 71
     3
 72
     8
 73
     4
 74
     0
 42
0.0000000001
 43
0.0000000001
 40
0.0
 40
0.0
 40
0.0
 40
0.0
 40
1.0
 40
1.0
 40
1.0
 40
1.0
 10
-38.81329194299429
 20
0.0108352005152745
 30
0.0
 10
-38.90529137858058
 20
0.0224056816779659
 30
0.0
 10
-38.99475095244822
 20
0.0435711959999583
 30
0.0
 10
-39.07771976859046
 20
0.0799758806337987
 30
0.0
  0
SPLINE
  5
209
330
1F
100
AcDbEntity
  8
Default
100
AcDbSpline
210
0.0
220
0.0
230
1.0
 70
     8
 71
     3
 72
     8
 73
     4
 74
     0
 42
0.0000000001
 43
0.0000000001
 40
0.0
 40
0.0
 40
0.0
 40
0.0
 40
1.0
 40
1.0
 40
1.0
 40
1.0
 10
-39.07771976859046
 20
0.0799758806337987
 30
0.0
 10
-39.16097079159031
 20
0.1166627721252633
 30
0.0
 10
-39.23773105686476
 20
0.1688710407861911
 30
0.0
 10
-39.30009877240025
 20
0.234625238613196
 30
0.0
  0
SPLINE
  5
20A
330
1F
100
AcDbEntity
  8
Default
100
AcDbSpline
210
0.0
220
0.0
230
1.0
 70
     8
 71
     3
 72
     8
 73
     4
 74
     0
 42
0.0000000001
 43
0.0000000001
 40
0.0
 40
0.0
 40
0.0
 40
0.0
 40
1.0
 40
1.0
 40
1.0
 40
1.0
 10
-39.30009877240025
 20
0.234625238613196
 30
0.0
 10
-39.36274869479336
 20
0.300097229582577
 30
0.0
 10
-39.41072386058989
 20
0.3793973565756639
 30
0.0
 10
-39.44571751093559
 20
0.4632127932907748
 30
0.0
  0
SPLINE
  5
20B
330
1F
100
AcDbEntity
  8
Default
100
AcDbSpline
210
0.0
220
0.0
230
1.0
 70
     8
 71
     3
 72
     8
 73
     4
 74
     0
 42
0.0000000001
 43
0.0000000001
 40
0.0
 40
0.0
 40
0.0
 40
0.0
 40
1.0
 40
1.0
 40
1.0
 40
1.0
 10
-39.44571751093559
 20
0.4632127932907748
 30
0.0
 10
-39.4807111612813
 20
0.5473104368635142
 30
0.0
 10
-39.50244108931855
 20
0.6359233901582781
 30
0.0
 10
-39.51626922534225
 20
0.7259473777411798
 30
0.0
  0
SPLINE
  5
20C
330
1F
100
AcDbEntity
  8
Default
100
AcDbSpline
210
0.0
220
0.0
230
1.0
 70
     8
 71
     3
 72
     8
 73
     4
 74
     0
 42
0.0000000001
 43
0.0000000001
 40
0.0
 40
0.0
 40
0.0
 40
0.0
 40
1.0
 40
1.0
 40
1.0
 40
1.0
 10
-39.51626922534225
 20
0.7259473777411798
 30
0.0
 10
-39.52981515450833
 20
0.8156891584664485
 30
0.0
 10
-39.53545929166086
 20
0.9065597666222265
 30
0.0
 10
-39.53545929166086
 20
0.9974303747780092
 30
0.0
  0
LINE
  5
20D
330
1F
100
AcDbEntity
  8
Default
100
AcDbLine
 10
-39.53545929166086
 20
0.9974303747780092
 30
0.0
 11
-39.53545929166086
 21
8.399434043467174
 31
0.0
  0
LINE
  5
20E
330
1F
100
AcDbEntity
  8
Default
100
AcDbLine
 10
-39.53545929166086
 20
8.399434043467174
 30
0.0
 11
-37.53545929166086
 21
8.399434043467174
 31
0.0
  0
ENDSEC
  0
SECTION
  2
OBJECTS
  0
DICTIONARY
  5
C
330
0
100
AcDbDictionary
281
     1
  3
ACAD_GROUP
350
D
  3
ACAD_LAYOUT
350
1A
  3
ACAD_MLEADERSTYLE
350
210
  3
ACAD_MLINESTYLE
350
17
  3
ACAD_PLOTSETTINGS
350
19
  3
ACAD_PLOTSTYLENAME
350
E
  3
ACAD_TABLESTYLE
350
20F
  3
ACAD_VISUALSTYLE
350
2A
  0
DICTIONARY
  5
D
102
{ACAD_REACTORS
330
C
102
}
330
C
100
AcDbDictionary
281
     1
  0
DICTIONARY
  5
1A
102
{ACAD_REACTORS
330
C
102
}
330
C
100
AcDbDictionary
281
     1
  3
Layout1
350
1E
  3
Layout2
350
26
  3
Model
350
22
  0
DICTIONARY
  5
210
102
{ACAD_REACTORS
330
C
102
}
330
C
100
AcDbDictionary
281
     1
  0
DICTIONARY
  5
17
102
{ACAD_REACTORS
330
C
102
}
330
C
100
AcDbDictionary
281
     1
  3
Standard
350
18
  0
DICTIONARY
  5
19
102
{ACAD_REACTORS
330
C
102
}
330
C
100
AcDbDictionary
281
     1
  0
ACDBDICTIONARYWDFLT
  5
E
102
{ACAD_REACTORS
330
C
102
}
330
C
100
AcDbDictionary
281
     1
  3
Normal
350
F
100
AcDbDictionaryWithDefault
340
F
  0
DICTIONARY
  5
20F
102
{ACAD_REACTORS
330
C
102
}
330
C
100
AcDbDictionary
281
     1
  0
DICTIONARY
  5
2A
102
{ACAD_REACTORS
330
C
102
}
330
C
100
AcDbDictionary
281
     1
  3
2dWireframe
350
2F
  3
3D Hidden
350
31
  3
3dWireframe
350
30
  3
Basic
350
32
  3
Brighten
350
36
  3
ColorChange
350
3A
  3
Conceptual
350
34
  3
Dim
350
35
  3
Facepattern
350
39
  3
Flat
350
2B
  3
FlatWithEdges
350
2C
  3
Gouraud
350
2D
  3
GouraudWithEdges
350
2E
  3
Linepattern
350
38
  3
Realistic
350
33
  3
Thicken
350
37
  0
LAYOUT
  5
1E
102
{ACAD_REACTORS
330
1A
102
}
330
1A
100
AcDbPlotSettings
  1

  2
none_device
  4

  6

 40
0.0
 41
0.0
 42
0.0
 43
0.0
 44
0.0
 45
0.0
 46
0.0
 47
0.0
 48
0.0
 49
0.0
140
0.0
141
0.0
142
1.0
143
1.0
 70
   688
 72
     0
 73
     0
 74
     5
  7

 75
    16
 76
     0
 77
     2
 78
   300
147
1.0
148
0.0
149
0.0
100
AcDbLayout
  1
Layout1
 70
     1
 71
     1
 10
0.0
 20
0.0
 11
12.0
 21
9.0
 12
0.0
 22
0.0
 32
0.0
 14
1.000000000000000E+20
 24
1.000000000000000E+20
 34
1.000000000000000E+20
 15
-1.000000000000000E+20
 25
-1.000000000000000E+20
 35
-1.000000000000000E+20
146
0.0
 13
0.0
 23
0.0
 33
0.0
 16
1.0
 26
0.0
 36
0.0
 17
0.0
 27
1.0
 37
0.0
 76
     0
330
1B
  0
LAYOUT
  5
26
102
{ACAD_REACTORS
330
1A
102
}
330
1A
100
AcDbPlotSettings
  1

  2
none_device
  4

  6

 40
0.0
 41
0.0
 42
0.0
 43
0.0
 44
0.0
 45
0.0
 46
0.0
 47
0.0
 48
0.0
 49
0.0
140
0.0
141
0.0
142
1.0
143
1.0
 70
   688
 72
     0
 73
     0
 74
     5
  7

 75
    16
 76
     0
 77
     2
 78
   300
147
1.0
148
0.0
149
0.0
100
AcDbLayout
  1
Layout2
 70
     1
 71
     2
 10
0.0
 20
0.0
 11
0.0
 21
0.0
 12
0.0
 22
0.0
 32
0.0
 14
0.0
 24
0.0
 34
0.0
 15
0.0
 25
0.0
 35
0.0
146
0.0
 13
0.0
 23
0.0
 33
0.0
 16
1.0
 26
0.0
 36
0.0
 17
0.0
 27
1.0
 37
0.0
 76
     0
330
23
  0
LAYOUT
  5
22
102
{ACAD_REACTORS
330
1A
102
}
330
1A
100
AcDbPlotSettings
  1

  2
none_device
  4

  6

 40
0.0
 41
0.0
 42
0.0
 43
0.0
 44
0.0
 45
0.0
 46
0.0
 47
0.0
 48
0.0
 49
0.0
140
0.0
141
0.0
142
1.0
143
1.0
 70
  1712
 72
     0
 73
     0
 74
     0
  7

 75
     0
 76
     0
 77
     2
 78
   300
147
1.0
148
0.0
149
0.0
100
AcDbLayout
  1
Model
 70
     1
 71
     0
 10
0.0
 20
0.0
 11
12.0
 21
9.0
 12
0.0
 22
0.0
 32
0.0
 14
-41.41044165373226
 24
-0.0024285217931788
 34
0.0
 15
106.7016853210408
 25
105.5458994025756
 35
0.0
146
0.0
 13
0.0
 23
0.0
 33
0.0
 16
1.0
 26
0.0
 36
0.0
 17
0.0
 27
1.0
 37
0.0
 76
     0
330
1F
331
29
  0
MLINESTYLE
  5
18
102
{ACAD_REACTORS
330
17
102
}
330
17
100
AcDbMlineStyle
  2
Standard
 70
     0
  3

 62
   256
 51
90.0
 52
90.0
 71
     2
 49
0.5
 62
   256
  6
BYLAYER
 49
-0.5
 62
   256
  6
BYLAYER
  0
ACDBPLACEHOLDER
  5
F
102
{ACAD_REACTORS
330
E
102
}
330
E
  0
VISUALSTYLE
  5
2F
102
{ACAD_REACTORS
330
2A
102
}
330
2A
100
AcDbVisualStyle
  2
2dWireframe
 70
     4
 71
     0
 72
     2
 73
     0
 90
        0
 40
-0.6
 41
-30.0
 62
     5
 63
     7
421
 16777215
 74
     1
 91
        4
 64
     7
 65
   257
 75
     1
175
     1
 42
1.0
 92
        0
 66
   257
 43
1.0
 76
     1
 77
     6
 78
     2
 67
     7
 79
     5
170
     0
171
     0
290
     0
174
     0
 93
        1
 44
0.0
173
     0
291
     0
 45
0.0
1001
ACAD
1000
AcDbSavedByObjectVersion
1070
     0
  0
VISUALSTYLE
  5
31
102
{ACAD_REACTORS
330
2A
102
}
330
2A
100
AcDbVisualStyle
  2
3D Hidden
 70
     6
 71
     1
 72
     2
 73
     2
 90
        0
 40
-0.6
 41
-30.0
 62
     5
 63
     7
421
 16777215
 74
     2
 91
        2
 64
     7
 65
   257
 75
     2
175
     1
 42
40.0
 92
        0
 66
   257
 43
1.0
 76
     1
 77
     6
 78
     2
 67
     7
 79
     3
170
     0
171
     0
290
     0
174
     0
 93
        1
 44
0.0
173
     0
291
     0
 45
0.0
1001
ACAD
1000
AcDbSavedByObjectVersion
1070
     0
  0
VISUALSTYLE
  5
30
102
{ACAD_REACTORS
330
2A
102
}
330
2A
100
AcDbVisualStyle
  2
3dWireframe
 70
     5
 71
     0
 72
     2
 73
     0
 90
        0
 40
-0.6
 41
-30.0
 62
     5
 63
     7
421
 16777215
 74
     1
 91
        4
 64
     7
 65
   257
 75
     1
175
     1
 42
1.0
 92
        0
 66
   257
 43
1.0
 76
     1
 77
     6
 78
     2
 67
     7
 79
     5
170
     0
171
     0
290
     0
174
     0
 93
        1
 44
0.0
173
     0
291
     0
 45
0.0
1001
ACAD
1000
AcDbSavedByObjectVersion
1070
     0
  0
VISUALSTYLE
  5
32
102
{ACAD_REACTORS
330
2A
102
}
330
2A
100
AcDbVisualStyle
  2
Basic
 70
     7
 71
     1
 72
     0
 73
     1
 90
        0
 40
-0.6
 41
-30.0
 62
     5
 63
     7
421
 16777215
 74
     0
 91
        4
 64
     7
 65
   257
 75
     1
175
     1
 42
1.0
 92
        8
 66
     7
 43
1.0
 76
     1
 77
     6
 78
     2
 67
     7
 79
     5
170
     0
171
     0
290
     0
174
     0
 93
        1
 44
0.0
173
     0
291
     1
 45
0.0
1001
ACAD
1000
AcDbSavedByObjectVersion
1070
     0
  0
VISUALSTYLE
  5
36
102
{ACAD_REACTORS
330
2A
102
}
330
2A
100
AcDbVisualStyle
  2
Brighten
 70
    12
 71
     2
 72
     2
 73
     0
 90
        0
 40
-0.6
 41
-30.0
 62
     5
 63
     7
421
 16777215
 74
     1
 91
        4
 64
     7
 65
   257
 75
     1
175
     1
 42
1.0
 92
        8
 66
     7
 43
1.0
 76
     1
 77
     6
 78
     2
 67
     7
 79
     5
170
     0
171
     0
290
     0
174
     0
 93
        1
 44
50.0
173
     0
291
     1
 45
0.0
1001
ACAD
1000
AcDbSavedByObjectVersion
1070
     0
  0
VISUALSTYLE
  5
3A
102
{ACAD_REACTORS
330
2A
102
}
330
2A
100
AcDbVisualStyle
  2
ColorChange
 70
    16
 71
     2
 72
     2
 73
     3
 90
        0
 40
-0.6
 41
-30.0
 62
     5
 63
     8
421
  8421504
 74
     1
 91
        4
 64
     7
 65
   257
 75
     1
175
     1
 42
1.0
 92
        8
 66
     8
424
  8421504
 43
1.0
 76
     1
 77
     6
 78
     2
 67
     7
 79
     5
170
     0
171
     0
290
     0
174
     0
 93
        1
 44
0.0
173
     0
291
     1
 45
0.0
1001
ACAD
1000
AcDbSavedByObjectVersion
1070
     0
  0
VISUALSTYLE
  5
34
102
{ACAD_REACTORS
330
2A
102
}
330
2A
100
AcDbVisualStyle
  2
Conceptual
 70
     9
 71
     3
 72
     2
 73
     0
 90
        0
 40
-0.6
 41
-30.0
 62
     5
 63
     7
421
 16777215
 74
     2
 91
        2
 64
     7
 65
   257
 75
     1
175
     1
 42
40.0
 92
        8
 66
     7
 43
1.0
 76
     1
 77
     6
 78
     2
 67
     7
 79
     3
170
     0
171
     0
290
     0
174
     0
 93
        1
 44
0.0
173
     0
291
     0
 45
0.0
1001
ACAD
1000
AcDbSavedByObjectVersion
1070
     0
  0
VISUALSTYLE
  5
35
102
{ACAD_REACTORS
330
2A
102
}
330
2A
100
AcDbVisualStyle
  2
Dim
 70
    11
 71
     2
 72
     2
 73
     0
 90
        0
 40
-0.6
 41
-30.0
 62
     5
 63
     7
421
 16777215
 74
     1
 91
        4
 64
     7
 65
   257
 75
     1
175
     1
 42
1.0
 92
        8
 66
     7
 43
1.0
 76
     1
 77
     6
 78
     2
 67
     7
 79
     5
170
     0
171
     0
290
     0
174
     0
 93
        1
 44
-50.0
173
     0
291
     1
 45
0.0
1001
ACAD
1000
AcDbSavedByObjectVersion
1070
     0
  0
VISUALSTYLE
  5
39
102
{ACAD_REACTORS
330
2A
102
}
330
2A
100
AcDbVisualStyle
  2
Facepattern
 70
    15
 71
     2
 72
     2
 73
     0
 90
        0
 40
-0.6
 41
-30.0
 62
     5
 63
     7
421
 16777215
 74
     1
 91
        4
 64
     7
 65
   257
 75
     1
175
     1
 42
1.0
 92
        8
 66
     7
 43
1.0
 76
     1
 77
     6
 78
     2
 67
     7
 79
     5
170
     0
171
     0
290
     0
174
     0
 93
        1
 44
0.0
173
     0
291
     1
 45
0.0
1001
ACAD
1000
AcDbSavedByObjectVersion
1070
     0
  0
VISUALSTYLE
  5
2B
102
{ACAD_REACTORS
330
2A
102
}
330
2A
100
AcDbVisualStyle
  2
Flat
 70
     0
 71
     2
 72
     1
 73
     1
 90
        2
 40
-0.6
 41
30.0
 62
     5
 63
     7
421
 16777215
 74
     0
 91
        4
 64
     7
 65
   257
 75
     1
175
     1
 42
1.0
 92
        8
 66
     7
 43
1.0
 76
     1
 77
     6
 78
     2
 67
     7
 79
     5
170
     0
171
     0
290
     0
174
     0
 93
       13
 44
0.0
173
     0
291
     1
 45
0.0
1001
ACAD
1000
AcDbSavedByObjectVersion
1070
     0
  0
VISUALSTYLE
  5
2C
102
{ACAD_REACTORS
330
2A
102
}
330
2A
100
AcDbVisualStyle
  2
FlatWithEdges
 70
     1
 71
     2
 72
     1
 73
     1
 90
        2
 40
-0.6
 41
30.0
 62
     5
 63
     7
421
 16777215
 74
     1
 91
        4
 64
     7
 65
   257
 75
     1
175
     1
 42
1.0
 92
        0
 66
   257
 43
1.0
 76
     1
 77
     6
 78
     2
 67
     7
 79
     5
170
     0
171
     0
290
     0
174
     0
 93
       13
 44
0.0
173
     0
291
     1
 45
0.0
1001
ACAD
1000
AcDbSavedByObjectVersion
1070
     0
  0
VISUALSTYLE
  5
2D
102
{ACAD_REACTORS
330
2A
102
}
330
2A
100
AcDbVisualStyle
  2
Gouraud
 70
     2
 71
     2
 72
     2
 73
     1
 90
        2
 40
-0.6
 41
30.0
 62
     5
 63
     7
421
 16777215
 74
     0
 91
        4
 64
     7
 65
   257
 75
     1
175
     1
 42
1.0
 92
        0
 66
     7
 43
1.0
 76
     1
 77
     6
 78
     2
 67
     7
 79
     5
170
     0
171
     0
290
     0
174
     0
 93
       13
 44
0.0
173
     0
291
     1
 45
0.0
1001
ACAD
1000
AcDbSavedByObjectVersion
1070
     0
  0
VISUALSTYLE
  5
2E
102
{ACAD_REACTORS
330
2A
102
}
330
2A
100
AcDbVisualStyle
  2
GouraudWithEdges
 70
     3
 71
     2
 72
     2
 73
     1
 90
        2
 40
-0.6
 41
30.0
 62
     5
 63
     7
421
 16777215
 74
     1
 91
        4
 64
     7
 65
   257
 75
     1
175
     1
 42
1.0
 92
        0
 66
   257
 43
1.0
 76
     1
 77
     6
 78
     2
 67
     7
 79
     5
170
     0
171
     0
290
     0
174
     0
 93
       13
 44
0.0
173
     0
291
     1
 45
0.0
1001
ACAD
1000
AcDbSavedByObjectVersion
1070
     0
  0
VISUALSTYLE
  5
38
102
{ACAD_REACTORS
330
2A
102
}
330
2A
100
AcDbVisualStyle
  2
Linepattern
 70
    14
 71
     2
 72
     2
 73
     0
 90
        0
 40
-0.6
 41
-30.0
 62
     5
 63
     7
421
 16777215
 74
     1
 91
        4
 64
     7
 65
   257
 75
     7
175
     7
 42
1.0
 92
        8
 66
     7
 43
1.0
 76
     1
 77
     6
 78
     2
 67
     7
 79
     5
170
     0
171
     0
290
     0
174
     0
 93
        1
 44
0.0
173
     0
291
     1
 45
0.0
1001
ACAD
1000
AcDbSavedByObjectVersion
1070
     0
  0
VISUALSTYLE
  5
33
102
{ACAD_REACTORS
330
2A
102
}
330
2A
100
AcDbVisualStyle
  2
Realistic
 70
     8
 71
     2
 72
     2
 73
     0
 90
        0
 40
-0.6
 41
-30.0
 62
     5
 63
     7
421
 16777215
 74
     1
 91
        0
 64
     7
 65
   257
 75
     1
175
     1
 42
1.0
 92
        8
 66
     8
424
  7895160
 43
1.0
 76
     1
 77
     6
 78
     2
 67
     7
 79
     5
170
     0
171
     0
290
     0
174
     0
 93
       13
 44
0.0
173
     0
291
     0
 45
0.0
1001
ACAD
1000
AcDbSavedByObjectVersion
1070
     0
  0
VISUALSTYLE
  5
37
102
{ACAD_REACTORS
330
2A
102
}
330
2A
100
AcDbVisualStyle
  2
Thicken
 70
    13
 71
     2
 72
     2
 73
     0
 90
        0
 40
-0.6
 41
-30.0
 62
     5
 63
     7
421
 16777215
 74
     1
 91
        4
 64
     7
 65
   257
 75
     1
175
     1
 42
1.0
 92
       12
 66
     7
 43
1.0
 76
     1
 77
     6
 78
     2
 67
     7
 79
     5
170
     0
171
     0
290
     0
174
     0
 93
        1
 44
0.0
173
     0
291
     1
 45
0.0
1001
ACAD
1000
AcDbSavedByObjectVersion
1070
     0
  0
ENDSEC
  0
EOF
