  0
SECTION
  2
HEADER
  9
$ACADVER
  1
AC1018
  9
$ACADMAINTVER
 70
     0
  9
$DWGCODEPAGE
  3
ANSI_1252
  9
$INSBASE
 10
0.0
 20
0.0
 30
0.0
  9
$EXTMIN
 10
-44.62500688856674
 20
-31.87502701637498
 30
0.0
  9
$EXTMAX
 10
44.62500691402203
 20
31.87502699091855
 30
0.0
  9
$LIMMIN
 10
0.0
 20
0.0
  9
$LIMMAX
 10
12.0
 20
9.0
  9
$ORTHOMODE
 70
     0
  9
$REGENMODE
 70
     1
  9
$FILLMODE
 70
     1
  9
$QTEXTMODE
 70
     0
  9
$MIRRTEXT
 70
     1
  9
$LTSCALE
 40
0.0393700787401575
  9
$ATTMODE
 70
     1
  9
$TEXTSIZE
 40
0.2
  9
$TRACEWID
 40
0.05
  9
$TEXTSTYLE
  7
Standard
  9
$CLAYER
  8
SEATS
  9
$CELTYPE
  6
ByLayer
  9
$CECOLOR
 62
   256
  9
$CELTSCALE
 40
1.0
  9
$DISPSILH
 70
     0
  9
$DIMSCALE
 40
1.0
  9
$DIMASZ
 40
0.18
  9
$DIMEXO
 40
0.0625
  9
$DIMDLI
 40
0.38
  9
$DIMRND
 40
0.0
  9
$DIMDLE
 40
0.0
  9
$DIMEXE
 40
0.18
  9
$DIMTP
 40
0.0
  9
$DIMTM
 40
0.0
  9
$DIMTXT
 40
0.18
  9
$DIMCEN
 40
0.09
  9
$DIMTSZ
 40
0.0
  9
$DIMTOL
 70
     0
  9
$DIMLIM
 70
     0
  9
$DIMTIH
 70
     1
  9
$DIMTOH
 70
     1
  9
$DIMSE1
 70
     0
  9
$DIMSE2
 70
     0
  9
$DIMTAD
 70
     0
  9
$DIMZIN
 70
     0
  9
$DIMBLK
  1

  9
$DIMASO
 70
     1
  9
$DIMSHO
 70
     1
  9
$DIMPOST
  1

  9
$DIMAPOST
  1

  9
$DIMALT
 70
     0
  9
$DIMALTD
 70
     2
  9
$DIMALTF
 40
25.4
  9
$DIMLFAC
 40
1.0
  9
$DIMTOFL
 70
     0
  9
$DIMTVP
 40
0.0
  9
$DIMTIX
 70
     0
  9
$DIMSOXD
 70
     0
  9
$DIMSAH
 70
     0
  9
$DIMBLK1
  1

  9
$DIMBLK2
  1

  9
$DIMSTYLE
  2
Standard
  9
$DIMCLRD
 70
     0
  9
$DIMCLRE
 70
     0
  9
$DIMCLRT
 70
     0
  9
$DIMTFAC
 40
1.0
  9
$DIMGAP
 40
0.09
  9
$DIMJUST
 70
     0
  9
$DIMSD1
 70
     0
  9
$DIMSD2
 70
     0
  9
$DIMTOLJ
 70
     1
  9
$DIMTZIN
 70
     0
  9
$DIMALTZ
 70
     0
  9
$DIMALTTZ
 70
     0
  9
$DIMUPT
 70
     0
  9
$DIMDEC
 70
     4
  9
$DIMTDEC
 70
     4
  9
$DIMALTU
 70
     2
  9
$DIMALTTD
 70
     2
  9
$DIMTXSTY
  7
Standard
  9
$DIMAUNIT
 70
     0
  9
$DIMADEC
 70
     0
  9
$DIMALTRND
 40
0.0
  9
$DIMAZIN
 70
     0
  9
$DIMDSEP
 70
    46
  9
$DIMATFIT
 70
     3
  9
$DIMFRAC
 70
     0
  9
$DIMLDRBLK
  1

  9
$DIMLUNIT
 70
     2
  9
$DIMLWD
 70
    -2
  9
$DIMLWE
 70
    -2
  9
$DIMTMOVE
 70
     2
  9
$LUNITS
 70
     2
  9
$LUPREC
 70
     3
  9
$SKETCHINC
 40
0.1
  9
$FILLETRAD
 40
0.5
  9
$AUNITS
 70
     0
  9
$AUPREC
 70
     0
  9
$MENU
  1
.
  9
$ELEVATION
 40
0.0
  9
$PELEVATION
 40
0.0
  9
$THICKNESS
 40
0.0
  9
$LIMCHECK
 70
     0
  9
$CHAMFERA
 40
0.5
  9
$CHAMFERB
 40
0.5
  9
$CHAMFERC
 40
1.0
  9
$CHAMFERD
 40
0.0
  9
$SKPOLY
 70
     0
  9
$TDCREATE
 40
2457539.943799433
  9
$TDUCREATE
 40
2457540.110466099
  9
$TDUPDATE
 40
2457539.943799444
  9
$TDUUPDATE
 40
2457540.110466111
  9
$TDINDWG
 40
0.0000000116
  9
$TDUSRTIMER
 40
0.0000000116
  9
$USRTIMER
 70
     1
  9
$ANGBASE
 50
0.0
  9
$ANGDIR
 70
     0
  9
$PDMODE
 70
     0
  9
$PDSIZE
 40
0.0
  9
$PLINEWID
 40
0.0
  9
$SPLFRAME
 70
     0
  9
$SPLINETYPE
 70
     6
  9
$SPLINESEGS
 70
     8
  9
$HANDSEED
  5
B6
  9
$SURFTAB1
 70
     6
  9
$SURFTAB2
 70
     6
  9
$SURFTYPE
 70
     6
  9
$SURFU
 70
     6
  9
$SURFV
 70
     6
  9
$UCSBASE
  2

  9
$UCSNAME
  2

  9
$UCSORG
 10
0.0
 20
0.0
 30
0.0
  9
$UCSXDIR
 10
1.0
 20
0.0
 30
0.0
  9
$UCSYDIR
 10
0.0
 20
1.0
 30
0.0
  9
$UCSORTHOREF
  2

  9
$UCSORTHOVIEW
 70
     0
  9
$UCSORGTOP
 10
0.0
 20
0.0
 30
0.0
  9
$UCSORGBOTTOM
 10
0.0
 20
0.0
 30
0.0
  9
$UCSORGLEFT
 10
0.0
 20
0.0
 30
0.0
  9
$UCSORGRIGHT
 10
0.0
 20
0.0
 30
0.0
  9
$UCSORGFRONT
 10
0.0
 20
0.0
 30
0.0
  9
$UCSORGBACK
 10
0.0
 20
0.0
 30
0.0
  9
$PUCSBASE
  2

  9
$PUCSNAME
  2

  9
$PUCSORG
 10
0.0
 20
0.0
 30
0.0
  9
$PUCSXDIR
 10
1.0
 20
0.0
 30
0.0
  9
$PUCSYDIR
 10
0.0
 20
1.0
 30
0.0
  9
$PUCSORTHOREF
  2

  9
$PUCSORTHOVIEW
 70
     0
  9
$PUCSORGTOP
 10
0.0
 20
0.0
 30
0.0
  9
$PUCSORGBOTTOM
 10
0.0
 20
0.0
 30
0.0
  9
$PUCSORGLEFT
 10
0.0
 20
0.0
 30
0.0
  9
$PUCSORGRIGHT
 10
0.0
 20
0.0
 30
0.0
  9
$PUCSORGFRONT
 10
0.0
 20
0.0
 30
0.0
  9
$PUCSORGBACK
 10
0.0
 20
0.0
 30
0.0
  9
$USERI1
 70
     0
  9
$USERI2
 70
     0
  9
$USERI3
 70
     0
  9
$USERI4
 70
     0
  9
$USERI5
 70
     0
  9
$USERR1
 40
0.0
  9
$USERR2
 40
0.0
  9
$USERR3
 40
0.0
  9
$USERR4
 40
0.0
  9
$USERR5
 40
0.0
  9
$WORLDVIEW
 70
     1
  9
$SHADEDGE
 70
     3
  9
$SHADEDIF
 70
    70
  9
$TILEMODE
 70
     1
  9
$MAXACTVP
 70
    64
  9
$PINSBASE
 10
0.0
 20
0.0
 30
0.0
  9
$PLIMCHECK
 70
     0
  9
$PEXTMIN
 10
1.000000000000000E+20
 20
1.000000000000000E+20
 30
1.000000000000000E+20
  9
$PEXTMAX
 10
-1.000000000000000E+20
 20
-1.000000000000000E+20
 30
-1.000000000000000E+20
  9
$PLIMMIN
 10
0.0
 20
0.0
  9
$PLIMMAX
 10
12.0
 20
9.0
  9
$UNITMODE
 70
     0
  9
$VISRETAIN
 70
     1
  9
$PLINEGEN
 70
     0
  9
$PSLTSCALE
 70
     1
  9
$TREEDEPTH
 70
  3020
  9
$CMLSTYLE
  2
Standard
  9
$CMLJUST
 70
     0
  9
$CMLSCALE
 40
1.0
  9
$PROXYGRAPHICS
 70
     1
  9
$MEASUREMENT
 70
     0
  9
$CELWEIGHT
370
    -1
  9
$ENDCAPS
280
     0
  9
$JOINSTYLE
280
     0
  9
$LWDISPLAY
290
     0
  9
$INSUNITS
 70
     1
  9
$HYPERLINKBASE
  1

  9
$STYLESHEET
  1

  9
$XEDIT
290
     1
  9
$CEPSNTYPE
380
     0
  9
$PSTYLEMODE
290
     1
  9
$FINGERPRINTGUID
  2
{1640D6CE-75AA-4734-ADEA-8D7C1A8BE552}
  9
$VERSIONGUID
  2
{FAEB1C32-E019-11D5-929B-00C0DF256EC4}
  9
$EXTNAMES
290
     1
  9
$PSVPSCALE
 40
0.0
  9
$OLESTARTUP
290
     0
  9
$SORTENTS
280
   127
  9
$INDEXCTL
280
     0
  9
$HIDETEXT
280
     1
  9
$XCLIPFRAME
290
     0
  9
$HALOGAP
280
     0
  9
$OBSCOLOR
 70
   257
  9
$OBSLTYPE
280
     0
  9
$INTERSECTIONDISPLAY
280
     0
  9
$INTERSECTIONCOLOR
 70
   257
  9
$DIMASSOC
280
     2
  9
$PROJECTNAME
  1

  0
ENDSEC
  0
SECTION
  2
CLASSES
  0
CLASS
  1
ACDBDICTIONARYWDFLT
  2
AcDbDictionaryWithDefault
  3
ObjectDBX Classes
 90
        0
 91
        4
280
     0
281
     0
  0
CLASS
  1
VISUALSTYLE
  2
AcDbVisualStyle
  3
ObjectDBX Classes
 90
     4095
 91
        4
280
     0
281
     0
  0
ENDSEC
  0
SECTION
  2
TABLES
  0
TABLE
  2
VPORT
  5
8
330
0
100
AcDbSymbolTable
 70
     1
  0
VPORT
  5
29
330
8
100
AcDbSymbolTableRecord
100
AcDbViewportTableRecord
  2
*Active
 70
     0
 10
0.0
 20
0.0
 11
1.0
 21
1.0
 12
0.0000000127276465
 22
-0.0000000127282149
 13
0.0
 23
0.0
 14
0.5
 24
0.5
 15
0.5
 25
0.5
 16
0.0
 26
0.0
 36
1.0
 17
0.0
 27
0.0
 37
0.0
 40
65.0250550874394
 41
1.399999030469493
 42
50.0
 43
0.0
 44
0.0
 50
0.0
 51
0.0
 71
     0
 72
   100
 73
     1
 74
     3
 75
     0
 76
     0
 77
     0
 78
     0
281
     0
 65
     1
110
0.0
120
0.0
130
0.0
111
1.0
121
0.0
131
0.0
112
0.0
122
1.0
132
0.0
 79
     0
146
0.0
  0
ENDTAB
  0
TABLE
  2
LTYPE
  5
5
330
0
100
AcDbSymbolTable
 70
     1
  0
LTYPE
  5
14
330
5
100
AcDbSymbolTableRecord
100
AcDbLinetypeTableRecord
  2
ByBlock
 70
     0
  3

 72
    65
 73
     0
 40
0.0
  0
LTYPE
  5
15
330
5
100
AcDbSymbolTableRecord
100
AcDbLinetypeTableRecord
  2
ByLayer
 70
     0
  3

 72
    65
 73
     0
 40
0.0
  0
LTYPE
  5
16
330
5
100
AcDbSymbolTableRecord
100
AcDbLinetypeTableRecord
  2
Continuous
 70
     0
  3
Solid line
 72
    65
 73
     0
 40
0.0
  0
ENDTAB
  0
TABLE
  2
LAYER
  5
2
330
0
100
AcDbSymbolTable
 70
     6
  0
LAYER
  5
10
330
2
100
AcDbSymbolTableRecord
100
AcDbLayerTableRecord
  2
0
 70
     0
 62
     7
  6
Continuous
370
    -3
390
F
  0
LAYER
  5
3B
330
2
100
AcDbSymbolTableRecord
100
AcDbLayerTableRecord
  2
TABLE
 70
     0
 62
     7
  6
Continuous
370
    -3
390
F
  0
LAYER
  5
44
330
2
100
AcDbSymbolTableRecord
100
AcDbLayerTableRecord
  2
SEATS
 70
     0
 62
   251
  6
Continuous
370
    -3
390
F
  0
LAYER
  5
56
330
2
100
AcDbSymbolTableRecord
100
AcDbLayerTableRecord
  2
BACKS
 70
     0
 62
   253
  6
Continuous
370
    -3
390
F
  0
LAYER
  5
63
330
2
100
AcDbSymbolTableRecord
100
AcDbLayerTableRecord
  2
Make2D visible lines
 70
     0
 62
     7
  6
Continuous
370
    -3
390
F
  0
LAYER
  5
77
330
2
100
AcDbSymbolTableRecord
100
AcDbLayerTableRecord
  2
FRAME
 70
     0
 62
    15
  6
Continuous
370
    -3
390
F
  0
ENDTAB
  0
TABLE
  2
STYLE
  5
3
330
0
100
AcDbSymbolTable
 70
     1
  0
STYLE
  5
11
330
3
100
AcDbSymbolTableRecord
100
AcDbTextStyleTableRecord
  2
Standard
 70
     0
 40
0.0
 41
1.0
 50
0.0
 71
     0
 42
0.2
  3
txt
  4

  0
ENDTAB
  0
TABLE
  2
VIEW
  5
6
330
0
100
AcDbSymbolTable
 70
     0
  0
ENDTAB
  0
TABLE
  2
UCS
  5
7
330
0
100
AcDbSymbolTable
 70
     0
  0
ENDTAB
  0
TABLE
  2
APPID
  5
9
330
0
100
AcDbSymbolTable
 70
     1
  0
APPID
  5
12
330
9
100
AcDbSymbolTableRecord
100
AcDbRegAppTableRecord
  2
ACAD
 70
     0
  0
ENDTAB
  0
TABLE
  2
DIMSTYLE
  5
A
330
0
100
AcDbSymbolTable
 70
     1
100
AcDbDimStyleTable
  0
DIMSTYLE
105
27
330
A
100
AcDbSymbolTableRecord
100
AcDbDimStyleTableRecord
  2
Standard
 70
     0
340
11
  0
ENDTAB
  0
TABLE
  2
BLOCK_RECORD
  5
1
330
0
100
AcDbSymbolTable
 70
     1
  0
BLOCK_RECORD
  5
1F
330
1
100
AcDbSymbolTableRecord
100
AcDbBlockTableRecord
  2
*Model_Space
340
22
  0
BLOCK_RECORD
  5
1B
330
1
100
AcDbSymbolTableRecord
100
AcDbBlockTableRecord
  2
*Paper_Space
340
1E
  0
BLOCK_RECORD
  5
23
330
1
100
AcDbSymbolTableRecord
100
AcDbBlockTableRecord
  2
*Paper_Space0
340
26
  0
ENDTAB
  0
ENDSEC
  0
SECTION
  2
BLOCKS
  0
BLOCK
  5
20
330
1F
100
AcDbEntity
  8
0
100
AcDbBlockBegin
  2
*Model_Space
 70
     0
 10
0.0
 20
0.0
 30
0.0
  3
*Model_Space
  1

  0
ENDBLK
  5
21
330
1F
100
AcDbEntity
  8
0
100
AcDbBlockEnd
  0
BLOCK
  5
1C
330
1B
100
AcDbEntity
 67
     1
  8
0
100
AcDbBlockBegin
  2
*Paper_Space
 70
     0
 10
0.0
 20
0.0
 30
0.0
  3
*Paper_Space
  1

  0
ENDBLK
  5
1D
330
1B
100
AcDbEntity
 67
     1
  8
0
100
AcDbBlockEnd
  0
BLOCK
  5
24
330
23
100
AcDbEntity
  8
0
100
AcDbBlockBegin
  2
*Paper_Space0
 70
     0
 10
0.0
 20
0.0
 30
0.0
  3
*Paper_Space0
  1

  0
ENDBLK
  5
25
330
23
100
AcDbEntity
  8
0
100
AcDbBlockEnd
  0
ENDSEC
  0
SECTION
  2
ENTITIES
  0
SPLINE
  5
3C
330
1F
100
AcDbEntity
  8
TABLE
100
AcDbSpline
210
0.0
220
0.0
230
1.0
 70
    12
 71
     2
 72
     6
 73
     3
 74
     0
 42
0.0000000001
 43
0.0000000001
 40
0.0
 40
0.0
 40
0.0
 40
2.748893572817324
 40
2.748893572817324
 40
2.748893572817324
 10
40.87499311143322
 20
4.12497298362624
 30
0.0
 41
1.0
 10
42.62499311235948
 20
4.124972983626295
 30
0.0
 41
0.7071067809994112
 10
42.62499311143326
 20
2.37497298270004
 30
0.0
 41
1.0
  0
SPLINE
  5
3D
330
1F
100
AcDbEntity
  8
TABLE
100
AcDbSpline
210
0.0
220
0.0
230
1.0
 70
    24
 71
     2
 72
     6
 73
     3
 74
     0
 42
0.0000000001
 43
0.0000000001
 40
0.0
 40
0.0
 40
0.0
 40
56.49999999907375
 40
56.49999999907375
 40
56.49999999907375
 10
-15.62500688764053
 20
4.124972983625018
 30
0.0
 10
12.62499311189634
 20
4.124972983625629
 30
0.0
 10
40.87499311143322
 20
4.12497298362624
 30
0.0
  0
SPLINE
  5
3E
330
1F
100
AcDbEntity
  8
TABLE
100
AcDbSpline
210
0.0
220
0.0
230
1.0
 70
    12
 71
     2
 72
     6
 73
     3
 74
     0
 42
0.0000000001
 43
0.0000000001
 40
0.0
 40
0.0
 40
0.0
 40
2.748893572817318
 40
2.748893572817318
 40
2.748893572817318
 10
-17.37500688856675
 20
2.374972983624975
 30
0.0
 41
1.0
 10
-17.37500688856677
 20
4.124972984551215
 30
0.0
 41
0.7071067809994248
 10
-15.62500688764053
 20
4.124972983625018
 30
0.0
 41
1.0
  0
SPLINE
  5
3F
330
1F
100
AcDbEntity
  8
TABLE
100
AcDbSpline
210
0.0
220
0.0
230
1.0
 70
    24
 71
     2
 72
     6
 73
     3
 74
     0
 42
0.0000000001
 43
0.0000000001
 40
0.0
 40
0.0
 40
0.0
 40
32.49999999907375
 40
32.49999999907375
 40
32.49999999907375
 10
-17.37500688856604
 20
-30.12502701544877
 30
0.0
 10
-17.3750068885664
 20
-13.87502701591188
 30
0.0
 10
-17.37500688856675
 20
2.374972983624989
 30
0.0
  0
SPLINE
  5
40
330
1F
100
AcDbEntity
  8
TABLE
100
AcDbSpline
210
0.0
220
0.0
230
1.0
 70
    12
 71
     2
 72
     6
 73
     3
 74
     0
 42
0.0000000001
 43
0.0000000001
 40
0.0
 40
0.0
 40
0.0
 40
2.748893572817311
 40
2.748893572817311
 40
2.748893572817311
 10
-15.625006888566
 20
-31.87502701637498
 30
0.0
 41
1.0
 10
-17.37500688949224
 20
-31.87502701637501
 30
0.0
 41
0.7071067809994181
 10
-17.37500688856604
 20
-30.12502701544877
 30
0.0
 41
1.0
  0
SPLINE
  5
41
330
1F
100
AcDbEntity
  8
TABLE
100
AcDbSpline
210
0.0
220
0.0
230
1.0
 70
    24
 71
     2
 72
     6
 73
     3
 74
     0
 42
0.0000000001
 43
0.0000000001
 40
0.0
 40
0.0
 40
0.0
 40
56.5
 40
56.5
 40
56.5
 10
40.874993111434
 20
-31.87502701637376
 30
0.0
 10
12.624993111434
 20
-31.87502701637436
 30
0.0
 10
-15.625006888566
 20
-31.87502701637498
 30
0.0
  0
SPLINE
  5
42
330
1F
100
AcDbEntity
  8
TABLE
100
AcDbSpline
210
0.0
220
0.0
230
1.0
 70
    12
 71
     2
 72
     6
 73
     3
 74
     0
 42
0.0000000001
 43
0.0000000001
 40
0.0
 40
0.0
 40
0.0
 40
2.748893571891082
 40
2.748893571891082
 40
2.748893571891082
 10
42.62499311143396
 20
-30.12502701637371
 30
0.0
 41
1.0
 10
42.62499311143402
 20
-31.87502701637372
 30
0.0
 41
0.7071067811865449
 10
40.874993111434
 20
-31.87502701637376
 30
0.0
 41
1.0
  0
SPLINE
  5
43
330
1F
100
AcDbEntity
  8
TABLE
100
AcDbSpline
210
0.0
220
0.0
230
1.0
 70
    24
 71
     2
 72
     6
 73
     3
 74
     0
 42
0.0000000001
 43
0.0000000001
 40
0.0
 40
0.0
 40
0.0
 40
32.49999999907374
 40
32.49999999907374
 40
32.49999999907374
 10
42.62499311143326
 20
2.37497298270004
 30
0.0
 10
42.6249931114336
 20
-13.87502701683684
 30
0.0
 10
42.62499311143396
 20
-30.12502701637371
 30
0.0
  0
LINE
  5
45
330
1F
100
AcDbEntity
  8
SEATS
100
AcDbLine
 10
-18.37500688856673
 20
6.080392739476981
 30
0.0
 11
-18.37500688856672
 21
23.12502730545902
 31
0.0
  0
SPLINE
  5
46
330
1F
100
AcDbEntity
  8
SEATS
100
AcDbSpline
210
0.0
220
0.0
230
1.0
 70
    24
 71
     2
 72
     6
 73
     3
 74
     0
 42
0.0000000001
 43
0.0000000001
 40
0.0
 40
0.0
 40
0.0
 40
36.20536574855839
 40
36.20536574855839
 40
36.20536574855839
 10
-18.37500688856674
 20
-30.12497300908141
 30
0.0
 10
-18.37500688856674
 20
-12.02229013480222
 30
0.0
 10
-18.37500688856673
 20
6.080392739476981
 30
0.0
  0
ARC
  5
47
330
1F
100
AcDbEntity
  8
SEATS
100
AcDbCircle
 10
-19.37500688856674
 20
-30.12497300908141
 30
0.0
 40
1.0
100
AcDbArc
 50
270.0
 51
0.0
  0
SPLINE
  5
48
330
1F
100
AcDbEntity
  8
SEATS
100
AcDbSpline
210
0.0
220
0.0
230
1.0
 70
    24
 71
     2
 72
     6
 73
     3
 74
     0
 42
0.0000000001
 43
0.0000000001
 40
-17.0
 40
-17.0
 40
-17.0
 40
0.0
 40
0.0
 40
0.0
 10
-36.37500688856674
 20
-31.12497300908142
 30
0.0
 10
-27.87500688856674
 20
-31.12497300908141
 30
0.0
 10
-19.37500688856674
 20
-31.12497300908141
 30
0.0
  0
ARC
  5
49
330
1F
100
AcDbEntity
  8
SEATS
100
AcDbCircle
 10
-36.37500688856674
 20
-30.12497300908142
 30
0.0
 40
1.0
100
AcDbArc
 50
180.0
 51
270.0
  0
SPLINE
  5
4A
330
1F
100
AcDbEntity
  8
SEATS
100
AcDbSpline
210
0.0
220
0.0
230
1.0
 70
    24
 71
     2
 72
     6
 73
     3
 74
     0
 42
0.0000000001
 43
0.0000000001
 40
0.0
 40
0.0
 40
0.0
 40
53.24999999999999
 40
53.24999999999999
 40
53.24999999999999
 10
-37.37500688856674
 20
23.12502699091858
 30
0.0
 10
-37.37500688856674
 20
-3.499973009081423
 30
0.0
 10
-37.37500688856674
 20
-30.12497300908142
 30
0.0
  0
ARC
  5
4B
330
1F
100
AcDbEntity
  8
SEATS
100
AcDbCircle
 10
-36.37500688856674
 20
23.12502699091858
 30
0.0
 40
1.0
100
AcDbArc
 50
90.0
 51
180.0
  0
SPLINE
  5
4C
330
1F
100
AcDbEntity
  8
SEATS
100
AcDbSpline
210
0.0
220
0.0
230
1.0
 70
    24
 71
     2
 72
     6
 73
     3
 74
     0
 42
0.0000000001
 43
0.0000000001
 40
0.0
 40
0.0
 40
0.0
 40
16.99999999999999
 40
16.99999999999999
 40
16.99999999999999
 10
-19.37500688856675
 20
24.12502699091858
 30
0.0
 10
-27.87500688856675
 20
24.12502699091858
 30
0.0
 10
-36.37500688856674
 20
24.12502699091858
 30
0.0
  0
ARC
  5
4D
330
1F
100
AcDbEntity
  8
SEATS
100
AcDbCircle
 10
-19.37500688856675
 20
23.12502699091858
 30
0.0
 40
1.0
100
AcDbArc
 50
359.9969228431146
 51
90.0
  0
SPLINE
  5
4E
330
1F
100
AcDbEntity
  8
SEATS
100
AcDbSpline
210
0.0
220
0.0
230
1.0
 70
    12
 71
     2
 72
     6
 73
     3
 74
     0
 42
0.0000000001
 43
0.0000000001
 40
0.0
 40
0.0
 40
0.0
 40
1.526223456009934
 40
1.526223456009934
 40
1.526223456009934
 10
-17.37500673854995
 20
5.124972983625629
 30
0.0
 41
1.0
 10
-18.33139851943152
 20
5.124972983625652
 30
0.0
 41
0.7226887688097136
 10
-18.37401353259813
 20
6.08041487049822
 30
0.0
 41
1.0
  0
SPLINE
  5
4F
330
1F
100
AcDbEntity
  8
SEATS
100
AcDbSpline
210
0.0
220
0.0
230
1.0
 70
    24
 71
     2
 72
     6
 73
     3
 74
     0
 42
0.0000000001
 43
0.0000000001
 40
0.0
 40
0.0
 40
0.0
 40
61.00000000073204
 40
61.00000000073204
 40
61.00000000073204
 10
43.62499326218209
 20
5.124972983625629
 30
0.0
 10
13.12499326181607
 20
5.124972983625629
 30
0.0
 10
-17.37500673854995
 20
5.124972983625629
 30
0.0
  0
ARC
  5
50
330
1F
100
AcDbEntity
  8
SEATS
100
AcDbCircle
 10
43.62499326218209
 20
6.124972983625629
 30
0.0
 40
1.0
100
AcDbArc
 50
270.0
 51
0.0
  0
SPLINE
  5
51
330
1F
100
AcDbEntity
  8
SEATS
100
AcDbSpline
210
0.0
220
0.0
230
1.0
 70
    24
 71
     2
 72
     6
 73
     3
 74
     0
 42
0.0000000001
 43
0.0000000001
 40
-17.00000030076559
 40
-17.00000030076559
 40
-17.00000030076559
 40
0.0
 40
0.0
 40
0.0
 10
44.62499326218204
 20
23.12497328439122
 30
0.0
 10
44.62499326218207
 20
14.62497313400842
 30
0.0
 10
44.62499326218209
 20
6.124972983625629
 30
0.0
  0
ARC
  5
52
330
1F
100
AcDbEntity
  8
SEATS
100
AcDbCircle
 10
43.62499326218204
 20
23.12497328439122
 30
0.0
 40
1.0
100
AcDbArc
 50
0.0
 51
90.0
  0
SPLINE
  5
53
330
1F
100
AcDbEntity
  8
SEATS
100
AcDbSpline
210
0.0
220
0.0
230
1.0
 70
    24
 71
     2
 72
     6
 73
     3
 74
     0
 42
0.0000000001
 43
0.0000000001
 40
0.0
 40
0.0
 40
0.0
 40
61.00000000073199
 40
61.00000000073199
 40
61.00000000073199
 10
-17.37500673854995
 20
24.12497328439122
 30
0.0
 10
13.12499326181604
 20
24.12497328439122
 30
0.0
 10
43.62499326218204
 20
24.12497328439122
 30
0.0
  0
ARC
  5
54
330
1F
100
AcDbEntity
  8
SEATS
100
AcDbCircle
 10
-17.37500673854995
 20
23.12497328439122
 30
0.0
 40
1.0
100
AcDbArc
 50
90.0
 51
180.0
  0
SPLINE
  5
55
330
1F
100
AcDbEntity
  8
SEATS
100
AcDbSpline
210
0.0
220
0.0
230
1.0
 70
    24
 71
     2
 72
     6
 73
     3
 74
     0
 42
0.0000000001
 43
0.0000000001
 40
-17.00000030076559
 40
-17.00000030076559
 40
-17.00000030076559
 40
0.0
 40
0.0
 40
0.0
 10
-18.37500673854989
 20
6.124972983625629
 30
0.0
 10
-18.3750067385499
 20
14.62497313400842
 30
0.0
 10
-18.37500673854995
 20
23.12497328439122
 30
0.0
  0
SPLINE
  5
57
330
1F
100
AcDbEntity
  8
BACKS
100
AcDbSpline
210
0.0
220
0.0
230
1.0
 70
    24
 71
     2
 72
     6
 73
     3
 74
     0
 42
0.0000000001
 43
0.0000000001
 40
0.0
 40
0.0
 40
0.0
 40
61.00000030076356
 40
61.00000030076356
 40
61.00000030076356
 10
43.62499341219768
 20
25.12502699091855
 30
0.0
 10
13.1249932618159
 20
25.12502699091855
 30
0.0
 10
-17.37500688856589
 20
25.12502699091855
 30
0.0
  0
SPLINE
  5
58
330
1F
100
AcDbEntity
  8
BACKS
100
AcDbSpline
210
0.0
220
0.0
230
1.0
 70
    28
 71
     3
 72
     8
 73
     4
 74
     0
 42
0.0000000001
 43
0.0000000001
 40
0.0
 40
0.0
 40
0.0
 40
0.0
 40
0.3926863527735757
 40
0.3926863527735757
 40
0.3926863527735757
 40
0.3926863527735757
 10
43.87499627826877
 20
25.12502699091923
 30
0.0
 41
1.0
 10
43.87550618609813
 20
25.12502699091855
 30
0.0
 41
1.0
 10
43.76212553435054
 20
25.12502699091855
 30
0.0
 41
1.0
 10
43.62499341219768
 20
25.12502699091855
 30
0.0
 41
1.0
  0
SPLINE
  5
59
330
1F
100
AcDbEntity
  8
BACKS
100
AcDbSpline
210
0.0
220
0.0
230
1.0
 70
    12
 71
     2
 72
     6
 73
     3
 74
     0
 42
0.0000000001
 43
0.0000000001
 40
0.0
 40
0.0
 40
0.0
 40
1.178105736934321
 40
1.178105736934321
 40
1.178105736934321
 10
44.62500202869645
 20
25.87502699091854
 30
0.0
 41
0.9999999999555169
 10
44.62500363434701
 20
25.12502250084901
 30
0.0
 41
0.7071079694679449
 10
43.87499627826877
 20
25.12502699091923
 30
0.0
 41
1.0
  0
SPLINE
  5
5A
330
1F
100
AcDbEntity
  8
BACKS
100
AcDbSpline
210
0.0
220
0.0
230
1.0
 70
     8
 71
     2
 72
     6
 73
     3
 74
     0
 42
0.0000000001
 43
0.0000000001
 40
0.0
 40
0.0
 40
0.0
 40
5.25
 40
5.25
 40
5.25
 10
44.62500691402203
 20
31.12502699091855
 30
0.0
 10
44.62499341219887
 20
28.50002699091855
 30
0.0
 10
44.62500202869645
 20
25.87502699091855
 30
0.0
  0
SPLINE
  5
5B
330
1F
100
AcDbEntity
  8
BACKS
100
AcDbSpline
210
0.0
220
0.0
230
1.0
 70
    12
 71
     2
 72
     6
 73
     3
 74
     0
 42
0.0000000001
 43
0.0000000001
 40
0.0
 40
0.0
 40
0.0
 40
1.17811145356341
 40
1.17811145356341
 40
1.17811145356341
 10
43.87499719514459
 20
31.87502699091832
 30
0.0
 41
1.0
 10
44.62500823172931
 20
31.87503424471415
 30
0.0
 41
0.7071091052924869
 10
44.62500691402203
 20
31.12502699091855
 30
0.0
 41
0.9999999998788636
  0
SPLINE
  5
5C
330
1F
100
AcDbEntity
  8
BACKS
100
AcDbSpline
210
0.0
220
0.0
230
1.0
 70
    24
 71
     2
 72
     6
 73
     3
 74
     0
 42
0.0000000001
 43
0.0000000001
 40
0.0
 40
0.0
 40
0.0
 40
0.2500000000019895
 40
0.2500000000019895
 40
0.2500000000019895
 10
43.62499341219803
 20
31.87502699091855
 30
0.0
 10
43.74999341219903
 20
31.87502699091855
 30
0.0
 10
43.87499719514459
 20
31.87502699091832
 30
0.0
  0
SPLINE
  5
5D
330
1F
100
AcDbEntity
  8
BACKS
100
AcDbSpline
210
0.0
220
0.0
230
1.0
 70
    24
 71
     2
 72
     6
 73
     3
 74
     0
 42
0.0000000001
 43
0.0000000001
 40
0.0
 40
0.0
 40
0.0
 40
61.00000030076352
 40
61.00000030076352
 40
61.00000030076352
 10
-17.37500688856549
 20
31.87502699091855
 30
0.0
 10
13.12499326181627
 20
31.87502699091855
 30
0.0
 10
43.62499341219803
 20
31.87502699091855
 30
0.0
  0
SPLINE
  5
5E
330
1F
100
AcDbEntity
  8
BACKS
100
AcDbSpline
210
0.0
220
0.0
230
1.0
 70
    28
 71
     3
 72
     8
 73
     4
 74
     0
 42
0.0000000001
 43
0.0000000001
 40
0.0
 40
0.0
 40
0.0
 40
0.0
 40
0.3926863527735771
 40
0.3926863527735771
 40
0.3926863527735771
 40
0.3926863527735771
 10
-17.62500975463654
 20
31.87502699091787
 30
0.0
 41
1.0
 10
-17.62551966248427
 20
31.87502699091855
 30
0.0
 41
1.0
 10
-17.51213901072307
 20
31.87502699091855
 30
0.0
 41
1.0
 10
-17.37500688856549
 20
31.87502699091855
 30
0.0
 41
1.0
  0
SPLINE
  5
5F
330
1F
100
AcDbEntity
  8
BACKS
100
AcDbSpline
210
0.0
220
0.0
230
1.0
 70
    12
 71
     2
 72
     6
 73
     3
 74
     0
 42
0.0000000001
 43
0.0000000001
 40
0.0
 40
0.0
 40
0.0
 40
1.178105736934566
 40
1.178105736934566
 40
1.178105736934566
 10
-18.37501550506431
 20
31.12502699091855
 30
0.0
 41
0.9999999999555169
 10
-18.3750171107149
 20
31.87503148098834
 30
0.0
 41
0.7071079694678158
 10
-17.62500975463654
 20
31.87502699091787
 30
0.0
 41
1.0
  0
SPLINE
  5
60
330
1F
100
AcDbEntity
  8
BACKS
100
AcDbSpline
210
0.0
220
0.0
230
1.0
 70
     8
 71
     2
 72
     6
 73
     3
 74
     0
 42
0.0000000001
 43
0.0000000001
 40
0.0
 40
0.0
 40
0.0
 40
5.25
 40
5.25
 40
5.25
 10
-18.37502039038991
 20
25.87502699091855
 30
0.0
 10
-18.37500688856674
 20
28.50002699091855
 30
0.0
 10
-18.37501550506431
 20
31.12502699091855
 30
0.0
  0
SPLINE
  5
61
330
1F
100
AcDbEntity
  8
BACKS
100
AcDbSpline
210
0.0
220
0.0
230
1.0
 70
    12
 71
     2
 72
     6
 73
     3
 74
     0
 42
0.0000000001
 43
0.0000000001
 40
0.0
 40
0.0
 40
0.0
 40
1.178111453563524
 40
1.178111453563524
 40
1.178111453563524
 10
-17.62501067151239
 20
25.12502699091876
 30
0.0
 41
1.0
 10
-18.37502170809711
 20
25.12501973712289
 30
0.0
 41
0.7071091052925019
 10
-18.37502039038991
 20
25.87502699091855
 30
0.0
 41
0.9999999998788636
  0
SPLINE
  5
62
330
1F
100
AcDbEntity
  8
BACKS
100
AcDbSpline
210
0.0
220
0.0
230
1.0
 70
    24
 71
     2
 72
     6
 73
     3
 74
     0
 42
0.0000000001
 43
0.0000000001
 40
0.0
 40
0.0
 40
0.0
 40
0.2500000000019895
 40
0.2500000000019895
 40
0.2500000000019895
 10
-17.37500688856589
 20
25.12502699091855
 30
0.0
 10
-17.50000688856688
 20
25.12502699091855
 30
0.0
 10
-17.62501067151239
 20
25.12502699091876
 30
0.0
  0
SPLINE
  5
64
330
1F
100
AcDbEntity
  8
Make2D visible lines
100
AcDbSpline
210
0.0
220
0.0
230
1.0
 70
    12
 71
     2
 72
     6
 73
     3
 74
     0
 42
0.0000000001
 43
0.0000000001
 40
0.0
 40
0.0
 40
0.0
 40
0.0334462678647211
 40
0.0334462678647211
 40
0.0334462678647211
 10
-18.37500688856674
 20
31.12502699091855
 30
0.0
 41
1.0
 10
-18.37500688856674
 20
31.14175289686607
 30
0.0
 41
0.9997514207806063
 10
-18.37426124359599
 20
31.15846217403004
 30
0.0
 41
1.0
  0
SPLINE
  5
65
330
1F
100
AcDbEntity
  8
BACKS
100
AcDbSpline
210
0.0
220
0.0
230
1.0
 70
    12
 71
     2
 72
     6
 73
     3
 74
     0
 42
0.0000000001
 43
0.0000000001
 40
0.0
 40
0.0
 40
0.0
 40
1.170242041669718
 40
1.170242041669718
 40
1.170242041669718
 10
-19.12500310562089
 20
31.87502699091835
 30
0.0
 41
1.0
 10
-18.38282011956317
 20
31.87503484547248
 30
0.0
 41
0.710808549186871
 10
-18.37502117454314
 20
31.13289661976805
 30
0.0
 41
1.0
  0
SPLINE
  5
66
330
1F
100
AcDbEntity
  8
BACKS
100
AcDbSpline
210
0.0
220
0.0
230
1.0
 70
    24
 71
     2
 72
     6
 73
     3
 74
     0
 42
0.0000000001
 43
0.0000000001
 40
0.0
 40
0.0
 40
0.0
 40
0.2500000000011369
 40
0.2500000000011369
 40
0.2500000000011369
 10
-19.37500688856674
 20
31.87502699091855
 30
0.0
 10
-19.25000688856617
 20
31.87502699091855
 30
0.0
 10
-19.12500310562089
 20
31.87502699091835
 30
0.0
  0
SPLINE
  5
67
330
1F
100
AcDbEntity
  8
BACKS
100
AcDbSpline
210
0.0
220
0.0
230
1.0
 70
    24
 71
     2
 72
     6
 73
     3
 74
     0
 42
0.0000000001
 43
0.0000000001
 40
0.0
 40
0.0
 40
0.0
 40
24.50000000000001
 40
24.50000000000001
 40
24.50000000000001
 10
-43.87500688856675
 20
31.87502699091852
 30
0.0
 10
-31.62500688856675
 20
31.87502699091854
 30
0.0
 10
-19.37500688856674
 20
31.87502699091855
 30
0.0
  0
SPLINE
  5
68
330
1F
100
AcDbEntity
  8
BACKS
100
AcDbSpline
210
0.0
220
0.0
230
1.0
 70
    12
 71
     2
 72
     8
 73
     5
 74
     0
 42
0.0000000001
 43
0.0000000001
 40
-1.17818114443469
 40
-1.17818114443469
 40
-1.17818114443469
 40
-0.5890905722173452
 40
-0.5890905722173452
 40
0.0
 40
0.0
 40
0.0
 10
-44.62500688856674
 20
31.12502699091855
 30
0.0
 41
1.0
 10
-44.62508784891824
 20
31.43572069139494
 30
0.0
 41
0.9238296649777017
 10
-44.40539421898068
 20
31.65541432133248
 30
0.0
 41
1.0
 10
-44.18570058904313
 20
31.87510795127004
 30
0.0
 41
0.9238296649777017
 10
-43.87500688856675
 20
31.87502699091852
 30
0.0
 41
1.0
  0
SPLINE
  5
69
330
1F
100
AcDbEntity
  8
BACKS
100
AcDbSpline
210
0.0
220
0.0
230
1.0
 70
    24
 71
     2
 72
     6
 73
     3
 74
     0
 42
0.0000000001
 43
0.0000000001
 40
0.0
 40
0.0
 40
0.0
 40
61.24999999999881
 40
61.24999999999881
 40
61.24999999999881
 10
-44.62500688856674
 20
-30.12497300908026
 30
0.0
 10
-44.62500688856674
 20
0.5000269909191353
 30
0.0
 10
-44.62500688856674
 20
31.12502699091855
 30
0.0
  0
SPLINE
  5
6A
330
1F
100
AcDbEntity
  8
BACKS
100
AcDbSpline
210
0.0
220
0.0
230
1.0
 70
    28
 71
     3
 72
     8
 73
     4
 74
     0
 42
0.0000000001
 43
0.0000000001
 40
0.0
 40
0.0
 40
0.0
 40
0.0
 40
0.3926863527735749
 40
0.3926863527735749
 40
0.3926863527735749
 40
0.3926863527735749
 10
-44.62500688856606
 20
-30.3749758751513
 30
0.0
 41
1.0
 10
-44.62500688856674
 20
-30.37548578298605
 30
0.0
 41
1.0
 10
-44.62500688856674
 20
-30.26210513122025
 30
0.0
 41
1.0
 10
-44.62500688856674
 20
-30.12497300908026
 30
0.0
 41
1.0
  0
SPLINE
  5
6B
330
1F
100
AcDbEntity
  8
BACKS
100
AcDbSpline
210
0.0
220
0.0
230
1.0
 70
    12
 71
     2
 72
     6
 73
     3
 74
     0
 42
0.0000000001
 43
0.0000000001
 40
0.0
 40
0.0
 40
0.0
 40
1.17810573693442
 40
1.17810573693442
 40
1.17810573693442
 10
-43.87500688856674
 20
-31.124981625579
 30
0.0
 41
0.9999999999555169
 10
-44.62501137863642
 20
-31.12498323122965
 30
0.0
 41
0.7071079694678495
 10
-44.62500688856606
 20
-30.3749758751513
 30
0.0
 41
1.0
  0
SPLINE
  5
6C
330
1F
100
AcDbEntity
  8
BACKS
100
AcDbSpline
210
0.0
220
0.0
230
1.0
 70
     8
 71
     2
 72
     6
 73
     3
 74
     0
 42
0.0000000001
 43
0.0000000001
 40
-5.25
 40
-5.25
 40
-5.25
 40
0.0
 40
0.0
 40
0.0
 10
-38.62500688856674
 20
-31.12498651090459
 30
0.0
 10
-41.25000688856674
 20
-31.12497300908144
 30
0.0
 10
-43.87500688856674
 20
-31.124981625579
 30
0.0
  0
SPLINE
  5
6D
330
1F
100
AcDbEntity
  8
BACKS
100
AcDbSpline
210
0.0
220
0.0
230
1.0
 70
    12
 71
     2
 72
     6
 73
     3
 74
     0
 42
0.0000000001
 43
0.0000000001
 40
0.0
 40
0.0
 40
0.0
 40
1.178111453563575
 40
1.178111453563575
 40
1.178111453563575
 10
-37.87500688856696
 20
-30.37497679202705
 30
0.0
 41
1.0
 10
-37.87499963477097
 20
-31.12498782861185
 30
0.0
 41
0.7071091052924078
 10
-38.62500688856674
 20
-31.12498651090459
 30
0.0
 41
0.9999999998788636
  0
SPLINE
  5
6E
330
1F
100
AcDbEntity
  8
BACKS
100
AcDbSpline
210
0.0
220
0.0
230
1.0
 70
    24
 71
     2
 72
     6
 73
     3
 74
     0
 42
0.0000000001
 43
0.0000000001
 40
0.0
 40
0.0
 40
0.0
 40
0.2500000000011369
 40
0.2500000000011369
 40
0.2500000000011369
 10
-37.87500688856674
 20
-30.12497300908141
 30
0.0
 10
-37.87500688856674
 20
-30.24997300908198
 30
0.0
 10
-37.87500688856696
 20
-30.37497679202705
 30
0.0
  0
SPLINE
  5
6F
330
1F
100
AcDbEntity
  8
BACKS
100
AcDbSpline
210
0.0
220
0.0
230
1.0
 70
    24
 71
     2
 72
     6
 73
     3
 74
     0
 42
0.0000000001
 43
0.0000000001
 40
0.0
 40
0.0
 40
0.0
 40
54.99999999999994
 40
54.99999999999994
 40
54.99999999999994
 10
-37.87500688856674
 20
24.87502699091852
 30
0.0
 10
-37.87500688856674
 20
-2.624973009081444
 30
0.0
 10
-37.87500688856674
 20
-30.12497300908141
 30
0.0
  0
SPLINE
  5
70
330
1F
100
AcDbEntity
  8
BACKS
100
AcDbSpline
210
0.0
220
0.0
230
1.0
 70
     8
 71
     5
 72
    12
 73
     6
 74
     0
 42
0.0000000001
 43
0.0000000001
 40
-1.0
 40
-1.0
 40
-1.0
 40
-1.0
 40
-1.0
 40
-1.0
 40
0.0
 40
0.0
 40
0.0
 40
0.0
 40
0.0
 40
0.0
 10
-37.62500688856672
 20
25.12502699091856
 30
0.0
 10
-37.69571756668539
 20
25.12502699091856
 30
0.0
 10
-37.76642824480405
 20
25.12502699091856
 30
0.0
 10
-37.87500688856674
 20
25.01644834715585
 30
0.0
 10
-37.87500688856674
 20
24.94573766903719
 30
0.0
 10
-37.87500688856674
 20
24.87502699091852
 30
0.0
  0
LINE
  5
71
330
1F
100
AcDbEntity
  8
BACKS
100
AcDbLine
 10
-19.12500241677866
 20
25.12502699091923
 30
0.0
 11
-37.62500688856672
 21
25.12502699091856
 31
0.0
  0
SPLINE
  5
72
330
1F
100
AcDbEntity
  8
BACKS
100
AcDbSpline
210
0.0
220
0.0
230
1.0
 70
    12
 71
     2
 72
     6
 73
     3
 74
     0
 42
0.0000000001
 43
0.0000000001
 40
0.0
 40
0.0
 40
0.0
 40
1.178105736934333
 40
1.178105736934333
 40
1.178105736934333
 10
-18.37498965557161
 20
25.87502699091847
 30
0.0
 41
1.0
 10
-18.37499666633799
 20
25.12502250084883
 30
0.0
 41
0.7071079694455844
 10
-19.12500241677866
 20
25.12502699091923
 30
0.0
 41
1.0
  0
POLYLINE
  5
73
330
1F
100
AcDbEntity
  8
BACKS
100
AcDb2dPolyline
 66
     1
 10
0.0
 20
0.0
 30
0.0
  0
VERTEX
  5
74
330
73
100
AcDbEntity
  8
BACKS
100
AcDbVertex
100
AcDb2dVertex
 10
-18.37502117454314
 20
31.13289661976805
 30
0.0
  0
VERTEX
  5
75
330
73
100
AcDbEntity
  8
BACKS
100
AcDbVertex
100
AcDb2dVertex
 10
-18.37498965557161
 20
25.87502699091847
 30
0.0
  0
SEQEND
  5
76
330
73
100
AcDbEntity
  8
BACKS
  0
SPLINE
  5
78
330
1F
100
AcDbEntity
  8
FRAME
100
AcDbSpline
210
0.0
220
0.0
230
1.0
 70
    24
 71
     2
 72
     6
 73
     3
 74
     0
 42
0.0000000001
 43
0.0000000001
 40
-0.5
 40
-0.5
 40
-0.5
 40
0.0
 40
0.0
 40
0.0
 10
-37.87500688856674
 20
-22.06983217885693
 30
0.0
 10
-37.62500688856674
 20
-22.06983217885693
 30
0.0
 10
-37.37500688856674
 20
-22.06983217885693
 30
0.0
  0
POLYLINE
  5
79
330
1F
100
AcDbEntity
  8
FRAME
100
AcDb2dPolyline
 66
     1
 10
0.0
 20
0.0
 30
0.0
  0
VERTEX
  5
7A
330
79
100
AcDbEntity
  8
FRAME
100
AcDbVertex
100
AcDb2dVertex
 10
-37.87500688856674
 20
-21.28243060405398
 30
0.0
  0
VERTEX
  5
7B
330
79
100
AcDbEntity
  8
FRAME
100
AcDbVertex
100
AcDb2dVertex
 10
-37.87500688856674
 20
-22.06983217885693
 30
0.0
  0
SEQEND
  5
7C
330
79
100
AcDbEntity
  8
FRAME
  0
SPLINE
  5
7D
330
1F
100
AcDbEntity
  8
FRAME
100
AcDbSpline
210
0.0
220
0.0
230
1.0
 70
    24
 71
     2
 72
     6
 73
     3
 74
     0
 42
0.0000000001
 43
0.0000000001
 40
0.0
 40
0.0
 40
0.0
 40
0.4999999999999956
 40
0.4999999999999956
 40
0.4999999999999956
 10
-37.37500688856674
 20
-21.28243060405398
 30
0.0
 10
-37.62500688856674
 20
-21.28243060405398
 30
0.0
 10
-37.87500688856674
 20
-21.28243060405398
 30
0.0
  0
POLYLINE
  5
7E
330
1F
100
AcDbEntity
  8
FRAME
100
AcDb2dPolyline
 66
     1
 10
0.0
 20
0.0
 30
0.0
  0
VERTEX
  5
7F
330
7E
100
AcDbEntity
  8
FRAME
100
AcDbVertex
100
AcDb2dVertex
 10
-37.37500688856674
 20
-22.06983217885693
 30
0.0
  0
VERTEX
  5
80
330
7E
100
AcDbEntity
  8
FRAME
100
AcDbVertex
100
AcDb2dVertex
 10
-37.37500688856674
 20
-21.28243060405398
 30
0.0
  0
SEQEND
  5
81
330
7E
100
AcDbEntity
  8
FRAME
  0
SPLINE
  5
82
330
1F
100
AcDbEntity
  8
FRAME
100
AcDbSpline
210
0.0
220
0.0
230
1.0
 70
    24
 71
     2
 72
     6
 73
     3
 74
     0
 42
0.0000000001
 43
0.0000000001
 40
-1.000053706527325
 40
-1.000053706527325
 40
-1.000053706527325
 40
0.0
 40
0.0
 40
0.0
 10
35.56597650284422
 20
25.12502699091854
 30
0.0
 10
35.56597650284422
 20
24.62500013765488
 30
0.0
 10
35.56597650284422
 20
24.12497328439122
 30
0.0
  0
POLYLINE
  5
83
330
1F
100
AcDbEntity
  8
FRAME
100
AcDb2dPolyline
 66
     1
 10
0.0
 20
0.0
 30
0.0
  0
VERTEX
  5
84
330
83
100
AcDbEntity
  8
FRAME
100
AcDbVertex
100
AcDb2dVertex
 10
34.77857492804126
 20
25.12502699091855
 30
0.0
  0
VERTEX
  5
85
330
83
100
AcDbEntity
  8
FRAME
100
AcDbVertex
100
AcDb2dVertex
 10
35.56597650284422
 20
25.12502699091854
 30
0.0
  0
SEQEND
  5
86
330
83
100
AcDbEntity
  8
FRAME
  0
SPLINE
  5
87
330
1F
100
AcDbEntity
  8
FRAME
100
AcDbSpline
210
0.0
220
0.0
230
1.0
 70
    24
 71
     2
 72
     6
 73
     3
 74
     0
 42
0.0000000001
 43
0.0000000001
 40
0.0
 40
0.0
 40
0.0
 40
1.000053706527325
 40
1.000053706527325
 40
1.000053706527325
 10
34.77857492804126
 20
24.12497328439122
 30
0.0
 10
34.77857492804126
 20
24.62500013765489
 30
0.0
 10
34.77857492804126
 20
25.12502699091855
 30
0.0
  0
POLYLINE
  5
88
330
1F
100
AcDbEntity
  8
FRAME
100
AcDb2dPolyline
 66
     1
 10
0.0
 20
0.0
 30
0.0
  0
VERTEX
  5
89
330
88
100
AcDbEntity
  8
FRAME
100
AcDbVertex
100
AcDb2dVertex
 10
35.56597650284422
 20
24.12497328439122
 30
0.0
  0
VERTEX
  5
8A
330
88
100
AcDbEntity
  8
FRAME
100
AcDbVertex
100
AcDb2dVertex
 10
34.77857492804126
 20
24.12497328439122
 30
0.0
  0
SEQEND
  5
8B
330
88
100
AcDbEntity
  8
FRAME
  0
SPLINE
  5
8C
330
1F
100
AcDbEntity
  8
FRAME
100
AcDbSpline
210
0.0
220
0.0
230
1.0
 70
    24
 71
     2
 72
     6
 73
     3
 74
     0
 42
0.0000000001
 43
0.0000000001
 40
-1.000053706527339
 40
-1.000053706527339
 40
-1.000053706527339
 40
0.0
 40
0.0
 40
0.0
 10
-9.31591326062292
 20
25.12502699091856
 30
0.0
 10
-9.31591326062292
 20
24.62500013765489
 30
0.0
 10
-9.315913260622906
 20
24.12497328439122
 30
0.0
  0
POLYLINE
  5
8D
330
1F
100
AcDbEntity
  8
FRAME
100
AcDb2dPolyline
 66
     1
 10
0.0
 20
0.0
 30
0.0
  0
VERTEX
  5
8E
330
8D
100
AcDbEntity
  8
FRAME
100
AcDbVertex
100
AcDb2dVertex
 10
-8.528511685819957
 20
25.12502699091855
 30
0.0
  0
VERTEX
  5
8F
330
8D
100
AcDbEntity
  8
FRAME
100
AcDbVertex
100
AcDb2dVertex
 10
-9.31591326062292
 20
25.12502699091856
 30
0.0
  0
SEQEND
  5
90
330
8D
100
AcDbEntity
  8
FRAME
  0
SPLINE
  5
91
330
1F
100
AcDbEntity
  8
FRAME
100
AcDbSpline
210
0.0
220
0.0
230
1.0
 70
    24
 71
     2
 72
     6
 73
     3
 74
     0
 42
0.0000000001
 43
0.0000000001
 40
0.0
 40
0.0
 40
0.0
 40
1.000053706527325
 40
1.000053706527325
 40
1.000053706527325
 10
-8.52851168581995
 20
24.12497328439122
 30
0.0
 10
-8.528511685819957
 20
24.62500013765489
 30
0.0
 10
-8.528511685819957
 20
25.12502699091855
 30
0.0
  0
POLYLINE
  5
92
330
1F
100
AcDbEntity
  8
FRAME
100
AcDb2dPolyline
 66
     1
 10
0.0
 20
0.0
 30
0.0
  0
VERTEX
  5
93
330
92
100
AcDbEntity
  8
FRAME
100
AcDbVertex
100
AcDb2dVertex
 10
-9.315913260622906
 20
24.12497328439122
 30
0.0
  0
VERTEX
  5
94
330
92
100
AcDbEntity
  8
FRAME
100
AcDbVertex
100
AcDb2dVertex
 10
-8.52851168581995
 20
24.12497328439122
 30
0.0
  0
SEQEND
  5
95
330
92
100
AcDbEntity
  8
FRAME
  0
SPLINE
  5
96
330
1F
100
AcDbEntity
  8
FRAME
100
AcDbSpline
210
0.0
220
0.0
230
1.0
 70
    24
 71
     2
 72
     6
 73
     3
 74
     0
 42
0.0000000001
 43
0.0000000001
 40
0.0
 40
0.0
 40
0.0
 40
0.9999999999999645
 40
0.9999999999999645
 40
0.9999999999999645
 10
-24.37895250527497
 20
25.12502699091855
 30
0.0
 10
-24.3789525052075
 20
24.62502699091856
 30
0.0
 10
-24.37895250514003
 20
24.12502699091858
 30
0.0
  0
POLYLINE
  5
97
330
1F
100
AcDbEntity
  8
FRAME
100
AcDb2dPolyline
 66
     1
 10
0.0
 20
0.0
 30
0.0
  0
VERTEX
  5
98
330
97
100
AcDbEntity
  8
FRAME
100
AcDbVertex
100
AcDb2dVertex
 10
-23.5915509313624
 20
25.12502699091854
 30
0.0
  0
VERTEX
  5
99
330
97
100
AcDbEntity
  8
FRAME
100
AcDbVertex
100
AcDb2dVertex
 10
-24.37895250527497
 20
25.12502699091855
 30
0.0
  0
SEQEND
  5
9A
330
97
100
AcDbEntity
  8
FRAME
  0
SPLINE
  5
9B
330
1F
100
AcDbEntity
  8
FRAME
100
AcDbSpline
210
0.0
220
0.0
230
1.0
 70
    24
 71
     2
 72
     6
 73
     3
 74
     0
 42
0.0000000001
 43
0.0000000001
 40
0.0
 40
0.0
 40
0.0
 40
0.9999999999999645
 40
0.9999999999999645
 40
0.9999999999999645
 10
-23.59155093082748
 20
24.12502699091858
 30
0.0
 10
-23.59155093109494
 20
24.62502699091856
 30
0.0
 10
-23.5915509313624
 20
25.12502699091854
 30
0.0
  0
POLYLINE
  5
9C
330
1F
100
AcDbEntity
  8
FRAME
100
AcDb2dPolyline
 66
     1
 10
0.0
 20
0.0
 30
0.0
  0
VERTEX
  5
9D
330
9C
100
AcDbEntity
  8
FRAME
100
AcDbVertex
100
AcDb2dVertex
 10
-24.37895250514003
 20
24.12502699091858
 30
0.0
  0
VERTEX
  5
9E
330
9C
100
AcDbEntity
  8
FRAME
100
AcDbVertex
100
AcDb2dVertex
 10
-23.59155093082748
 20
24.12502699091858
 30
0.0
  0
SEQEND
  5
9F
330
9C
100
AcDbEntity
  8
FRAME
  0
SPLINE
  5
A0
330
1F
100
AcDbEntity
  8
FRAME
100
AcDbSpline
210
0.0
220
0.0
230
1.0
 70
    24
 71
     2
 72
     6
 73
     3
 74
     0
 42
0.0000000001
 43
0.0000000001
 40
0.0
 40
0.0
 40
0.0
 40
0.9999999999999787
 40
0.9999999999999787
 40
0.9999999999999787
 10
-35.40257455150407
 20
24.12502699091858
 30
0.0
 10
-35.40257455163901
 20
24.62502699091856
 30
0.0
 10
-35.40257455177395
 20
25.12502699091856
 30
0.0
  0
POLYLINE
  5
A1
330
1F
100
AcDbEntity
  8
FRAME
100
AcDb2dPolyline
 66
     1
 10
0.0
 20
0.0
 30
0.0
  0
VERTEX
  5
A2
330
A1
100
AcDbEntity
  8
FRAME
100
AcDbVertex
100
AcDb2dVertex
 10
-36.18997612635955
 20
24.12502699091858
 30
0.0
  0
VERTEX
  5
A3
330
A1
100
AcDbEntity
  8
FRAME
100
AcDbVertex
100
AcDb2dVertex
 10
-35.40257455150407
 20
24.12502699091858
 30
0.0
  0
SEQEND
  5
A4
330
A1
100
AcDbEntity
  8
FRAME
  0
SPLINE
  5
A5
330
1F
100
AcDbEntity
  8
FRAME
100
AcDbSpline
210
0.0
220
0.0
230
1.0
 70
    24
 71
     2
 72
     6
 73
     3
 74
     0
 42
0.0000000001
 43
0.0000000001
 40
0.0
 40
0.0
 40
0.0
 40
0.9999999999999716
 40
0.9999999999999716
 40
0.9999999999999716
 10
-36.18997612676438
 20
25.12502699091855
 30
0.0
 10
-36.18997612656197
 20
24.62502699091856
 30
0.0
 10
-36.18997612635955
 20
24.12502699091858
 30
0.0
  0
POLYLINE
  5
A6
330
1F
100
AcDbEntity
  8
FRAME
100
AcDb2dPolyline
 66
     1
 10
0.0
 20
0.0
 30
0.0
  0
VERTEX
  5
A7
330
A6
100
AcDbEntity
  8
FRAME
100
AcDbVertex
100
AcDb2dVertex
 10
-35.40257455177395
 20
25.12502699091856
 30
0.0
  0
VERTEX
  5
A8
330
A6
100
AcDbEntity
  8
FRAME
100
AcDbVertex
100
AcDb2dVertex
 10
-36.18997612676438
 20
25.12502699091855
 30
0.0
  0
SEQEND
  5
A9
330
A6
100
AcDbEntity
  8
FRAME
  0
SPLINE
  5
AA
330
1F
100
AcDbEntity
  8
FRAME
100
AcDbSpline
210
0.0
220
0.0
230
1.0
 70
    24
 71
     2
 72
     6
 73
     3
 74
     0
 42
0.0000000001
 43
0.0000000001
 40
-0.4999999999999982
 40
-0.4999999999999982
 40
-0.4999999999999982
 40
0.0
 40
0.0
 40
0.0
 10
-37.87500688856674
 20
22.81205758461011
 30
0.0
 10
-37.62500688856674
 20
22.81205758461011
 30
0.0
 10
-37.37500688856674
 20
22.81205758461011
 30
0.0
  0
POLYLINE
  5
AB
330
1F
100
AcDbEntity
  8
FRAME
100
AcDb2dPolyline
 66
     1
 10
0.0
 20
0.0
 30
0.0
  0
VERTEX
  5
AC
330
AB
100
AcDbEntity
  8
FRAME
100
AcDbVertex
100
AcDb2dVertex
 10
-37.87500688856674
 20
22.02465600980718
 30
0.0
  0
VERTEX
  5
AD
330
AB
100
AcDbEntity
  8
FRAME
100
AcDbVertex
100
AcDb2dVertex
 10
-37.87500688856674
 20
22.81205758461011
 30
0.0
  0
SEQEND
  5
AE
330
AB
100
AcDbEntity
  8
FRAME
  0
SPLINE
  5
AF
330
1F
100
AcDbEntity
  8
FRAME
100
AcDbSpline
210
0.0
220
0.0
230
1.0
 70
    24
 71
     2
 72
     6
 73
     3
 74
     0
 42
0.0000000001
 43
0.0000000001
 40
0.0
 40
0.0
 40
0.0
 40
0.5000000000000009
 40
0.5000000000000009
 40
0.5000000000000009
 10
-37.37500688856674
 20
22.02465600980718
 30
0.0
 10
-37.62500688856674
 20
22.02465600980718
 30
0.0
 10
-37.87500688856674
 20
22.02465600980718
 30
0.0
  0
POLYLINE
  5
B0
330
1F
100
AcDbEntity
  8
FRAME
100
AcDb2dPolyline
 66
     1
 10
0.0
 20
0.0
 30
0.0
  0
VERTEX
  5
B1
330
B0
100
AcDbEntity
  8
FRAME
100
AcDbVertex
100
AcDb2dVertex
 10
-37.37500688856674
 20
22.81205758461011
 30
0.0
  0
VERTEX
  5
B2
330
B0
100
AcDbEntity
  8
FRAME
100
AcDbVertex
100
AcDb2dVertex
 10
-37.37500688856674
 20
22.02465600980718
 30
0.0
  0
SEQEND
  5
B3
330
B0
100
AcDbEntity
  8
FRAME
  0
ENDSEC
  0
SECTION
  2
OBJECTS
  0
DICTIONARY
  5
C
330
0
100
AcDbDictionary
281
     1
  3
ACAD_GROUP
350
D
  3
ACAD_LAYOUT
350
1A
  3
ACAD_MLEADERSTYLE
350
B5
  3
ACAD_MLINESTYLE
350
17
  3
ACAD_PLOTSETTINGS
350
19
  3
ACAD_PLOTSTYLENAME
350
E
  3
ACAD_TABLESTYLE
350
B4
  3
ACAD_VISUALSTYLE
350
2A
  0
DICTIONARY
  5
D
102
{ACAD_REACTORS
330
C
102
}
330
C
100
AcDbDictionary
281
     1
  0
DICTIONARY
  5
1A
102
{ACAD_REACTORS
330
C
102
}
330
C
100
AcDbDictionary
281
     1
  3
Layout1
350
1E
  3
Layout2
350
26
  3
Model
350
22
  0
DICTIONARY
  5
B5
102
{ACAD_REACTORS
330
C
102
}
330
C
100
AcDbDictionary
281
     1
  0
DICTIONARY
  5
17
102
{ACAD_REACTORS
330
C
102
}
330
C
100
AcDbDictionary
281
     1
  3
Standard
350
18
  0
DICTIONARY
  5
19
102
{ACAD_REACTORS
330
C
102
}
330
C
100
AcDbDictionary
281
     1
  0
ACDBDICTIONARYWDFLT
  5
E
102
{ACAD_REACTORS
330
C
102
}
330
C
100
AcDbDictionary
281
     1
  3
Normal
350
F
100
AcDbDictionaryWithDefault
340
F
  0
DICTIONARY
  5
B4
102
{ACAD_REACTORS
330
C
102
}
330
C
100
AcDbDictionary
281
     1
  0
DICTIONARY
  5
2A
102
{ACAD_REACTORS
330
C
102
}
330
C
100
AcDbDictionary
281
     1
  3
2dWireframe
350
2F
  3
3D Hidden
350
31
  3
3dWireframe
350
30
  3
Basic
350
32
  3
Brighten
350
36
  3
ColorChange
350
3A
  3
Conceptual
350
34
  3
Dim
350
35
  3
Facepattern
350
39
  3
Flat
350
2B
  3
FlatWithEdges
350
2C
  3
Gouraud
350
2D
  3
GouraudWithEdges
350
2E
  3
Linepattern
350
38
  3
Realistic
350
33
  3
Thicken
350
37
  0
LAYOUT
  5
1E
102
{ACAD_REACTORS
330
1A
102
}
330
1A
100
AcDbPlotSettings
  1

  2
none_device
  4

  6

 40
0.0
 41
0.0
 42
0.0
 43
0.0
 44
0.0
 45
0.0
 46
0.0
 47
0.0
 48
0.0
 49
0.0
140
0.0
141
0.0
142
1.0
143
1.0
 70
   688
 72
     0
 73
     0
 74
     5
  7

 75
    16
 76
     0
 77
     2
 78
   300
147
1.0
148
0.0
149
0.0
100
AcDbLayout
  1
Layout1
 70
     1
 71
     1
 10
0.0
 20
0.0
 11
12.0
 21
9.0
 12
0.0
 22
0.0
 32
0.0
 14
1.000000000000000E+20
 24
1.000000000000000E+20
 34
1.000000000000000E+20
 15
-1.000000000000000E+20
 25
-1.000000000000000E+20
 35
-1.000000000000000E+20
146
0.0
 13
0.0
 23
0.0
 33
0.0
 16
1.0
 26
0.0
 36
0.0
 17
0.0
 27
1.0
 37
0.0
 76
     0
330
1B
  0
LAYOUT
  5
26
102
{ACAD_REACTORS
330
1A
102
}
330
1A
100
AcDbPlotSettings
  1

  2
none_device
  4

  6

 40
0.0
 41
0.0
 42
0.0
 43
0.0
 44
0.0
 45
0.0
 46
0.0
 47
0.0
 48
0.0
 49
0.0
140
0.0
141
0.0
142
1.0
143
1.0
 70
   688
 72
     0
 73
     0
 74
     5
  7

 75
    16
 76
     0
 77
     2
 78
   300
147
1.0
148
0.0
149
0.0
100
AcDbLayout
  1
Layout2
 70
     1
 71
     2
 10
0.0
 20
0.0
 11
0.0
 21
0.0
 12
0.0
 22
0.0
 32
0.0
 14
0.0
 24
0.0
 34
0.0
 15
0.0
 25
0.0
 35
0.0
146
0.0
 13
0.0
 23
0.0
 33
0.0
 16
1.0
 26
0.0
 36
0.0
 17
0.0
 27
1.0
 37
0.0
 76
     0
330
23
  0
LAYOUT
  5
22
102
{ACAD_REACTORS
330
1A
102
}
330
1A
100
AcDbPlotSettings
  1

  2
none_device
  4

  6

 40
0.0
 41
0.0
 42
0.0
 43
0.0
 44
0.0
 45
0.0
 46
0.0
 47
0.0
 48
0.0
 49
0.0
140
0.0
141
0.0
142
1.0
143
1.0
 70
  1712
 72
     0
 73
     0
 74
     0
  7

 75
     0
 76
     0
 77
     2
 78
   300
147
1.0
148
0.0
149
0.0
100
AcDbLayout
  1
Model
 70
     1
 71
     0
 10
0.0
 20
0.0
 11
12.0
 21
9.0
 12
0.0
 22
0.0
 32
0.0
 14
-44.62500688856674
 24
-31.87502701637498
 34
0.0
 15
44.62500691402203
 25
31.87502699091855
 35
0.0
146
0.0
 13
0.0
 23
0.0
 33
0.0
 16
1.0
 26
0.0
 36
0.0
 17
0.0
 27
1.0
 37
0.0
 76
     0
330
1F
331
29
  0
MLINESTYLE
  5
18
102
{ACAD_REACTORS
330
17
102
}
330
17
100
AcDbMlineStyle
  2
Standard
 70
     0
  3

 62
   256
 51
90.0
 52
90.0
 71
     2
 49
0.5
 62
   256
  6
BYLAYER
 49
-0.5
 62
   256
  6
BYLAYER
  0
ACDBPLACEHOLDER
  5
F
102
{ACAD_REACTORS
330
E
102
}
330
E
  0
VISUALSTYLE
  5
2F
102
{ACAD_REACTORS
330
2A
102
}
330
2A
100
AcDbVisualStyle
  2
2dWireframe
 70
     4
 71
     0
 72
     2
 73
     0
 90
        0
 40
-0.6
 41
-30.0
 62
     5
 63
     7
421
 16777215
 74
     1
 91
        4
 64
     7
 65
   257
 75
     1
175
     1
 42
1.0
 92
        0
 66
   257
 43
1.0
 76
     1
 77
     6
 78
     2
 67
     7
 79
     5
170
     0
171
     0
290
     0
174
     0
 93
        1
 44
0.0
173
     0
291
     0
 45
0.0
1001
ACAD
1000
AcDbSavedByObjectVersion
1070
     0
  0
VISUALSTYLE
  5
31
102
{ACAD_REACTORS
330
2A
102
}
330
2A
100
AcDbVisualStyle
  2
3D Hidden
 70
     6
 71
     1
 72
     2
 73
     2
 90
        0
 40
-0.6
 41
-30.0
 62
     5
 63
     7
421
 16777215
 74
     2
 91
        2
 64
     7
 65
   257
 75
     2
175
     1
 42
40.0
 92
        0
 66
   257
 43
1.0
 76
     1
 77
     6
 78
     2
 67
     7
 79
     3
170
     0
171
     0
290
     0
174
     0
 93
        1
 44
0.0
173
     0
291
     0
 45
0.0
1001
ACAD
1000
AcDbSavedByObjectVersion
1070
     0
  0
VISUALSTYLE
  5
30
102
{ACAD_REACTORS
330
2A
102
}
330
2A
100
AcDbVisualStyle
  2
3dWireframe
 70
     5
 71
     0
 72
     2
 73
     0
 90
        0
 40
-0.6
 41
-30.0
 62
     5
 63
     7
421
 16777215
 74
     1
 91
        4
 64
     7
 65
   257
 75
     1
175
     1
 42
1.0
 92
        0
 66
   257
 43
1.0
 76
     1
 77
     6
 78
     2
 67
     7
 79
     5
170
     0
171
     0
290
     0
174
     0
 93
        1
 44
0.0
173
     0
291
     0
 45
0.0
1001
ACAD
1000
AcDbSavedByObjectVersion
1070
     0
  0
VISUALSTYLE
  5
32
102
{ACAD_REACTORS
330
2A
102
}
330
2A
100
AcDbVisualStyle
  2
Basic
 70
     7
 71
     1
 72
     0
 73
     1
 90
        0
 40
-0.6
 41
-30.0
 62
     5
 63
     7
421
 16777215
 74
     0
 91
        4
 64
     7
 65
   257
 75
     1
175
     1
 42
1.0
 92
        8
 66
     7
 43
1.0
 76
     1
 77
     6
 78
     2
 67
     7
 79
     5
170
     0
171
     0
290
     0
174
     0
 93
        1
 44
0.0
173
     0
291
     1
 45
0.0
1001
ACAD
1000
AcDbSavedByObjectVersion
1070
     0
  0
VISUALSTYLE
  5
36
102
{ACAD_REACTORS
330
2A
102
}
330
2A
100
AcDbVisualStyle
  2
Brighten
 70
    12
 71
     2
 72
     2
 73
     0
 90
        0
 40
-0.6
 41
-30.0
 62
     5
 63
     7
421
 16777215
 74
     1
 91
        4
 64
     7
 65
   257
 75
     1
175
     1
 42
1.0
 92
        8
 66
     7
 43
1.0
 76
     1
 77
     6
 78
     2
 67
     7
 79
     5
170
     0
171
     0
290
     0
174
     0
 93
        1
 44
50.0
173
     0
291
     1
 45
0.0
1001
ACAD
1000
AcDbSavedByObjectVersion
1070
     0
  0
VISUALSTYLE
  5
3A
102
{ACAD_REACTORS
330
2A
102
}
330
2A
100
AcDbVisualStyle
  2
ColorChange
 70
    16
 71
     2
 72
     2
 73
     3
 90
        0
 40
-0.6
 41
-30.0
 62
     5
 63
     8
421
  8421504
 74
     1
 91
        4
 64
     7
 65
   257
 75
     1
175
     1
 42
1.0
 92
        8
 66
     8
424
  8421504
 43
1.0
 76
     1
 77
     6
 78
     2
 67
     7
 79
     5
170
     0
171
     0
290
     0
174
     0
 93
        1
 44
0.0
173
     0
291
     1
 45
0.0
1001
ACAD
1000
AcDbSavedByObjectVersion
1070
     0
  0
VISUALSTYLE
  5
34
102
{ACAD_REACTORS
330
2A
102
}
330
2A
100
AcDbVisualStyle
  2
Conceptual
 70
     9
 71
     3
 72
     2
 73
     0
 90
        0
 40
-0.6
 41
-30.0
 62
     5
 63
     7
421
 16777215
 74
     2
 91
        2
 64
     7
 65
   257
 75
     1
175
     1
 42
40.0
 92
        8
 66
     7
 43
1.0
 76
     1
 77
     6
 78
     2
 67
     7
 79
     3
170
     0
171
     0
290
     0
174
     0
 93
        1
 44
0.0
173
     0
291
     0
 45
0.0
1001
ACAD
1000
AcDbSavedByObjectVersion
1070
     0
  0
VISUALSTYLE
  5
35
102
{ACAD_REACTORS
330
2A
102
}
330
2A
100
AcDbVisualStyle
  2
Dim
 70
    11
 71
     2
 72
     2
 73
     0
 90
        0
 40
-0.6
 41
-30.0
 62
     5
 63
     7
421
 16777215
 74
     1
 91
        4
 64
     7
 65
   257
 75
     1
175
     1
 42
1.0
 92
        8
 66
     7
 43
1.0
 76
     1
 77
     6
 78
     2
 67
     7
 79
     5
170
     0
171
     0
290
     0
174
     0
 93
        1
 44
-50.0
173
     0
291
     1
 45
0.0
1001
ACAD
1000
AcDbSavedByObjectVersion
1070
     0
  0
VISUALSTYLE
  5
39
102
{ACAD_REACTORS
330
2A
102
}
330
2A
100
AcDbVisualStyle
  2
Facepattern
 70
    15
 71
     2
 72
     2
 73
     0
 90
        0
 40
-0.6
 41
-30.0
 62
     5
 63
     7
421
 16777215
 74
     1
 91
        4
 64
     7
 65
   257
 75
     1
175
     1
 42
1.0
 92
        8
 66
     7
 43
1.0
 76
     1
 77
     6
 78
     2
 67
     7
 79
     5
170
     0
171
     0
290
     0
174
     0
 93
        1
 44
0.0
173
     0
291
     1
 45
0.0
1001
ACAD
1000
AcDbSavedByObjectVersion
1070
     0
  0
VISUALSTYLE
  5
2B
102
{ACAD_REACTORS
330
2A
102
}
330
2A
100
AcDbVisualStyle
  2
Flat
 70
     0
 71
     2
 72
     1
 73
     1
 90
        2
 40
-0.6
 41
30.0
 62
     5
 63
     7
421
 16777215
 74
     0
 91
        4
 64
     7
 65
   257
 75
     1
175
     1
 42
1.0
 92
        8
 66
     7
 43
1.0
 76
     1
 77
     6
 78
     2
 67
     7
 79
     5
170
     0
171
     0
290
     0
174
     0
 93
       13
 44
0.0
173
     0
291
     1
 45
0.0
1001
ACAD
1000
AcDbSavedByObjectVersion
1070
     0
  0
VISUALSTYLE
  5
2C
102
{ACAD_REACTORS
330
2A
102
}
330
2A
100
AcDbVisualStyle
  2
FlatWithEdges
 70
     1
 71
     2
 72
     1
 73
     1
 90
        2
 40
-0.6
 41
30.0
 62
     5
 63
     7
421
 16777215
 74
     1
 91
        4
 64
     7
 65
   257
 75
     1
175
     1
 42
1.0
 92
        0
 66
   257
 43
1.0
 76
     1
 77
     6
 78
     2
 67
     7
 79
     5
170
     0
171
     0
290
     0
174
     0
 93
       13
 44
0.0
173
     0
291
     1
 45
0.0
1001
ACAD
1000
AcDbSavedByObjectVersion
1070
     0
  0
VISUALSTYLE
  5
2D
102
{ACAD_REACTORS
330
2A
102
}
330
2A
100
AcDbVisualStyle
  2
Gouraud
 70
     2
 71
     2
 72
     2
 73
     1
 90
        2
 40
-0.6
 41
30.0
 62
     5
 63
     7
421
 16777215
 74
     0
 91
        4
 64
     7
 65
   257
 75
     1
175
     1
 42
1.0
 92
        0
 66
     7
 43
1.0
 76
     1
 77
     6
 78
     2
 67
     7
 79
     5
170
     0
171
     0
290
     0
174
     0
 93
       13
 44
0.0
173
     0
291
     1
 45
0.0
1001
ACAD
1000
AcDbSavedByObjectVersion
1070
     0
  0
VISUALSTYLE
  5
2E
102
{ACAD_REACTORS
330
2A
102
}
330
2A
100
AcDbVisualStyle
  2
GouraudWithEdges
 70
     3
 71
     2
 72
     2
 73
     1
 90
        2
 40
-0.6
 41
30.0
 62
     5
 63
     7
421
 16777215
 74
     1
 91
        4
 64
     7
 65
   257
 75
     1
175
     1
 42
1.0
 92
        0
 66
   257
 43
1.0
 76
     1
 77
     6
 78
     2
 67
     7
 79
     5
170
     0
171
     0
290
     0
174
     0
 93
       13
 44
0.0
173
     0
291
     1
 45
0.0
1001
ACAD
1000
AcDbSavedByObjectVersion
1070
     0
  0
VISUALSTYLE
  5
38
102
{ACAD_REACTORS
330
2A
102
}
330
2A
100
AcDbVisualStyle
  2
Linepattern
 70
    14
 71
     2
 72
     2
 73
     0
 90
        0
 40
-0.6
 41
-30.0
 62
     5
 63
     7
421
 16777215
 74
     1
 91
        4
 64
     7
 65
   257
 75
     7
175
     7
 42
1.0
 92
        8
 66
     7
 43
1.0
 76
     1
 77
     6
 78
     2
 67
     7
 79
     5
170
     0
171
     0
290
     0
174
     0
 93
        1
 44
0.0
173
     0
291
     1
 45
0.0
1001
ACAD
1000
AcDbSavedByObjectVersion
1070
     0
  0
VISUALSTYLE
  5
33
102
{ACAD_REACTORS
330
2A
102
}
330
2A
100
AcDbVisualStyle
  2
Realistic
 70
     8
 71
     2
 72
     2
 73
     0
 90
        0
 40
-0.6
 41
-30.0
 62
     5
 63
     7
421
 16777215
 74
     1
 91
        0
 64
     7
 65
   257
 75
     1
175
     1
 42
1.0
 92
        8
 66
     8
424
  7895160
 43
1.0
 76
     1
 77
     6
 78
     2
 67
     7
 79
     5
170
     0
171
     0
290
     0
174
     0
 93
       13
 44
0.0
173
     0
291
     0
 45
0.0
1001
ACAD
1000
AcDbSavedByObjectVersion
1070
     0
  0
VISUALSTYLE
  5
37
102
{ACAD_REACTORS
330
2A
102
}
330
2A
100
AcDbVisualStyle
  2
Thicken
 70
    13
 71
     2
 72
     2
 73
     0
 90
        0
 40
-0.6
 41
-30.0
 62
     5
 63
     7
421
 16777215
 74
     1
 91
        4
 64
     7
 65
   257
 75
     1
175
     1
 42
1.0
 92
       12
 66
     7
 43
1.0
 76
     1
 77
     6
 78
     2
 67
     7
 79
     5
170
     0
171
     0
290
     0
174
     0
 93
        1
 44
0.0
173
     0
291
     1
 45
0.0
1001
ACAD
1000
AcDbSavedByObjectVersion
1070
     0
  0
ENDSEC
  0
EOF
