  0
SECTION
  2
HEADER
  9
$ACADVER
  1
AC1018
  9
$ACADMAINTVER
 70
     0
  9
$DWGCODEPAGE
  3
ANSI_1252
  9
$INSBASE
 10
0.0
 20
0.0
 30
0.0
  9
$EXTMIN
 10
-58.00000676363921
 20
-34.87502701637467
 30
0.0
  9
$EXTMAX
 10
58.00000673818391
 20
34.87502699091824
 30
0.0
  9
$LIMMIN
 10
0.0
 20
0.0
  9
$LIMMAX
 10
12.0
 20
9.0
  9
$ORTHOMODE
 70
     0
  9
$REGENMODE
 70
     1
  9
$FILLMODE
 70
     1
  9
$QTEXTMODE
 70
     0
  9
$MIRRTEXT
 70
     1
  9
$LTSCALE
 40
0.0393700787401575
  9
$ATTMODE
 70
     1
  9
$TEXTSIZE
 40
0.2
  9
$TRACEWID
 40
0.05
  9
$TEXTSTYLE
  7
Standard
  9
$CLAYER
  8
SEATS
  9
$CELTYPE
  6
ByLayer
  9
$CECOLOR
 62
   256
  9
$CELTSCALE
 40
1.0
  9
$DISPSILH
 70
     0
  9
$DIMSCALE
 40
1.0
  9
$DIMASZ
 40
0.18
  9
$DIMEXO
 40
0.0625
  9
$DIMDLI
 40
0.38
  9
$DIMRND
 40
0.0
  9
$DIMDLE
 40
0.0
  9
$DIMEXE
 40
0.18
  9
$DIMTP
 40
0.0
  9
$DIMTM
 40
0.0
  9
$DIMTXT
 40
0.18
  9
$DIMCEN
 40
0.09
  9
$DIMTSZ
 40
0.0
  9
$DIMTOL
 70
     0
  9
$DIMLIM
 70
     0
  9
$DIMTIH
 70
     1
  9
$DIMTOH
 70
     1
  9
$DIMSE1
 70
     0
  9
$DIMSE2
 70
     0
  9
$DIMTAD
 70
     0
  9
$DIMZIN
 70
     0
  9
$DIMBLK
  1

  9
$DIMASO
 70
     1
  9
$DIMSHO
 70
     1
  9
$DIMPOST
  1

  9
$DIMAPOST
  1

  9
$DIMALT
 70
     0
  9
$DIMALTD
 70
     2
  9
$DIMALTF
 40
25.4
  9
$DIMLFAC
 40
1.0
  9
$DIMTOFL
 70
     0
  9
$DIMTVP
 40
0.0
  9
$DIMTIX
 70
     0
  9
$DIMSOXD
 70
     0
  9
$DIMSAH
 70
     0
  9
$DIMBLK1
  1

  9
$DIMBLK2
  1

  9
$DIMSTYLE
  2
Standard
  9
$DIMCLRD
 70
     0
  9
$DIMCLRE
 70
     0
  9
$DIMCLRT
 70
     0
  9
$DIMTFAC
 40
1.0
  9
$DIMGAP
 40
0.09
  9
$DIMJUST
 70
     0
  9
$DIMSD1
 70
     0
  9
$DIMSD2
 70
     0
  9
$DIMTOLJ
 70
     1
  9
$DIMTZIN
 70
     0
  9
$DIMALTZ
 70
     0
  9
$DIMALTTZ
 70
     0
  9
$DIMUPT
 70
     0
  9
$DIMDEC
 70
     4
  9
$DIMTDEC
 70
     4
  9
$DIMALTU
 70
     2
  9
$DIMALTTD
 70
     2
  9
$DIMTXSTY
  7
Standard
  9
$DIMAUNIT
 70
     0
  9
$DIMADEC
 70
     0
  9
$DIMALTRND
 40
0.0
  9
$DIMAZIN
 70
     0
  9
$DIMDSEP
 70
    46
  9
$DIMATFIT
 70
     3
  9
$DIMFRAC
 70
     0
  9
$DIMLDRBLK
  1

  9
$DIMLUNIT
 70
     2
  9
$DIMLWD
 70
    -2
  9
$DIMLWE
 70
    -2
  9
$DIMTMOVE
 70
     2
  9
$LUNITS
 70
     2
  9
$LUPREC
 70
     3
  9
$SKETCHINC
 40
0.1
  9
$FILLETRAD
 40
0.5
  9
$AUNITS
 70
     0
  9
$AUPREC
 70
     0
  9
$MENU
  1
.
  9
$ELEVATION
 40
0.0
  9
$PELEVATION
 40
0.0
  9
$THICKNESS
 40
0.0
  9
$LIMCHECK
 70
     0
  9
$CHAMFERA
 40
0.5
  9
$CHAMFERB
 40
0.5
  9
$CHAMFERC
 40
1.0
  9
$CHAMFERD
 40
0.0
  9
$SKPOLY
 70
     0
  9
$TDCREATE
 40
2457539.944407871
  9
$TDUCREATE
 40
2457540.111074537
  9
$TDUPDATE
 40
2457539.944407882
  9
$TDUUPDATE
 40
2457540.111074549
  9
$TDINDWG
 40
0.0000000116
  9
$TDUSRTIMER
 40
0.0000000116
  9
$USRTIMER
 70
     1
  9
$ANGBASE
 50
0.0
  9
$ANGDIR
 70
     0
  9
$PDMODE
 70
     0
  9
$PDSIZE
 40
0.0
  9
$PLINEWID
 40
0.0
  9
$SPLFRAME
 70
     0
  9
$SPLINETYPE
 70
     6
  9
$SPLINESEGS
 70
     8
  9
$HANDSEED
  5
AE
  9
$SURFTAB1
 70
     6
  9
$SURFTAB2
 70
     6
  9
$SURFTYPE
 70
     6
  9
$SURFU
 70
     6
  9
$SURFV
 70
     6
  9
$UCSBASE
  2

  9
$UCSNAME
  2

  9
$UCSORG
 10
0.0
 20
0.0
 30
0.0
  9
$UCSXDIR
 10
1.0
 20
0.0
 30
0.0
  9
$UCSYDIR
 10
0.0
 20
1.0
 30
0.0
  9
$UCSORTHOREF
  2

  9
$UCSORTHOVIEW
 70
     0
  9
$UCSORGTOP
 10
0.0
 20
0.0
 30
0.0
  9
$UCSORGBOTTOM
 10
0.0
 20
0.0
 30
0.0
  9
$UCSORGLEFT
 10
0.0
 20
0.0
 30
0.0
  9
$UCSORGRIGHT
 10
0.0
 20
0.0
 30
0.0
  9
$UCSORGFRONT
 10
0.0
 20
0.0
 30
0.0
  9
$UCSORGBACK
 10
0.0
 20
0.0
 30
0.0
  9
$PUCSBASE
  2

  9
$PUCSNAME
  2

  9
$PUCSORG
 10
0.0
 20
0.0
 30
0.0
  9
$PUCSXDIR
 10
1.0
 20
0.0
 30
0.0
  9
$PUCSYDIR
 10
0.0
 20
1.0
 30
0.0
  9
$PUCSORTHOREF
  2

  9
$PUCSORTHOVIEW
 70
     0
  9
$PUCSORGTOP
 10
0.0
 20
0.0
 30
0.0
  9
$PUCSORGBOTTOM
 10
0.0
 20
0.0
 30
0.0
  9
$PUCSORGLEFT
 10
0.0
 20
0.0
 30
0.0
  9
$PUCSORGRIGHT
 10
0.0
 20
0.0
 30
0.0
  9
$PUCSORGFRONT
 10
0.0
 20
0.0
 30
0.0
  9
$PUCSORGBACK
 10
0.0
 20
0.0
 30
0.0
  9
$USERI1
 70
     0
  9
$USERI2
 70
     0
  9
$USERI3
 70
     0
  9
$USERI4
 70
     0
  9
$USERI5
 70
     0
  9
$USERR1
 40
0.0
  9
$USERR2
 40
0.0
  9
$USERR3
 40
0.0
  9
$USERR4
 40
0.0
  9
$USERR5
 40
0.0
  9
$WORLDVIEW
 70
     1
  9
$SHADEDGE
 70
     3
  9
$SHADEDIF
 70
    70
  9
$TILEMODE
 70
     1
  9
$MAXACTVP
 70
    64
  9
$PINSBASE
 10
0.0
 20
0.0
 30
0.0
  9
$PLIMCHECK
 70
     0
  9
$PEXTMIN
 10
1.000000000000000E+20
 20
1.000000000000000E+20
 30
1.000000000000000E+20
  9
$PEXTMAX
 10
-1.000000000000000E+20
 20
-1.000000000000000E+20
 30
-1.000000000000000E+20
  9
$PLIMMIN
 10
0.0
 20
0.0
  9
$PLIMMAX
 10
12.0
 20
9.0
  9
$UNITMODE
 70
     0
  9
$VISRETAIN
 70
     1
  9
$PLINEGEN
 70
     0
  9
$PSLTSCALE
 70
     1
  9
$TREEDEPTH
 70
  3020
  9
$CMLSTYLE
  2
Standard
  9
$CMLJUST
 70
     0
  9
$CMLSCALE
 40
1.0
  9
$PROXYGRAPHICS
 70
     1
  9
$MEASUREMENT
 70
     0
  9
$CELWEIGHT
370
    -1
  9
$ENDCAPS
280
     0
  9
$JOINSTYLE
280
     0
  9
$LWDISPLAY
290
     0
  9
$INSUNITS
 70
     1
  9
$HYPERLINKBASE
  1

  9
$STYLESHEET
  1

  9
$XEDIT
290
     1
  9
$CEPSNTYPE
380
     0
  9
$PSTYLEMODE
290
     1
  9
$FINGERPRINTGUID
  2
{34A0D9B2-BA7C-4217-890B-5F40A41AF6D7}
  9
$VERSIONGUID
  2
{FAEB1C32-E019-11D5-929B-00C0DF256EC4}
  9
$EXTNAMES
290
     1
  9
$PSVPSCALE
 40
0.0
  9
$OLESTARTUP
290
     0
  9
$SORTENTS
280
   127
  9
$INDEXCTL
280
     0
  9
$HIDETEXT
280
     1
  9
$XCLIPFRAME
290
     0
  9
$HALOGAP
280
     0
  9
$OBSCOLOR
 70
   257
  9
$OBSLTYPE
280
     0
  9
$INTERSECTIONDISPLAY
280
     0
  9
$INTERSECTIONCOLOR
 70
   257
  9
$DIMASSOC
280
     2
  9
$PROJECTNAME
  1

  0
ENDSEC
  0
SECTION
  2
CLASSES
  0
CLASS
  1
ACDBDICTIONARYWDFLT
  2
AcDbDictionaryWithDefault
  3
ObjectDBX Classes
 90
        0
 91
        4
280
     0
281
     0
  0
CLASS
  1
VISUALSTYLE
  2
AcDbVisualStyle
  3
ObjectDBX Classes
 90
     4095
 91
        4
280
     0
281
     0
  0
ENDSEC
  0
SECTION
  2
TABLES
  0
TABLE
  2
VPORT
  5
8
330
0
100
AcDbSymbolTable
 70
     1
  0
VPORT
  5
29
330
8
100
AcDbSymbolTableRecord
100
AcDbViewportTableRecord
  2
*Active
 70
     0
 10
0.0
 20
0.0
 11
1.0
 21
1.0
 12
-0.0000000127276536
 22
-0.0000000127282149
 13
0.0
 23
0.0
 14
0.5
 24
0.5
 15
0.5
 25
0.5
 16
0.0
 26
0.0
 36
1.0
 17
0.0
 27
0.0
 37
0.0
 40
71.14505508743876
 41
1.663081343129776
 42
50.0
 43
0.0
 44
0.0
 50
0.0
 51
0.0
 71
     0
 72
   100
 73
     1
 74
     3
 75
     0
 76
     0
 77
     0
 78
     0
281
     0
 65
     1
110
0.0
120
0.0
130
0.0
111
1.0
121
0.0
131
0.0
112
0.0
122
1.0
132
0.0
 79
     0
146
0.0
  0
ENDTAB
  0
TABLE
  2
LTYPE
  5
5
330
0
100
AcDbSymbolTable
 70
     1
  0
LTYPE
  5
14
330
5
100
AcDbSymbolTableRecord
100
AcDbLinetypeTableRecord
  2
ByBlock
 70
     0
  3

 72
    65
 73
     0
 40
0.0
  0
LTYPE
  5
15
330
5
100
AcDbSymbolTableRecord
100
AcDbLinetypeTableRecord
  2
ByLayer
 70
     0
  3

 72
    65
 73
     0
 40
0.0
  0
LTYPE
  5
16
330
5
100
AcDbSymbolTableRecord
100
AcDbLinetypeTableRecord
  2
Continuous
 70
     0
  3
Solid line
 72
    65
 73
     0
 40
0.0
  0
ENDTAB
  0
TABLE
  2
LAYER
  5
2
330
0
100
AcDbSymbolTable
 70
     5
  0
LAYER
  5
10
330
2
100
AcDbSymbolTableRecord
100
AcDbLayerTableRecord
  2
0
 70
     0
 62
     7
  6
Continuous
370
    -3
390
F
  0
LAYER
  5
3B
330
2
100
AcDbSymbolTableRecord
100
AcDbLayerTableRecord
  2
SEATS
 70
     0
 62
   251
  6
Continuous
370
    -3
390
F
  0
LAYER
  5
3D
330
2
100
AcDbSymbolTableRecord
100
AcDbLayerTableRecord
  2
FRAME
 70
     0
 62
    15
  6
Continuous
370
    -3
390
F
  0
LAYER
  5
83
330
2
100
AcDbSymbolTableRecord
100
AcDbLayerTableRecord
  2
BACKS
 70
     0
 62
   253
  6
Continuous
370
    -3
390
F
  0
LAYER
  5
A3
330
2
100
AcDbSymbolTableRecord
100
AcDbLayerTableRecord
  2
TABLE
 70
     0
 62
     7
  6
Continuous
370
    -3
390
F
  0
ENDTAB
  0
TABLE
  2
STYLE
  5
3
330
0
100
AcDbSymbolTable
 70
     1
  0
STYLE
  5
11
330
3
100
AcDbSymbolTableRecord
100
AcDbTextStyleTableRecord
  2
Standard
 70
     0
 40
0.0
 41
1.0
 50
0.0
 71
     0
 42
0.2
  3
txt
  4

  0
ENDTAB
  0
TABLE
  2
VIEW
  5
6
330
0
100
AcDbSymbolTable
 70
     0
  0
ENDTAB
  0
TABLE
  2
UCS
  5
7
330
0
100
AcDbSymbolTable
 70
     0
  0
ENDTAB
  0
TABLE
  2
APPID
  5
9
330
0
100
AcDbSymbolTable
 70
     1
  0
APPID
  5
12
330
9
100
AcDbSymbolTableRecord
100
AcDbRegAppTableRecord
  2
ACAD
 70
     0
  0
ENDTAB
  0
TABLE
  2
DIMSTYLE
  5
A
330
0
100
AcDbSymbolTable
 70
     1
100
AcDbDimStyleTable
  0
DIMSTYLE
105
27
330
A
100
AcDbSymbolTableRecord
100
AcDbDimStyleTableRecord
  2
Standard
 70
     0
340
11
  0
ENDTAB
  0
TABLE
  2
BLOCK_RECORD
  5
1
330
0
100
AcDbSymbolTable
 70
     1
  0
BLOCK_RECORD
  5
1F
330
1
100
AcDbSymbolTableRecord
100
AcDbBlockTableRecord
  2
*Model_Space
340
22
  0
BLOCK_RECORD
  5
1B
330
1
100
AcDbSymbolTableRecord
100
AcDbBlockTableRecord
  2
*Paper_Space
340
1E
  0
BLOCK_RECORD
  5
23
330
1
100
AcDbSymbolTableRecord
100
AcDbBlockTableRecord
  2
*Paper_Space0
340
26
  0
ENDTAB
  0
ENDSEC
  0
SECTION
  2
BLOCKS
  0
BLOCK
  5
20
330
1F
100
AcDbEntity
  8
0
100
AcDbBlockBegin
  2
*Model_Space
 70
     0
 10
0.0
 20
0.0
 30
0.0
  3
*Model_Space
  1

  0
ENDBLK
  5
21
330
1F
100
AcDbEntity
  8
0
100
AcDbBlockEnd
  0
BLOCK
  5
1C
330
1B
100
AcDbEntity
 67
     1
  8
0
100
AcDbBlockBegin
  2
*Paper_Space
 70
     0
 10
0.0
 20
0.0
 30
0.0
  3
*Paper_Space
  1

  0
ENDBLK
  5
1D
330
1B
100
AcDbEntity
 67
     1
  8
0
100
AcDbBlockEnd
  0
BLOCK
  5
24
330
23
100
AcDbEntity
  8
0
100
AcDbBlockBegin
  2
*Paper_Space0
 70
     0
 10
0.0
 20
0.0
 30
0.0
  3
*Paper_Space0
  1

  0
ENDBLK
  5
25
330
23
100
AcDbEntity
  8
0
100
AcDbBlockEnd
  0
ENDSEC
  0
SECTION
  2
ENTITIES
  0
SPLINE
  5
3C
330
1F
100
AcDbEntity
  8
SEATS
100
AcDbSpline
210
0.0
220
0.0
230
1.0
 70
    15
 71
     2
 72
    20
 73
    17
 74
     0
 42
0.0000000001
 43
0.0000000001
 40
-1.570796326794897
 40
-1.570796326794897
 40
-1.570796326794897
 40
0.0
 40
0.0
 40
87.75
 40
87.75
 40
89.32079632679489
 40
89.32079632679489
 40
106.3207963267949
 40
106.3207963267949
 40
107.8915926535898
 40
107.8915926535898
 40
195.6415926535898
 40
195.6415926535898
 40
197.2123889803847
 40
197.2123889803847
 40
214.2570229592997
 40
214.2570229592997
 40
214.2570229592997
 10
31.75000673818396
 20
9.124972983625327
 30
0.0
 41
1.0
 10
31.75000673818395
 20
8.124972983625327
 30
0.0
 41
0.7071067811865476
 10
30.75000673818396
 20
8.124972983625327
 30
0.0
 41
1.0
 10
-13.12499326181604
 20
8.124972983625327
 30
0.0
 41
1.0
 10
-56.99999326181604
 20
8.124972983625327
 30
0.0
 41
1.0
 10
-57.99999326181604
 20
8.124972983625328
 30
0.0
 41
0.7071067811865475
 10
-57.99999326181604
 20
9.124972983625327
 30
0.0
 41
1.0
 10
-57.99999326181604
 20
17.62497298362533
 30
0.0
 41
1.0
 10
-57.99999326181604
 20
26.12497298362533
 30
0.0
 41
1.0
 10
-57.99999326181604
 20
27.12497298362533
 30
0.0
 41
0.7071067811865476
 10
-56.99999326181604
 20
27.12497298362533
 30
0.0
 41
1.0
 10
-13.12499326181604
 20
27.12497298362533
 30
0.0
 41
1.0
 10
30.75000673818396
 20
27.12497298362533
 30
0.0
 41
1.0
 10
31.75000673818395
 20
27.12497298362533
 30
0.0
 41
0.7071067811865476
 10
31.75000673818396
 20
26.12497298362533
 30
0.0
 41
1.0
 10
31.75000673818396
 20
17.602682861551
 30
0.0
 41
1.0
 10
31.75000673818396
 20
9.124972983625327
 30
0.0
 41
1.0
  0
SPLINE
  5
3E
330
1F
100
AcDbEntity
  8
FRAME
100
AcDbSpline
210
0.0
220
0.0
230
1.0
 70
    28
 71
     2
 72
     6
 73
     3
 74
     0
 42
0.0000000001
 43
0.0000000001
 40
-116.7272722518027
 40
-116.7272722518027
 40
-116.7272722518027
 40
-115.9398706769998
 40
-115.9398706769998
 40
-115.9398706769998
 10
-48.16431366360308
 20
27.12497298362533
 30
0.0
 41
1.0
 10
-48.55801445100457
 20
27.12497298362533
 30
0.0
 41
1.0
 10
-48.95171523840605
 20
27.12497298362533
 30
0.0
 41
1.0
  0
POLYLINE
  5
3F
330
1F
100
AcDbEntity
  8
FRAME
100
AcDb2dPolyline
 66
     1
 10
0.0
 20
0.0
 30
0.0
  0
VERTEX
  5
40
330
3F
100
AcDbEntity
  8
FRAME
100
AcDbVertex
100
AcDb2dVertex
 10
-48.95171523840605
 20
27.12497298362533
 30
0.0
  0
VERTEX
  5
41
330
3F
100
AcDbEntity
  8
FRAME
100
AcDbVertex
100
AcDb2dVertex
 10
-48.95171523840605
 20
28.12502699091822
 30
0.0
  0
SEQEND
  5
42
330
3F
100
AcDbEntity
  8
FRAME
  0
SPLINE
  5
43
330
1F
100
AcDbEntity
  8
FRAME
100
AcDbSpline
210
0.0
220
0.0
230
1.0
 70
    28
 71
     3
 72
     8
 73
     4
 74
     0
 42
0.0000000001
 43
0.0000000001
 40
110.7332155202018
 40
110.7332155202018
 40
110.7332155202018
 40
110.7332155202018
 40
111.5206170950047
 40
111.5206170950047
 40
111.5206170950047
 40
111.5206170950047
 10
-48.95171523840605
 20
28.12502699091822
 30
0.0
 41
1.000000000076657
 10
-48.68924804680507
 20
28.12502699091822
 30
0.0
 41
1.000000000076657
 10
-48.42678085520409
 20
28.12502699091822
 30
0.0
 41
1.000000000076657
 10
-48.1643136636031
 20
28.12502699091824
 30
0.0
 41
1.000000000076657
  0
POLYLINE
  5
44
330
1F
100
AcDbEntity
  8
FRAME
100
AcDb2dPolyline
 66
     1
 10
0.0
 20
0.0
 30
0.0
  0
VERTEX
  5
45
330
44
100
AcDbEntity
  8
FRAME
100
AcDbVertex
100
AcDb2dVertex
 10
-48.1643136636031
 20
28.12502699091824
 30
0.0
  0
VERTEX
  5
46
330
44
100
AcDbEntity
  8
FRAME
100
AcDbVertex
100
AcDb2dVertex
 10
-48.16431366360308
 20
27.12497298362533
 30
0.0
  0
SEQEND
  5
47
330
44
100
AcDbEntity
  8
FRAME
  0
POLYLINE
  5
48
330
1F
100
AcDbEntity
  8
FRAME
100
AcDb2dPolyline
 66
     1
 10
0.0
 20
0.0
 30
0.0
  0
VERTEX
  5
49
330
48
100
AcDbEntity
  8
FRAME
100
AcDbVertex
100
AcDb2dVertex
 10
21.91440385856023
 20
27.12497298362533
 30
0.0
  0
VERTEX
  5
4A
330
48
100
AcDbEntity
  8
FRAME
100
AcDbVertex
100
AcDb2dVertex
 10
21.91440385856023
 20
28.12502699091822
 30
0.0
  0
SEQEND
  5
4B
330
48
100
AcDbEntity
  8
FRAME
  0
SPLINE
  5
4C
330
1F
100
AcDbEntity
  8
FRAME
100
AcDbSpline
210
0.0
220
0.0
230
1.0
 70
    28
 71
     3
 72
     8
 73
     4
 74
     0
 42
0.0000000001
 43
0.0000000001
 40
181.599334617168
 40
181.599334617168
 40
181.599334617168
 40
181.599334617168
 40
182.386736191971
 40
182.386736191971
 40
182.386736191971
 40
182.386736191971
 10
21.91440385856023
 20
28.12502699091822
 30
0.0
 41
1.000000000076657
 10
22.17687105016121
 20
28.12502699091822
 30
0.0
 41
1.000000000076657
 10
22.43933824176219
 20
28.12502699091822
 30
0.0
 41
1.000000000076657
 10
22.70180543336318
 20
28.12502699091822
 30
0.0
 41
1.000000000076657
  0
POLYLINE
  5
4D
330
1F
100
AcDbEntity
  8
FRAME
100
AcDb2dPolyline
 66
     1
 10
0.0
 20
0.0
 30
0.0
  0
VERTEX
  5
4E
330
4D
100
AcDbEntity
  8
FRAME
100
AcDbVertex
100
AcDb2dVertex
 10
22.70180543336318
 20
28.12502699091822
 30
0.0
  0
VERTEX
  5
4F
330
4D
100
AcDbEntity
  8
FRAME
100
AcDbVertex
100
AcDb2dVertex
 10
22.70180543336318
 20
27.12497298362533
 30
0.0
  0
SEQEND
  5
50
330
4D
100
AcDbEntity
  8
FRAME
  0
SPLINE
  5
51
330
1F
100
AcDbEntity
  8
FRAME
100
AcDbSpline
210
0.0
220
0.0
230
1.0
 70
    28
 71
     2
 72
     6
 73
     3
 74
     0
 42
0.0000000001
 43
0.0000000001
 40
-187.593391348769
 40
-187.593391348769
 40
-187.593391348769
 40
-186.8059897739661
 40
-186.8059897739661
 40
-186.8059897739661
 10
22.70180543336318
 20
27.12497298362533
 30
0.0
 41
1.0
 10
22.30810464596171
 20
27.12497298362533
 30
0.0
 41
1.0
 10
21.91440385856023
 20
27.12497298362533
 30
0.0
 41
1.0
  0
SPLINE
  5
52
330
1F
100
AcDbEntity
  8
FRAME
100
AcDbSpline
210
0.0
220
0.0
230
1.0
 70
    28
 71
     2
 72
     6
 73
     3
 74
     0
 42
0.0000000001
 43
0.0000000001
 40
-5849.145591464033
 40
-5849.145591464033
 40
-5849.145591464033
 40
-5848.35818988972
 40
-5848.35818988972
 40
-5848.35818988972
 10
37.7539523547572
 20
27.12502699091825
 30
0.0
 41
1.0
 10
37.3602515676008
 20
27.12502699091825
 30
0.0
 41
1.0
 10
36.96655078044455
 20
27.12502699091824
 30
0.0
 41
1.0
  0
POLYLINE
  5
53
330
1F
100
AcDbEntity
  8
FRAME
100
AcDb2dPolyline
 66
     1
 10
0.0
 20
0.0
 30
0.0
  0
VERTEX
  5
54
330
53
100
AcDbEntity
  8
FRAME
100
AcDbVertex
100
AcDb2dVertex
 10
36.96655078044455
 20
27.12502699091824
 30
0.0
  0
VERTEX
  5
55
330
53
100
AcDbEntity
  8
FRAME
100
AcDbVertex
100
AcDb2dVertex
 10
36.96655078097962
 20
28.12502699091822
 30
0.0
  0
SEQEND
  5
56
330
53
100
AcDbEntity
  8
FRAME
  0
SPLINE
  5
57
330
1F
100
AcDbEntity
  8
FRAME
100
AcDbSpline
210
0.0
220
0.0
230
1.0
 70
    28
 71
     5
 72
    12
 73
     6
 74
     0
 42
0.0000000001
 43
0.0000000001
 40
163.6425308398732
 40
163.6425308398732
 40
163.6425308398732
 40
163.6425308398732
 40
163.6425308398732
 40
163.6425308398732
 40
164.4299324137858
 40
164.4299324137858
 40
164.4299324137858
 40
164.4299324137858
 40
164.4299324137858
 40
164.4299324137858
 10
36.96655078097962
 20
28.12502699091822
 30
0.0
 41
0.9999999881558997
 10
37.1240310957621
 20
28.12502699091822
 30
0.0
 41
0.9999999881558997
 10
37.2815114105446
 20
28.12502699091822
 30
0.0
 41
0.9999999881558997
 10
37.43899172532713
 20
28.12502699091822
 30
0.0
 41
0.9999999881558997
 10
37.59647204010965
 20
28.12502699091822
 30
0.0
 41
0.9999999881558997
 10
37.75395235489214
 20
28.12502699091822
 30
0.0
 41
0.9999999881558997
  0
POLYLINE
  5
58
330
1F
100
AcDbEntity
  8
FRAME
100
AcDb2dPolyline
 66
     1
 10
0.0
 20
0.0
 30
0.0
  0
VERTEX
  5
59
330
58
100
AcDbEntity
  8
FRAME
100
AcDbVertex
100
AcDb2dVertex
 10
37.75395235489216
 20
28.12502699091822
 30
0.0
  0
VERTEX
  5
5A
330
58
100
AcDbEntity
  8
FRAME
100
AcDbVertex
100
AcDb2dVertex
 10
37.7539523547572
 20
27.12502699091825
 30
0.0
  0
SEQEND
  5
5B
330
58
100
AcDbEntity
  8
FRAME
  0
SPLINE
  5
5C
330
1F
100
AcDbEntity
  8
FRAME
100
AcDbSpline
210
0.0
220
0.0
230
1.0
 70
    28
 71
     2
 72
     6
 73
     3
 74
     0
 42
0.0000000001
 43
0.0000000001
 40
-5860.956615085252
 40
-5860.956615085252
 40
-5860.956615085252
 40
-5860.169213510397
 40
-5860.169213510397
 40
-5860.169213510397
 10
49.56497597597672
 20
27.12502699091825
 30
0.0
 41
1.0
 10
49.17127518854892
 20
27.12502699091825
 30
0.0
 41
1.0
 10
48.77757440112121
 20
27.12502699091825
 30
0.0
 41
1.0
  0
POLYLINE
  5
5D
330
1F
100
AcDbEntity
  8
FRAME
100
AcDb2dPolyline
 66
     1
 10
0.0
 20
0.0
 30
0.0
  0
VERTEX
  5
5E
330
5D
100
AcDbEntity
  8
FRAME
100
AcDbVertex
100
AcDb2dVertex
 10
48.77757440112121
 20
27.12502699091825
 30
0.0
  0
VERTEX
  5
5F
330
5D
100
AcDbEntity
  8
FRAME
100
AcDbVertex
100
AcDb2dVertex
 10
48.77757440139112
 20
28.12502699091822
 30
0.0
  0
SEQEND
  5
60
330
5D
100
AcDbEntity
  8
FRAME
  0
SPLINE
  5
61
330
1F
100
AcDbEntity
  8
FRAME
100
AcDbSpline
210
0.0
220
0.0
230
1.0
 70
    28
 71
     5
 72
    12
 73
     6
 74
     0
 42
0.0000000001
 43
0.0000000001
 40
175.4535544602848
 40
175.4535544602848
 40
175.4535544602848
 40
175.4535544602848
 40
175.4535544602848
 40
175.4535544602848
 40
176.2409560352753
 40
176.2409560352753
 40
176.2409560352753
 40
176.2409560352753
 40
176.2409560352753
 40
176.2409560352753
 10
48.77757440139111
 20
28.12502699091822
 30
0.0
 41
0.9999999881558997
 10
48.93505471638922
 20
28.12502699091822
 30
0.0
 41
0.9999999881558997
 10
49.09253503138731
 20
28.12502699091822
 30
0.0
 41
0.9999999881558997
 10
49.25001534638542
 20
28.12502699091822
 30
0.0
 41
0.9999999881558997
 10
49.40749566138352
 20
28.12502699091822
 30
0.0
 41
0.9999999881558997
 10
49.56497597638161
 20
28.12502699091822
 30
0.0
 41
0.9999999881558997
  0
POLYLINE
  5
62
330
1F
100
AcDbEntity
  8
FRAME
100
AcDb2dPolyline
 66
     1
 10
0.0
 20
0.0
 30
0.0
  0
VERTEX
  5
63
330
62
100
AcDbEntity
  8
FRAME
100
AcDbVertex
100
AcDb2dVertex
 10
49.56497597638162
 20
28.12502699091822
 30
0.0
  0
VERTEX
  5
64
330
62
100
AcDbEntity
  8
FRAME
100
AcDbVertex
100
AcDb2dVertex
 10
49.56497597597672
 20
27.12502699091825
 30
0.0
  0
SEQEND
  5
65
330
62
100
AcDbEntity
  8
FRAME
  0
POLYLINE
  5
66
330
1F
100
AcDbEntity
  8
FRAME
100
AcDb2dPolyline
 66
     1
 10
0.0
 20
0.0
 30
0.0
  0
VERTEX
  5
67
330
66
100
AcDbEntity
  8
FRAME
100
AcDbVertex
100
AcDb2dVertex
 10
51.25000673818391
 20
25.02465600980686
 30
0.0
  0
VERTEX
  5
68
330
66
100
AcDbEntity
  8
FRAME
100
AcDbVertex
100
AcDb2dVertex
 10
50.75000673818391
 20
25.02465600980698
 30
0.0
  0
SEQEND
  5
69
330
66
100
AcDbEntity
  8
FRAME
  0
SPLINE
  5
6A
330
1F
100
AcDbEntity
  8
FRAME
100
AcDbSpline
210
0.0
220
0.0
230
1.0
 70
    28
 71
     2
 72
     6
 73
     3
 74
     0
 42
0.0000000001
 43
0.0000000001
 40
-5863.812813155366
 40
-5863.812813155366
 40
-5863.812813155366
 40
-5863.025411580563
 40
-5863.025411580563
 40
-5863.025411580563
 10
50.75000673818391
 20
25.02465600980698
 30
0.0
 41
1.0
 10
50.75000673818391
 20
25.41835679720858
 30
0.0
 41
1.0
 10
50.75000673818391
 20
25.81205758460992
 30
0.0
 41
1.0
  0
POLYLINE
  5
6B
330
1F
100
AcDbEntity
  8
FRAME
100
AcDb2dPolyline
 66
     1
 10
0.0
 20
0.0
 30
0.0
  0
VERTEX
  5
6C
330
6B
100
AcDbEntity
  8
FRAME
100
AcDbVertex
100
AcDb2dVertex
 10
50.75000673818391
 20
25.81205758460992
 30
0.0
  0
VERTEX
  5
6D
330
6B
100
AcDbEntity
  8
FRAME
100
AcDbVertex
100
AcDb2dVertex
 10
51.25000673818391
 20
25.81205758460978
 30
0.0
  0
SEQEND
  5
6E
330
6B
100
AcDbEntity
  8
FRAME
  0
SPLINE
  5
6F
330
1F
100
AcDbEntity
  8
FRAME
100
AcDbSpline
210
0.0
220
0.0
230
1.0
 70
    28
 71
     5
 72
    12
 73
     6
 74
     0
 42
0.0000000001
 43
0.0000000001
 40
3.062969406308419
 40
3.062969406308419
 40
3.062969406308419
 40
3.062969406308419
 40
3.062969406308419
 40
3.062969406308419
 40
3.85037098111134
 40
3.85037098111134
 40
3.85037098111134
 40
3.85037098111134
 40
3.85037098111134
 40
3.85037098111134
 10
51.25000673818391
 20
25.81205758460978
 30
0.0
 41
1.0
 10
51.25000673818391
 20
25.65457726964918
 30
0.0
 41
1.0
 10
51.25000673818391
 20
25.4970969546886
 30
0.0
 41
1.0
 10
51.25000673818391
 20
25.33961663972802
 30
0.0
 41
1.0
 10
51.25000673818391
 20
25.18213632476744
 30
0.0
 41
1.0
 10
51.25000673818391
 20
25.02465600980686
 30
0.0
 41
1.0
  0
SPLINE
  5
70
330
1F
100
AcDbEntity
  8
FRAME
100
AcDbSpline
210
0.0
220
0.0
230
1.0
 70
    28
 71
     2
 72
     6
 73
     3
 74
     0
 42
0.0000000001
 43
0.0000000001
 40
-5907.90730134403
 40
-5907.90730134403
 40
-5907.90730134403
 40
-5907.119899769227
 40
-5907.119899769227
 40
-5907.119899769227
 10
50.75000673818391
 20
-19.06983217885729
 30
0.0
 41
1.0
 10
50.75000673818391
 20
-18.67613139145582
 30
0.0
 41
1.0
 10
50.75000673818391
 20
-18.28243060405432
 30
0.0
 41
1.0
  0
POLYLINE
  5
71
330
1F
100
AcDbEntity
  8
FRAME
100
AcDb2dPolyline
 66
     1
 10
0.0
 20
0.0
 30
0.0
  0
VERTEX
  5
72
330
71
100
AcDbEntity
  8
FRAME
100
AcDbVertex
100
AcDb2dVertex
 10
50.75000673818391
 20
-18.28243060405432
 30
0.0
  0
VERTEX
  5
73
330
71
100
AcDbEntity
  8
FRAME
100
AcDbVertex
100
AcDb2dVertex
 10
51.25000673818391
 20
-18.28243060405432
 30
0.0
  0
SEQEND
  5
74
330
71
100
AcDbEntity
  8
FRAME
  0
SPLINE
  5
75
330
1F
100
AcDbEntity
  8
FRAME
100
AcDbSpline
210
0.0
220
0.0
230
1.0
 70
    28
 71
     5
 72
    12
 73
     6
 74
     0
 42
0.0000000001
 43
0.0000000001
 40
47.15745759497251
 40
47.15745759497251
 40
47.15745759497251
 40
47.15745759497251
 40
47.15745759497251
 40
47.15745759497251
 40
47.94485916977546
 40
47.94485916977546
 40
47.94485916977546
 40
47.94485916977546
 40
47.94485916977546
 40
47.94485916977546
 10
51.25000673818391
 20
-18.28243060405432
 30
0.0
 41
1.0
 10
51.25000673818391
 20
-18.43991091901491
 30
0.0
 41
1.0
 10
51.25000673818391
 20
-18.5973912339755
 30
0.0
 41
1.0
 10
51.25000673818391
 20
-18.75487154893609
 30
0.0
 41
1.0
 10
51.25000673818391
 20
-18.91235186389667
 30
0.0
 41
1.0
 10
51.25000673818391
 20
-19.06983217885727
 30
0.0
 41
1.0
  0
POLYLINE
  5
76
330
1F
100
AcDbEntity
  8
FRAME
100
AcDb2dPolyline
 66
     1
 10
0.0
 20
0.0
 30
0.0
  0
VERTEX
  5
77
330
76
100
AcDbEntity
  8
FRAME
100
AcDbVertex
100
AcDb2dVertex
 10
51.25000673818391
 20
-19.06983217885727
 30
0.0
  0
VERTEX
  5
78
330
76
100
AcDbEntity
  8
FRAME
100
AcDbVertex
100
AcDb2dVertex
 10
50.75000673818391
 20
-19.06983217885729
 30
0.0
  0
SEQEND
  5
79
330
76
100
AcDbEntity
  8
FRAME
  0
ARC
  5
7A
330
1F
100
AcDbEntity
  8
SEATS
100
AcDbCircle
 10
32.75000673818396
 20
26.12502699091825
 30
0.0
 40
1.0
100
AcDbArc
 50
90.0
 51
180.0030943899445
  0
SPLINE
  5
7B
330
1F
100
AcDbEntity
  8
SEATS
100
AcDbSpline
210
0.0
220
0.0
230
1.0
 70
    24
 71
     2
 72
     6
 73
     3
 74
     0
 42
0.0000000001
 43
0.0000000001
 40
0.0
 40
0.0
 40
0.0
 40
17.0
 40
17.0
 40
17.0
 10
32.75000673818396
 20
27.12502699091825
 30
0.0
 10
41.25000673818396
 20
27.12502699091825
 30
0.0
 10
49.75000673818391
 20
27.12502699091825
 30
0.0
  0
ARC
  5
7C
330
1F
100
AcDbEntity
  8
SEATS
100
AcDbCircle
 10
49.75000673818391
 20
26.12502699091825
 30
0.0
 40
1.0
100
AcDbArc
 50
0.0
 51
90.0
  0
SPLINE
  5
7D
330
1F
100
AcDbEntity
  8
SEATS
100
AcDbSpline
210
0.0
220
0.0
230
1.0
 70
    24
 71
     2
 72
     6
 73
     3
 74
     0
 42
0.0000000001
 43
0.0000000001
 40
0.0
 40
0.0
 40
0.0
 40
53.25
 40
53.25
 40
53.25
 10
50.75000673818391
 20
26.12502699091825
 30
0.0
 10
50.75000673818391
 20
-0.4999730090817494
 30
0.0
 10
50.75000673818401
 20
-27.12497300908175
 30
0.0
  0
SPLINE
  5
7E
330
1F
100
AcDbEntity
  8
SEATS
100
AcDbSpline
210
0.0
220
0.0
230
1.0
 70
    12
 71
     2
 72
     6
 73
     3
 74
     0
 42
0.0000000001
 43
0.0000000001
 40
-1.570796326794925
 40
-1.570796326794925
 40
-1.570796326794925
 40
0.0
 40
0.0
 40
0.0
 10
50.75000673818401
 20
-27.12497300908175
 30
0.0
 41
1.0
 10
50.75000673818402
 20
-28.12497300908182
 30
0.0
 41
0.7071067811864961
 10
49.75000673818391
 20
-28.12497300908174
 30
0.0
 41
1.0
  0
SPLINE
  5
7F
330
1F
100
AcDbEntity
  8
SEATS
100
AcDbSpline
210
0.0
220
0.0
230
1.0
 70
    24
 71
     2
 72
     6
 73
     3
 74
     0
 42
0.0000000001
 43
0.0000000001
 40
-17.0
 40
-17.0
 40
-17.0
 40
0.0
 40
0.0
 40
0.0
 10
49.75000673818391
 20
-28.12497300908174
 30
0.0
 10
41.25000673818396
 20
-28.12497300908174
 30
0.0
 10
32.75000673818394
 20
-28.12497300908174
 30
0.0
  0
SPLINE
  5
80
330
1F
100
AcDbEntity
  8
SEATS
100
AcDbSpline
210
0.0
220
0.0
230
1.0
 70
    12
 71
     2
 72
     6
 73
     3
 74
     0
 42
0.0000000001
 43
0.0000000001
 40
-1.570796326794928
 40
-1.570796326794928
 40
-1.570796326794928
 40
0.0
 40
0.0
 40
0.0
 10
32.75000673818394
 20
-28.12497300908174
 30
0.0
 41
1.0
 10
31.75000673818388
 20
-28.1249730090818
 30
0.0
 41
0.7071067811865048
 10
31.75000673818396
 20
-27.12497300908174
 30
0.0
 41
1.0
  0
SPLINE
  5
81
330
1F
100
AcDbEntity
  8
SEATS
100
AcDbSpline
210
0.0
220
0.0
230
1.0
 70
    24
 71
     2
 72
     6
 73
     3
 74
     0
 42
0.0000000001
 43
0.0000000001
 40
0.0
 40
0.0
 40
0.0
 40
36.20536574855841
 40
36.20536574855841
 40
36.20536574855841
 10
31.75000673818396
 20
-27.12497300908174
 30
0.0
 10
31.75000673818396
 20
-9.022290134802535
 30
0.0
 10
31.75000673818396
 20
9.080392739476672
 30
0.0
  0
LINE
  5
82
330
1F
100
AcDbEntity
  8
SEATS
100
AcDbLine
 10
31.75000673818396
 20
9.080392739476672
 30
0.0
 11
31.75000673818396
 21
26.12502671839172
 31
0.0
  0
SPLINE
  5
84
330
1F
100
AcDbEntity
  8
BACKS
100
AcDbSpline
210
0.0
220
0.0
230
1.0
 70
     8
 71
     5
 72
    12
 73
     6
 74
     0
 42
0.0000000001
 43
0.0000000001
 40
0.0
 40
0.0
 40
0.0
 40
0.0
 40
0.0
 40
0.0
 40
1.0
 40
1.0
 40
1.0
 40
1.0
 40
1.0
 40
1.0
 10
51.00000673818391
 20
28.12502699091822
 30
0.0
 10
51.07071741630261
 20
28.12502699091822
 30
0.0
 10
51.14142809442122
 20
28.12502699091822
 30
0.0
 10
51.25000673818391
 20
28.01644834715552
 30
0.0
 10
51.25000673818391
 20
27.94573766903685
 30
0.0
 10
51.25000673818391
 20
27.87502699091819
 30
0.0
  0
SPLINE
  5
85
330
1F
100
AcDbEntity
  8
BACKS
100
AcDbSpline
210
0.0
220
0.0
230
1.0
 70
    24
 71
     2
 72
     6
 73
     3
 74
     0
 42
0.0000000001
 43
0.0000000001
 40
0.0
 40
0.0
 40
0.0
 40
54.99999999999993
 40
54.99999999999993
 40
54.99999999999993
 10
51.25000673818391
 20
27.87502699091819
 30
0.0
 10
51.25000673818391
 20
0.3750269909182364
 30
0.0
 10
51.25000673818391
 20
-27.12497300908174
 30
0.0
  0
SPLINE
  5
86
330
1F
100
AcDbEntity
  8
BACKS
100
AcDbSpline
210
0.0
220
0.0
230
1.0
 70
    24
 71
     2
 72
     6
 73
     3
 74
     0
 42
0.0000000001
 43
0.0000000001
 40
0.0
 40
0.0
 40
0.0
 40
0.2500000000011369
 40
0.2500000000011369
 40
0.2500000000011369
 10
51.25000673818391
 20
-27.12497300908174
 30
0.0
 10
51.25000673818391
 20
-27.2499730090823
 30
0.0
 10
51.25000673818391
 20
-27.37497638460045
 30
0.0
  0
SPLINE
  5
87
330
1F
100
AcDbEntity
  8
BACKS
100
AcDbSpline
210
0.0
220
0.0
230
1.0
 70
    12
 71
     2
 72
     6
 73
     3
 74
     0
 42
0.0000000001
 43
0.0000000001
 40
-1.178112913913318
 40
-1.178112913913318
 40
-1.178112913913318
 40
0.0
 40
0.0
 40
0.0
 10
51.25000673818391
 20
-27.37497638460045
 30
0.0
 41
1.0
 10
51.24999716559311
 20
-28.12498933253159
 30
0.0
 41
0.7071073032724372
 10
52.00000673818391
 20
-28.12498651090492
 30
0.0
 41
0.9999999998938154
  0
SPLINE
  5
88
330
1F
100
AcDbEntity
  8
BACKS
100
AcDbSpline
210
0.0
220
0.0
230
1.0
 70
     8
 71
     2
 72
     6
 73
     3
 74
     0
 42
0.0000000001
 43
0.0000000001
 40
-5.25
 40
-5.25
 40
-5.25
 40
0.0
 40
0.0
 40
0.0
 10
52.00000673818391
 20
-28.12498651090492
 30
0.0
 10
54.62500673818391
 20
-28.12497300908176
 30
0.0
 10
57.25000673818401
 20
-28.12498162557932
 30
0.0
  0
SPLINE
  5
89
330
1F
100
AcDbEntity
  8
BACKS
100
AcDbSpline
210
0.0
220
0.0
230
1.0
 70
    12
 71
     2
 72
     6
 73
     3
 74
     0
 42
0.0000000001
 43
0.0000000001
 40
-1.178099312369473
 40
-1.178099312369473
 40
-1.178099312369473
 40
0.0
 40
0.0
 40
0.0
 10
57.25000673818401
 20
-28.12498162557932
 30
0.0
 41
0.9999999999459819
 10
58.00000394383301
 20
-28.12498172474729
 30
0.0
 41
0.7071121135282509
 10
58.00000673816662
 20
-27.37497876411731
 30
0.0
 41
1.0
  0
SPLINE
  5
8A
330
1F
100
AcDbEntity
  8
BACKS
100
AcDbSpline
210
0.0
220
0.0
230
1.0
 70
    28
 71
     3
 72
     8
 73
     4
 74
     0
 42
0.0000000001
 43
0.0000000001
 40
0.0
 40
0.0
 40
0.0
 40
0.0
 40
0.3926863527735749
 40
0.3926863527735749
 40
0.3926863527735749
 40
0.3926863527735749
 10
58.00000673816662
 20
-27.37497876411731
 30
0.0
 41
1.0
 10
58.00000673818391
 20
-27.37497760323488
 30
0.0
 41
1.0
 10
58.00000673818391
 20
-27.26179788559939
 30
0.0
 41
1.0
 10
58.00000673818391
 20
-27.12497300908058
 30
0.0
 41
1.0
  0
SPLINE
  5
8B
330
1F
100
AcDbEntity
  8
BACKS
100
AcDbSpline
210
0.0
220
0.0
230
1.0
 70
    24
 71
     2
 72
     6
 73
     3
 74
     0
 42
0.0000000001
 43
0.0000000001
 40
0.0
 40
0.0
 40
0.0
 40
61.24999999999881
 40
61.24999999999881
 40
61.24999999999881
 10
58.00000673818391
 20
-27.12497300908058
 30
0.0
 10
58.00000673818391
 20
3.500026990918826
 30
0.0
 10
58.00000673818391
 20
34.12502699091822
 30
0.0
  0
SPLINE
  5
8C
330
1F
100
AcDbEntity
  8
BACKS
100
AcDbSpline
210
0.0
220
0.0
230
1.0
 70
    12
 71
     2
 72
     8
 73
     5
 74
     0
 42
0.0000000001
 43
0.0000000001
 40
-1.178181144434704
 40
-1.178181144434704
 40
-1.178181144434704
 40
-0.5890905722173518
 40
-0.5890905722173518
 40
0.0
 40
0.0
 40
0.0
 10
58.00000673818391
 20
34.12502699091822
 30
0.0
 41
1.0
 10
58.00008769853543
 20
34.4357206913946
 30
0.0
 41
0.9238296649776886
 10
57.78039406859791
 20
34.65541432133217
 30
0.0
 41
1.0
 10
57.56070043866032
 20
34.87510795126973
 30
0.0
 41
0.9238296649776886
 10
57.25000673818401
 20
34.87502699091821
 30
0.0
 41
1.0
  0
SPLINE
  5
8D
330
1F
100
AcDbEntity
  8
BACKS
100
AcDbSpline
210
0.0
220
0.0
230
1.0
 70
    24
 71
     2
 72
     6
 73
     3
 74
     0
 42
0.0000000001
 43
0.0000000001
 40
0.0
 40
0.0
 40
0.0
 40
24.50000000000003
 40
24.50000000000003
 40
24.50000000000003
 10
57.25000673818401
 20
34.87502699091821
 30
0.0
 10
45.00000673818391
 20
34.87502699091821
 30
0.0
 10
32.75000673818394
 20
34.87502699091822
 30
0.0
  0
SPLINE
  5
8E
330
1F
100
AcDbEntity
  8
BACKS
100
AcDbSpline
210
0.0
220
0.0
230
1.0
 70
    24
 71
     2
 72
     6
 73
     3
 74
     0
 42
0.0000000001
 43
0.0000000001
 40
0.0
 40
0.0
 40
0.0
 40
0.2500000000011369
 40
0.2500000000011369
 40
0.2500000000011369
 10
32.75000673818394
 20
34.87502699091822
 30
0.0
 10
32.62500673818337
 20
34.87502699091822
 30
0.0
 10
32.50000336266523
 20
34.87502699091824
 30
0.0
  0
SPLINE
  5
8F
330
1F
100
AcDbEntity
  8
BACKS
100
AcDbSpline
210
0.0
220
0.0
230
1.0
 70
    12
 71
     2
 72
     6
 73
     3
 74
     0
 42
0.0000000001
 43
0.0000000001
 40
-1.170244277998134
 40
-1.170244277998134
 40
-1.170244277998134
 40
0.0
 40
0.0
 40
0.0
 10
32.50000336266523
 20
34.87502699091824
 30
0.0
 41
1.0
 10
31.75781929490083
 20
34.87503576330587
 30
0.0
 41
0.7108075832939409
 10
31.75003377880807
 20
34.13289590726691
 30
0.0
 41
0.9999995364027116
  0
LINE
  5
90
330
1F
100
AcDbEntity
  8
BACKS
100
AcDbLine
 10
31.75003377880809
 20
34.13289590726692
 30
0.0
 11
31.75003368904936
 21
28.86715800271033
 31
0.0
  0
SPLINE
  5
91
330
1F
100
AcDbEntity
  8
BACKS
100
AcDbSpline
210
0.0
220
0.0
230
1.0
 70
    12
 71
     2
 72
     6
 73
     3
 74
     0
 42
0.0000000001
 43
0.0000000001
 40
-1.170238538258362
 40
-1.170238538258362
 40
-1.170238538258362
 40
0.0
 40
0.0
 40
0.0
 10
31.75003368904936
 20
28.86715800271031
 30
0.0
 41
0.99999954819464
 10
31.75782542400413
 20
28.12502189868671
 30
0.0
 41
0.7108076664976264
 10
32.50000458401153
 20
28.12502699091824
 30
0.0
 41
1.0
  0
SPLINE
  5
92
330
1F
100
AcDbEntity
  8
BACKS
100
AcDbSpline
210
0.0
220
0.0
230
1.0
 70
    28
 71
     3
 72
     8
 73
     4
 74
     0
 42
0.0000000001
 43
0.0000000001
 40
0.0
 40
0.0
 40
0.0
 40
0.0
 40
0.3926863527735774
 40
0.3926863527735774
 40
0.3926863527735774
 40
0.3926863527735774
 10
32.50000458401153
 20
28.12502699091824
 30
0.0
 41
1.0
 10
32.49939760169531
 20
28.12502699091822
 30
0.0
 41
1.0
 10
32.61281633893741
 20
28.12502699091822
 30
0.0
 41
1.0
 10
32.75000673818516
 20
28.12502699091822
 30
0.0
 41
1.0
  0
SPLINE
  5
93
330
1F
100
AcDbEntity
  8
BACKS
100
AcDbSpline
210
0.0
220
0.0
230
1.0
 70
    24
 71
     2
 72
     6
 73
     3
 74
     0
 42
0.0000000001
 43
0.0000000001
 40
0.0
 40
0.0
 40
0.0
 40
18.24999999999878
 40
18.24999999999878
 40
18.24999999999878
 10
32.75000673818516
 20
28.12502699091822
 30
0.0
 10
41.87500673818455
 20
28.12502699091822
 30
0.0
 10
51.00000673818391
 20
28.12502699091822
 30
0.0
  0
POLYLINE
  5
94
330
1F
100
AcDbEntity
  8
BACKS
100
AcDb2dPolyline
 66
     1
 10
0.0
 20
0.0
 30
0.0
  0
VERTEX
  5
95
330
94
100
AcDbEntity
  8
BACKS
100
AcDbVertex
100
AcDb2dVertex
 10
31.75003368904936
 20
28.86715800271033
 30
0.0
  0
VERTEX
  5
96
330
94
100
AcDbEntity
  8
BACKS
100
AcDbVertex
100
AcDb2dVertex
 10
31.75003377880809
 20
34.13289590726692
 30
0.0
  0
SEQEND
  5
97
330
94
100
AcDbEntity
  8
BACKS
  0
SPLINE
  5
98
330
1F
100
AcDbEntity
  8
BACKS
100
AcDbSpline
210
0.0
220
0.0
230
1.0
 70
    12
 71
     2
 72
     6
 73
     3
 74
     0
 42
0.0000000001
 43
0.0000000001
 40
-1.170242041670054
 40
-1.170242041670054
 40
-1.170242041670054
 40
0.0
 40
0.0
 40
0.0
 10
31.75003377880809
 20
34.13289590726692
 30
0.0
 41
1.0
 10
31.74224751448055
 20
34.87503484547247
 30
0.0
 41
0.7108085491866564
 10
31.00006452842258
 20
34.87502699091801
 30
0.0
 41
1.0
  0
SPLINE
  5
99
330
1F
100
AcDbEntity
  8
BACKS
100
AcDbSpline
210
0.0
220
0.0
230
1.0
 70
    24
 71
     2
 72
     6
 73
     3
 74
     0
 42
0.0000000001
 43
0.0000000001
 40
-0.2500000000011227
 40
-0.2500000000011227
 40
-0.2500000000011227
 40
0.0
 40
0.0
 40
0.0
 10
31.00006452842258
 20
34.87502699091801
 30
0.0
 10
30.87506074547744
 20
34.87502699091822
 30
0.0
 10
30.75006074547689
 20
34.87502699091822
 30
0.0
  0
SPLINE
  5
9A
330
1F
100
AcDbEntity
  8
BACKS
100
AcDbSpline
210
0.0
220
0.0
230
1.0
 70
    24
 71
     2
 72
     6
 73
     3
 74
     0
 42
0.0000000001
 43
0.0000000001
 40
-87.75005400729168
 40
-87.75005400729168
 40
-87.75005400729168
 40
0.0
 40
0.0
 40
0.0
 10
30.75006074547689
 20
34.87502699091822
 30
0.0
 10
-13.12496625816895
 20
34.87502699091822
 30
0.0
 10
-56.99999326181479
 20
34.87502699091822
 30
0.0
  0
SPLINE
  5
9B
330
1F
100
AcDbEntity
  8
BACKS
100
AcDbSpline
210
0.0
220
0.0
230
1.0
 70
    28
 71
     3
 72
     8
 73
     4
 74
     0
 42
0.0000000001
 43
0.0000000001
 40
-0.3926863527735781
 40
-0.3926863527735781
 40
-0.3926863527735781
 40
-0.3926863527735781
 40
0.0
 40
0.0
 40
0.0
 40
0.0
 10
-56.99999326181479
 20
34.87502699091822
 30
0.0
 41
1.0
 10
-57.1371253839396
 20
34.87502699091822
 30
0.0
 41
1.0
 10
-57.25050603568921
 20
34.87502699091822
 30
0.0
 41
1.0
 10
-57.24999612788613
 20
34.87502699091755
 30
0.0
 41
1.0
  0
SPLINE
  5
9C
330
1F
100
AcDbEntity
  8
BACKS
100
AcDbSpline
210
0.0
220
0.0
230
1.0
 70
    12
 71
     2
 72
     6
 73
     3
 74
     0
 42
0.0000000001
 43
0.0000000001
 40
-1.178105736933964
 40
-1.178105736933964
 40
-1.178105736933964
 40
0.0
 40
0.0
 40
0.0
 10
-57.24999612788613
 20
34.87502699091755
 30
0.0
 41
1.0
 10
-58.00000348396416
 20
34.87503148098738
 30
0.0
 41
0.7071079694681671
 10
-58.00000187831361
 20
34.12502699091823
 30
0.0
 41
0.9999999999555169
  0
SPLINE
  5
9D
330
1F
100
AcDbEntity
  8
BACKS
100
AcDbSpline
210
0.0
220
0.0
230
1.0
 70
     8
 71
     2
 72
     6
 73
     3
 74
     0
 42
0.0000000001
 43
0.0000000001
 40
-5.25
 40
-5.25
 40
-5.25
 40
0.0
 40
0.0
 40
0.0
 10
-58.00000187831362
 20
34.12502699091822
 30
0.0
 10
-57.99999326181604
 20
31.50002699091822
 30
0.0
 10
-58.00000676363921
 20
28.87502699091824
 30
0.0
  0
SPLINE
  5
9E
330
1F
100
AcDbEntity
  8
BACKS
100
AcDbSpline
210
0.0
220
0.0
230
1.0
 70
    12
 71
     2
 72
     6
 73
     3
 74
     0
 42
0.0000000001
 43
0.0000000001
 40
-1.17811145356363
 40
-1.17811145356363
 40
-1.17811145356363
 40
0.0
 40
0.0
 40
0.0
 10
-58.00000676363921
 20
28.87502699091824
 30
0.0
 41
0.9999999998788596
 10
-58.00000808134642
 20
28.12501973712247
 30
0.0
 41
0.7071091052924486
 10
-57.24999704476166
 20
28.12502699091844
 30
0.0
 41
1.0
  0
SPLINE
  5
9F
330
1F
100
AcDbEntity
  8
BACKS
100
AcDbSpline
210
0.0
220
0.0
230
1.0
 70
    24
 71
     2
 72
     6
 73
     3
 74
     0
 42
0.0000000001
 43
0.0000000001
 40
-0.2500000000011369
 40
-0.2500000000011369
 40
-0.2500000000011369
 40
0.0
 40
0.0
 40
0.0
 10
-57.24999704476166
 20
28.12502699091844
 30
0.0
 10
-57.12499326181661
 20
28.12502699091822
 30
0.0
 10
-56.99999326181604
 20
28.12502699091822
 30
0.0
  0
SPLINE
  5
A0
330
1F
100
AcDbEntity
  8
BACKS
100
AcDbSpline
210
0.0
220
0.0
230
1.0
 70
    24
 71
     2
 72
     6
 73
     3
 74
     0
 42
0.0000000001
 43
0.0000000001
 40
-87.75005400729171
 40
-87.75005400729171
 40
-87.75005400729171
 40
0.0
 40
0.0
 40
0.0
 10
-56.99999326181604
 20
28.12502699091822
 30
0.0
 10
-13.12496625817019
 20
28.12502699091822
 30
0.0
 10
30.75006074547566
 20
28.12502699091822
 30
0.0
  0
SPLINE
  5
A1
330
1F
100
AcDbEntity
  8
BACKS
100
AcDbSpline
210
0.0
220
0.0
230
1.0
 70
    28
 71
     3
 72
     8
 73
     4
 74
     0
 42
0.0000000001
 43
0.0000000001
 40
-0.3926863527735675
 40
-0.3926863527735675
 40
-0.3926863527735675
 40
-0.3926863527735675
 40
0.0
 40
0.0
 40
0.0
 40
0.0
 10
30.75006074547566
 20
28.12502699091822
 30
0.0
 41
1.0
 10
30.88719286762779
 20
28.12502699091822
 30
0.0
 41
1.0
 10
31.00057351939532
 20
28.12502699091822
 30
0.0
 41
1.0
 10
31.00006361154665
 20
28.1250269909189
 30
0.0
 41
1.0
  0
SPLINE
  5
A2
330
1F
100
AcDbEntity
  8
BACKS
100
AcDbSpline
210
0.0
220
0.0
230
1.0
 70
    12
 71
     2
 72
     6
 73
     3
 74
     0
 42
0.0000000001
 43
0.0000000001
 40
-1.170235524238044
 40
-1.170235524238044
 40
-1.170235524238044
 40
0.0
 40
0.0
 40
0.0
 10
31.00006361154665
 20
28.1250269909189
 30
0.0
 41
1.0
 10
31.74224143037623
 20
28.12502319427773
 30
0.0
 41
0.710808703510987
 10
31.75003368904936
 20
28.86715800271033
 30
0.0
 41
1.0
  0
SPLINE
  5
A4
330
1F
100
AcDbEntity
  8
TABLE
100
AcDbSpline
210
0.0
220
0.0
230
1.0
 70
    24
 71
     2
 72
     6
 73
     3
 74
     0
 42
0.0000000001
 43
0.0000000001
 40
0.0
 40
0.0
 40
0.0
 40
38.49999999995124
 40
38.49999999995124
 40
38.49999999995124
 10
30.77562904883251
 20
5.374972983576576
 30
0.0
 10
30.77562904883251
 20
-13.87502701639905
 30
0.0
 10
30.77562904883251
 20
-33.12502701637467
 30
0.0
  0
SPLINE
  5
A5
330
1F
100
AcDbEntity
  8
TABLE
100
AcDbSpline
210
0.0
220
0.0
230
1.0
 70
    12
 71
     2
 72
     6
 73
     3
 74
     0
 42
0.0000000001
 43
0.0000000001
 40
0.0
 40
0.0
 40
0.0
 40
2.748893571891054
 40
2.748893571891054
 40
2.748893571891054
 10
30.77562904883251
 20
-33.12502701637467
 30
0.0
 41
1.0
 10
30.77562904883248
 20
-34.87502701637462
 30
0.0
 41
0.7071067811865641
 10
29.02562904883251
 20
-34.87502701637467
 30
0.0
 41
1.0
  0
SPLINE
  5
A6
330
1F
100
AcDbEntity
  8
TABLE
100
AcDbSpline
210
0.0
220
0.0
230
1.0
 70
    24
 71
     2
 72
     6
 73
     3
 74
     0
 42
0.0000000001
 43
0.0000000001
 40
0.0
 40
0.0
 40
0.0
 40
80.49999999999999
 40
80.49999999999999
 40
80.49999999999999
 10
29.02562904883251
 20
-34.87502701637467
 30
0.0
 10
-11.22437095116748
 20
-34.87502701637467
 30
0.0
 10
-51.47437095116747
 20
-34.87502701637467
 30
0.0
  0
SPLINE
  5
A7
330
1F
100
AcDbEntity
  8
TABLE
100
AcDbSpline
210
0.0
220
0.0
230
1.0
 70
    12
 71
     2
 72
     6
 73
     3
 74
     0
 42
0.0000000001
 43
0.0000000001
 40
0.0
 40
0.0
 40
0.0
 40
2.748893571939817
 40
2.748893571939817
 40
2.748893571939817
 10
-51.47437095116747
 20
-34.87502701637467
 30
0.0
 41
1.0
 10
-53.22437095121622
 20
-34.87502701637466
 30
0.0
 41
0.7071067811767004
 10
-53.22437095116747
 20
-33.12502701632592
 30
0.0
 41
1.0
  0
SPLINE
  5
A8
330
1F
100
AcDbEntity
  8
TABLE
100
AcDbSpline
210
0.0
220
0.0
230
1.0
 70
    24
 71
     2
 72
     6
 73
     3
 74
     0
 42
0.0000000001
 43
0.0000000001
 40
0.0
 40
0.0
 40
0.0
 40
38.49999999995125
 40
38.49999999995125
 40
38.49999999995125
 10
-53.22437095116747
 20
-33.12502701632592
 30
0.0
 10
-53.22437095116747
 20
-13.87502701635029
 30
0.0
 10
-53.22437095116747
 20
5.374972983625334
 30
0.0
  0
SPLINE
  5
A9
330
1F
100
AcDbEntity
  8
TABLE
100
AcDbSpline
210
0.0
220
0.0
230
1.0
 70
    12
 71
     2
 72
     6
 73
     3
 74
     0
 42
0.0000000001
 43
0.0000000001
 40
0.0
 40
0.0
 40
0.0
 40
2.748893571939813
 40
2.748893571939813
 40
2.748893571939813
 10
-53.22437095116745
 20
5.374972983625334
 30
0.0
 41
1.0
 10
-53.22437095116746
 20
7.124972983674075
 30
0.0
 41
0.7071067811767001
 10
-51.47437095111871
 20
7.124972983625334
 30
0.0
 41
1.0
  0
SPLINE
  5
AA
330
1F
100
AcDbEntity
  8
TABLE
100
AcDbSpline
210
0.0
220
0.0
230
1.0
 70
    24
 71
     2
 72
     6
 73
     3
 74
     0
 42
0.0000000001
 43
0.0000000001
 40
0.0
 40
0.0
 40
0.0
 40
80.49999999995123
 40
80.49999999995123
 40
80.49999999995123
 10
-51.47437095111871
 20
7.124972983625334
 30
0.0
 10
-11.2243709511431
 20
7.124972983625327
 30
0.0
 10
29.02562904883251
 20
7.124972983625327
 30
0.0
  0
SPLINE
  5
AB
330
1F
100
AcDbEntity
  8
TABLE
100
AcDbSpline
210
0.0
220
0.0
230
1.0
 70
    12
 71
     2
 72
     6
 73
     3
 74
     0
 42
0.0000000001
 43
0.0000000001
 40
0.0
 40
0.0
 40
0.0
 40
2.748893571939806
 40
2.748893571939806
 40
2.748893571939806
 10
29.02562904883251
 20
7.124972983625327
 30
0.0
 41
1.0
 10
30.77562904888125
 20
7.124972983625311
 30
0.0
 41
0.7071067811767057
 10
30.77562904883251
 20
5.374972983576576
 30
0.0
 41
1.0
  0
ENDSEC
  0
SECTION
  2
OBJECTS
  0
DICTIONARY
  5
C
330
0
100
AcDbDictionary
281
     1
  3
ACAD_GROUP
350
D
  3
ACAD_LAYOUT
350
1A
  3
ACAD_MLEADERSTYLE
350
AD
  3
ACAD_MLINESTYLE
350
17
  3
ACAD_PLOTSETTINGS
350
19
  3
ACAD_PLOTSTYLENAME
350
E
  3
ACAD_TABLESTYLE
350
AC
  3
ACAD_VISUALSTYLE
350
2A
  0
DICTIONARY
  5
D
102
{ACAD_REACTORS
330
C
102
}
330
C
100
AcDbDictionary
281
     1
  0
DICTIONARY
  5
1A
102
{ACAD_REACTORS
330
C
102
}
330
C
100
AcDbDictionary
281
     1
  3
Layout1
350
1E
  3
Layout2
350
26
  3
Model
350
22
  0
DICTIONARY
  5
AD
102
{ACAD_REACTORS
330
C
102
}
330
C
100
AcDbDictionary
281
     1
  0
DICTIONARY
  5
17
102
{ACAD_REACTORS
330
C
102
}
330
C
100
AcDbDictionary
281
     1
  3
Standard
350
18
  0
DICTIONARY
  5
19
102
{ACAD_REACTORS
330
C
102
}
330
C
100
AcDbDictionary
281
     1
  0
ACDBDICTIONARYWDFLT
  5
E
102
{ACAD_REACTORS
330
C
102
}
330
C
100
AcDbDictionary
281
     1
  3
Normal
350
F
100
AcDbDictionaryWithDefault
340
F
  0
DICTIONARY
  5
AC
102
{ACAD_REACTORS
330
C
102
}
330
C
100
AcDbDictionary
281
     1
  0
DICTIONARY
  5
2A
102
{ACAD_REACTORS
330
C
102
}
330
C
100
AcDbDictionary
281
     1
  3
2dWireframe
350
2F
  3
3D Hidden
350
31
  3
3dWireframe
350
30
  3
Basic
350
32
  3
Brighten
350
36
  3
ColorChange
350
3A
  3
Conceptual
350
34
  3
Dim
350
35
  3
Facepattern
350
39
  3
Flat
350
2B
  3
FlatWithEdges
350
2C
  3
Gouraud
350
2D
  3
GouraudWithEdges
350
2E
  3
Linepattern
350
38
  3
Realistic
350
33
  3
Thicken
350
37
  0
LAYOUT
  5
1E
102
{ACAD_REACTORS
330
1A
102
}
330
1A
100
AcDbPlotSettings
  1

  2
none_device
  4

  6

 40
0.0
 41
0.0
 42
0.0
 43
0.0
 44
0.0
 45
0.0
 46
0.0
 47
0.0
 48
0.0
 49
0.0
140
0.0
141
0.0
142
1.0
143
1.0
 70
   688
 72
     0
 73
     0
 74
     5
  7

 75
    16
 76
     0
 77
     2
 78
   300
147
1.0
148
0.0
149
0.0
100
AcDbLayout
  1
Layout1
 70
     1
 71
     1
 10
0.0
 20
0.0
 11
12.0
 21
9.0
 12
0.0
 22
0.0
 32
0.0
 14
1.000000000000000E+20
 24
1.000000000000000E+20
 34
1.000000000000000E+20
 15
-1.000000000000000E+20
 25
-1.000000000000000E+20
 35
-1.000000000000000E+20
146
0.0
 13
0.0
 23
0.0
 33
0.0
 16
1.0
 26
0.0
 36
0.0
 17
0.0
 27
1.0
 37
0.0
 76
     0
330
1B
  0
LAYOUT
  5
26
102
{ACAD_REACTORS
330
1A
102
}
330
1A
100
AcDbPlotSettings
  1

  2
none_device
  4

  6

 40
0.0
 41
0.0
 42
0.0
 43
0.0
 44
0.0
 45
0.0
 46
0.0
 47
0.0
 48
0.0
 49
0.0
140
0.0
141
0.0
142
1.0
143
1.0
 70
   688
 72
     0
 73
     0
 74
     5
  7

 75
    16
 76
     0
 77
     2
 78
   300
147
1.0
148
0.0
149
0.0
100
AcDbLayout
  1
Layout2
 70
     1
 71
     2
 10
0.0
 20
0.0
 11
0.0
 21
0.0
 12
0.0
 22
0.0
 32
0.0
 14
0.0
 24
0.0
 34
0.0
 15
0.0
 25
0.0
 35
0.0
146
0.0
 13
0.0
 23
0.0
 33
0.0
 16
1.0
 26
0.0
 36
0.0
 17
0.0
 27
1.0
 37
0.0
 76
     0
330
23
  0
LAYOUT
  5
22
102
{ACAD_REACTORS
330
1A
102
}
330
1A
100
AcDbPlotSettings
  1

  2
none_device
  4

  6

 40
0.0
 41
0.0
 42
0.0
 43
0.0
 44
0.0
 45
0.0
 46
0.0
 47
0.0
 48
0.0
 49
0.0
140
0.0
141
0.0
142
1.0
143
1.0
 70
  1712
 72
     0
 73
     0
 74
     0
  7

 75
     0
 76
     0
 77
     2
 78
   300
147
1.0
148
0.0
149
0.0
100
AcDbLayout
  1
Model
 70
     1
 71
     0
 10
0.0
 20
0.0
 11
12.0
 21
9.0
 12
0.0
 22
0.0
 32
0.0
 14
-58.00000676363921
 24
-34.87502701637467
 34
0.0
 15
58.00000673818391
 25
34.87502699091824
 35
0.0
146
0.0
 13
0.0
 23
0.0
 33
0.0
 16
1.0
 26
0.0
 36
0.0
 17
0.0
 27
1.0
 37
0.0
 76
     0
330
1F
331
29
  0
MLINESTYLE
  5
18
102
{ACAD_REACTORS
330
17
102
}
330
17
100
AcDbMlineStyle
  2
Standard
 70
     0
  3

 62
   256
 51
90.0
 52
90.0
 71
     2
 49
0.5
 62
   256
  6
BYLAYER
 49
-0.5
 62
   256
  6
BYLAYER
  0
ACDBPLACEHOLDER
  5
F
102
{ACAD_REACTORS
330
E
102
}
330
E
  0
VISUALSTYLE
  5
2F
102
{ACAD_REACTORS
330
2A
102
}
330
2A
100
AcDbVisualStyle
  2
2dWireframe
 70
     4
 71
     0
 72
     2
 73
     0
 90
        0
 40
-0.6
 41
-30.0
 62
     5
 63
     7
421
 16777215
 74
     1
 91
        4
 64
     7
 65
   257
 75
     1
175
     1
 42
1.0
 92
        0
 66
   257
 43
1.0
 76
     1
 77
     6
 78
     2
 67
     7
 79
     5
170
     0
171
     0
290
     0
174
     0
 93
        1
 44
0.0
173
     0
291
     0
 45
0.0
1001
ACAD
1000
AcDbSavedByObjectVersion
1070
     0
  0
VISUALSTYLE
  5
31
102
{ACAD_REACTORS
330
2A
102
}
330
2A
100
AcDbVisualStyle
  2
3D Hidden
 70
     6
 71
     1
 72
     2
 73
     2
 90
        0
 40
-0.6
 41
-30.0
 62
     5
 63
     7
421
 16777215
 74
     2
 91
        2
 64
     7
 65
   257
 75
     2
175
     1
 42
40.0
 92
        0
 66
   257
 43
1.0
 76
     1
 77
     6
 78
     2
 67
     7
 79
     3
170
     0
171
     0
290
     0
174
     0
 93
        1
 44
0.0
173
     0
291
     0
 45
0.0
1001
ACAD
1000
AcDbSavedByObjectVersion
1070
     0
  0
VISUALSTYLE
  5
30
102
{ACAD_REACTORS
330
2A
102
}
330
2A
100
AcDbVisualStyle
  2
3dWireframe
 70
     5
 71
     0
 72
     2
 73
     0
 90
        0
 40
-0.6
 41
-30.0
 62
     5
 63
     7
421
 16777215
 74
     1
 91
        4
 64
     7
 65
   257
 75
     1
175
     1
 42
1.0
 92
        0
 66
   257
 43
1.0
 76
     1
 77
     6
 78
     2
 67
     7
 79
     5
170
     0
171
     0
290
     0
174
     0
 93
        1
 44
0.0
173
     0
291
     0
 45
0.0
1001
ACAD
1000
AcDbSavedByObjectVersion
1070
     0
  0
VISUALSTYLE
  5
32
102
{ACAD_REACTORS
330
2A
102
}
330
2A
100
AcDbVisualStyle
  2
Basic
 70
     7
 71
     1
 72
     0
 73
     1
 90
        0
 40
-0.6
 41
-30.0
 62
     5
 63
     7
421
 16777215
 74
     0
 91
        4
 64
     7
 65
   257
 75
     1
175
     1
 42
1.0
 92
        8
 66
     7
 43
1.0
 76
     1
 77
     6
 78
     2
 67
     7
 79
     5
170
     0
171
     0
290
     0
174
     0
 93
        1
 44
0.0
173
     0
291
     1
 45
0.0
1001
ACAD
1000
AcDbSavedByObjectVersion
1070
     0
  0
VISUALSTYLE
  5
36
102
{ACAD_REACTORS
330
2A
102
}
330
2A
100
AcDbVisualStyle
  2
Brighten
 70
    12
 71
     2
 72
     2
 73
     0
 90
        0
 40
-0.6
 41
-30.0
 62
     5
 63
     7
421
 16777215
 74
     1
 91
        4
 64
     7
 65
   257
 75
     1
175
     1
 42
1.0
 92
        8
 66
     7
 43
1.0
 76
     1
 77
     6
 78
     2
 67
     7
 79
     5
170
     0
171
     0
290
     0
174
     0
 93
        1
 44
50.0
173
     0
291
     1
 45
0.0
1001
ACAD
1000
AcDbSavedByObjectVersion
1070
     0
  0
VISUALSTYLE
  5
3A
102
{ACAD_REACTORS
330
2A
102
}
330
2A
100
AcDbVisualStyle
  2
ColorChange
 70
    16
 71
     2
 72
     2
 73
     3
 90
        0
 40
-0.6
 41
-30.0
 62
     5
 63
     8
421
  8421504
 74
     1
 91
        4
 64
     7
 65
   257
 75
     1
175
     1
 42
1.0
 92
        8
 66
     8
424
  8421504
 43
1.0
 76
     1
 77
     6
 78
     2
 67
     7
 79
     5
170
     0
171
     0
290
     0
174
     0
 93
        1
 44
0.0
173
     0
291
     1
 45
0.0
1001
ACAD
1000
AcDbSavedByObjectVersion
1070
     0
  0
VISUALSTYLE
  5
34
102
{ACAD_REACTORS
330
2A
102
}
330
2A
100
AcDbVisualStyle
  2
Conceptual
 70
     9
 71
     3
 72
     2
 73
     0
 90
        0
 40
-0.6
 41
-30.0
 62
     5
 63
     7
421
 16777215
 74
     2
 91
        2
 64
     7
 65
   257
 75
     1
175
     1
 42
40.0
 92
        8
 66
     7
 43
1.0
 76
     1
 77
     6
 78
     2
 67
     7
 79
     3
170
     0
171
     0
290
     0
174
     0
 93
        1
 44
0.0
173
     0
291
     0
 45
0.0
1001
ACAD
1000
AcDbSavedByObjectVersion
1070
     0
  0
VISUALSTYLE
  5
35
102
{ACAD_REACTORS
330
2A
102
}
330
2A
100
AcDbVisualStyle
  2
Dim
 70
    11
 71
     2
 72
     2
 73
     0
 90
        0
 40
-0.6
 41
-30.0
 62
     5
 63
     7
421
 16777215
 74
     1
 91
        4
 64
     7
 65
   257
 75
     1
175
     1
 42
1.0
 92
        8
 66
     7
 43
1.0
 76
     1
 77
     6
 78
     2
 67
     7
 79
     5
170
     0
171
     0
290
     0
174
     0
 93
        1
 44
-50.0
173
     0
291
     1
 45
0.0
1001
ACAD
1000
AcDbSavedByObjectVersion
1070
     0
  0
VISUALSTYLE
  5
39
102
{ACAD_REACTORS
330
2A
102
}
330
2A
100
AcDbVisualStyle
  2
Facepattern
 70
    15
 71
     2
 72
     2
 73
     0
 90
        0
 40
-0.6
 41
-30.0
 62
     5
 63
     7
421
 16777215
 74
     1
 91
        4
 64
     7
 65
   257
 75
     1
175
     1
 42
1.0
 92
        8
 66
     7
 43
1.0
 76
     1
 77
     6
 78
     2
 67
     7
 79
     5
170
     0
171
     0
290
     0
174
     0
 93
        1
 44
0.0
173
     0
291
     1
 45
0.0
1001
ACAD
1000
AcDbSavedByObjectVersion
1070
     0
  0
VISUALSTYLE
  5
2B
102
{ACAD_REACTORS
330
2A
102
}
330
2A
100
AcDbVisualStyle
  2
Flat
 70
     0
 71
     2
 72
     1
 73
     1
 90
        2
 40
-0.6
 41
30.0
 62
     5
 63
     7
421
 16777215
 74
     0
 91
        4
 64
     7
 65
   257
 75
     1
175
     1
 42
1.0
 92
        8
 66
     7
 43
1.0
 76
     1
 77
     6
 78
     2
 67
     7
 79
     5
170
     0
171
     0
290
     0
174
     0
 93
       13
 44
0.0
173
     0
291
     1
 45
0.0
1001
ACAD
1000
AcDbSavedByObjectVersion
1070
     0
  0
VISUALSTYLE
  5
2C
102
{ACAD_REACTORS
330
2A
102
}
330
2A
100
AcDbVisualStyle
  2
FlatWithEdges
 70
     1
 71
     2
 72
     1
 73
     1
 90
        2
 40
-0.6
 41
30.0
 62
     5
 63
     7
421
 16777215
 74
     1
 91
        4
 64
     7
 65
   257
 75
     1
175
     1
 42
1.0
 92
        0
 66
   257
 43
1.0
 76
     1
 77
     6
 78
     2
 67
     7
 79
     5
170
     0
171
     0
290
     0
174
     0
 93
       13
 44
0.0
173
     0
291
     1
 45
0.0
1001
ACAD
1000
AcDbSavedByObjectVersion
1070
     0
  0
VISUALSTYLE
  5
2D
102
{ACAD_REACTORS
330
2A
102
}
330
2A
100
AcDbVisualStyle
  2
Gouraud
 70
     2
 71
     2
 72
     2
 73
     1
 90
        2
 40
-0.6
 41
30.0
 62
     5
 63
     7
421
 16777215
 74
     0
 91
        4
 64
     7
 65
   257
 75
     1
175
     1
 42
1.0
 92
        0
 66
     7
 43
1.0
 76
     1
 77
     6
 78
     2
 67
     7
 79
     5
170
     0
171
     0
290
     0
174
     0
 93
       13
 44
0.0
173
     0
291
     1
 45
0.0
1001
ACAD
1000
AcDbSavedByObjectVersion
1070
     0
  0
VISUALSTYLE
  5
2E
102
{ACAD_REACTORS
330
2A
102
}
330
2A
100
AcDbVisualStyle
  2
GouraudWithEdges
 70
     3
 71
     2
 72
     2
 73
     1
 90
        2
 40
-0.6
 41
30.0
 62
     5
 63
     7
421
 16777215
 74
     1
 91
        4
 64
     7
 65
   257
 75
     1
175
     1
 42
1.0
 92
        0
 66
   257
 43
1.0
 76
     1
 77
     6
 78
     2
 67
     7
 79
     5
170
     0
171
     0
290
     0
174
     0
 93
       13
 44
0.0
173
     0
291
     1
 45
0.0
1001
ACAD
1000
AcDbSavedByObjectVersion
1070
     0
  0
VISUALSTYLE
  5
38
102
{ACAD_REACTORS
330
2A
102
}
330
2A
100
AcDbVisualStyle
  2
Linepattern
 70
    14
 71
     2
 72
     2
 73
     0
 90
        0
 40
-0.6
 41
-30.0
 62
     5
 63
     7
421
 16777215
 74
     1
 91
        4
 64
     7
 65
   257
 75
     7
175
     7
 42
1.0
 92
        8
 66
     7
 43
1.0
 76
     1
 77
     6
 78
     2
 67
     7
 79
     5
170
     0
171
     0
290
     0
174
     0
 93
        1
 44
0.0
173
     0
291
     1
 45
0.0
1001
ACAD
1000
AcDbSavedByObjectVersion
1070
     0
  0
VISUALSTYLE
  5
33
102
{ACAD_REACTORS
330
2A
102
}
330
2A
100
AcDbVisualStyle
  2
Realistic
 70
     8
 71
     2
 72
     2
 73
     0
 90
        0
 40
-0.6
 41
-30.0
 62
     5
 63
     7
421
 16777215
 74
     1
 91
        0
 64
     7
 65
   257
 75
     1
175
     1
 42
1.0
 92
        8
 66
     8
424
  7895160
 43
1.0
 76
     1
 77
     6
 78
     2
 67
     7
 79
     5
170
     0
171
     0
290
     0
174
     0
 93
       13
 44
0.0
173
     0
291
     0
 45
0.0
1001
ACAD
1000
AcDbSavedByObjectVersion
1070
     0
  0
VISUALSTYLE
  5
37
102
{ACAD_REACTORS
330
2A
102
}
330
2A
100
AcDbVisualStyle
  2
Thicken
 70
    13
 71
     2
 72
     2
 73
     0
 90
        0
 40
-0.6
 41
-30.0
 62
     5
 63
     7
421
 16777215
 74
     1
 91
        4
 64
     7
 65
   257
 75
     1
175
     1
 42
1.0
 92
       12
 66
     7
 43
1.0
 76
     1
 77
     6
 78
     2
 67
     7
 79
     5
170
     0
171
     0
290
     0
174
     0
 93
        1
 44
0.0
173
     0
291
     1
 45
0.0
1001
ACAD
1000
AcDbSavedByObjectVersion
1070
     0
  0
ENDSEC
  0
EOF
