  0
SECTION
  2
HEADER
  9
$ACADVER
  1
AC1018
  9
$ACADMAINTVER
 70
     0
  9
$DWGCODEPAGE
  3
ANSI_1252
  9
$INSBASE
 10
0.0
 20
0.0
 30
0.0
  9
$EXTMIN
 10
-58.00000675092818
 20
-44.87500675093114
 30
0.0
  9
$EXTMAX
 10
58.00000675089495
 20
44.87500675089204
 30
0.0
  9
$LIMMIN
 10
0.0
 20
0.0
  9
$LIMMAX
 10
12.0
 20
9.0
  9
$ORTHOMODE
 70
     0
  9
$REGENMODE
 70
     1
  9
$FILLMODE
 70
     1
  9
$QTEXTMODE
 70
     0
  9
$MIRRTEXT
 70
     1
  9
$LTSCALE
 40
0.0393700787401575
  9
$ATTMODE
 70
     1
  9
$TEXTSIZE
 40
0.2
  9
$TRACEWID
 40
0.05
  9
$TEXTSTYLE
  7
Standard
  9
$CLAYER
  8
SEATS
  9
$CELTYPE
  6
ByLayer
  9
$CECOLOR
 62
   256
  9
$CELTSCALE
 40
1.0
  9
$DISPSILH
 70
     0
  9
$DIMSCALE
 40
1.0
  9
$DIMASZ
 40
0.18
  9
$DIMEXO
 40
0.0625
  9
$DIMDLI
 40
0.38
  9
$DIMRND
 40
0.0
  9
$DIMDLE
 40
0.0
  9
$DIMEXE
 40
0.18
  9
$DIMTP
 40
0.0
  9
$DIMTM
 40
0.0
  9
$DIMTXT
 40
0.18
  9
$DIMCEN
 40
0.09
  9
$DIMTSZ
 40
0.0
  9
$DIMTOL
 70
     0
  9
$DIMLIM
 70
     0
  9
$DIMTIH
 70
     1
  9
$DIMTOH
 70
     1
  9
$DIMSE1
 70
     0
  9
$DIMSE2
 70
     0
  9
$DIMTAD
 70
     0
  9
$DIMZIN
 70
     0
  9
$DIMBLK
  1

  9
$DIMASO
 70
     1
  9
$DIMSHO
 70
     1
  9
$DIMPOST
  1

  9
$DIMAPOST
  1

  9
$DIMALT
 70
     0
  9
$DIMALTD
 70
     2
  9
$DIMALTF
 40
25.4
  9
$DIMLFAC
 40
1.0
  9
$DIMTOFL
 70
     0
  9
$DIMTVP
 40
0.0
  9
$DIMTIX
 70
     0
  9
$DIMSOXD
 70
     0
  9
$DIMSAH
 70
     0
  9
$DIMBLK1
  1

  9
$DIMBLK2
  1

  9
$DIMSTYLE
  2
Standard
  9
$DIMCLRD
 70
     0
  9
$DIMCLRE
 70
     0
  9
$DIMCLRT
 70
     0
  9
$DIMTFAC
 40
1.0
  9
$DIMGAP
 40
0.09
  9
$DIMJUST
 70
     0
  9
$DIMSD1
 70
     0
  9
$DIMSD2
 70
     0
  9
$DIMTOLJ
 70
     1
  9
$DIMTZIN
 70
     0
  9
$DIMALTZ
 70
     0
  9
$DIMALTTZ
 70
     0
  9
$DIMUPT
 70
     0
  9
$DIMDEC
 70
     4
  9
$DIMTDEC
 70
     4
  9
$DIMALTU
 70
     2
  9
$DIMALTTD
 70
     2
  9
$DIMTXSTY
  7
Standard
  9
$DIMAUNIT
 70
     0
  9
$DIMADEC
 70
     0
  9
$DIMALTRND
 40
0.0
  9
$DIMAZIN
 70
     0
  9
$DIMDSEP
 70
    46
  9
$DIMATFIT
 70
     3
  9
$DIMFRAC
 70
     0
  9
$DIMLDRBLK
  1

  9
$DIMLUNIT
 70
     2
  9
$DIMLWD
 70
    -2
  9
$DIMLWE
 70
    -2
  9
$DIMTMOVE
 70
     2
  9
$LUNITS
 70
     2
  9
$LUPREC
 70
     3
  9
$SKETCHINC
 40
0.1
  9
$FILLETRAD
 40
0.5
  9
$AUNITS
 70
     0
  9
$AUPREC
 70
     0
  9
$MENU
  1
.
  9
$ELEVATION
 40
0.0
  9
$PELEVATION
 40
0.0
  9
$THICKNESS
 40
0.0
  9
$LIMCHECK
 70
     0
  9
$CHAMFERA
 40
0.5
  9
$CHAMFERB
 40
0.5
  9
$CHAMFERC
 40
1.0
  9
$CHAMFERD
 40
0.0
  9
$SKPOLY
 70
     0
  9
$TDCREATE
 40
2457539.944765868
  9
$TDUCREATE
 40
2457540.111432535
  9
$TDUPDATE
 40
2457539.94476588
  9
$TDUUPDATE
 40
2457540.111432546
  9
$TDINDWG
 40
0.0000000116
  9
$TDUSRTIMER
 40
0.0000000116
  9
$USRTIMER
 70
     1
  9
$ANGBASE
 50
0.0
  9
$ANGDIR
 70
     0
  9
$PDMODE
 70
     0
  9
$PDSIZE
 40
0.0
  9
$PLINEWID
 40
0.0
  9
$SPLFRAME
 70
     0
  9
$SPLINETYPE
 70
     6
  9
$SPLINESEGS
 70
     8
  9
$HANDSEED
  5
AF
  9
$SURFTAB1
 70
     6
  9
$SURFTAB2
 70
     6
  9
$SURFTYPE
 70
     6
  9
$SURFU
 70
     6
  9
$SURFV
 70
     6
  9
$UCSBASE
  2

  9
$UCSNAME
  2

  9
$UCSORG
 10
0.0
 20
0.0
 30
0.0
  9
$UCSXDIR
 10
1.0
 20
0.0
 30
0.0
  9
$UCSYDIR
 10
0.0
 20
1.0
 30
0.0
  9
$UCSORTHOREF
  2

  9
$UCSORTHOVIEW
 70
     0
  9
$UCSORGTOP
 10
0.0
 20
0.0
 30
0.0
  9
$UCSORGBOTTOM
 10
0.0
 20
0.0
 30
0.0
  9
$UCSORGLEFT
 10
0.0
 20
0.0
 30
0.0
  9
$UCSORGRIGHT
 10
0.0
 20
0.0
 30
0.0
  9
$UCSORGFRONT
 10
0.0
 20
0.0
 30
0.0
  9
$UCSORGBACK
 10
0.0
 20
0.0
 30
0.0
  9
$PUCSBASE
  2

  9
$PUCSNAME
  2

  9
$PUCSORG
 10
0.0
 20
0.0
 30
0.0
  9
$PUCSXDIR
 10
1.0
 20
0.0
 30
0.0
  9
$PUCSYDIR
 10
0.0
 20
1.0
 30
0.0
  9
$PUCSORTHOREF
  2

  9
$PUCSORTHOVIEW
 70
     0
  9
$PUCSORGTOP
 10
0.0
 20
0.0
 30
0.0
  9
$PUCSORGBOTTOM
 10
0.0
 20
0.0
 30
0.0
  9
$PUCSORGLEFT
 10
0.0
 20
0.0
 30
0.0
  9
$PUCSORGRIGHT
 10
0.0
 20
0.0
 30
0.0
  9
$PUCSORGFRONT
 10
0.0
 20
0.0
 30
0.0
  9
$PUCSORGBACK
 10
0.0
 20
0.0
 30
0.0
  9
$USERI1
 70
     0
  9
$USERI2
 70
     0
  9
$USERI3
 70
     0
  9
$USERI4
 70
     0
  9
$USERI5
 70
     0
  9
$USERR1
 40
0.0
  9
$USERR2
 40
0.0
  9
$USERR3
 40
0.0
  9
$USERR4
 40
0.0
  9
$USERR5
 40
0.0
  9
$WORLDVIEW
 70
     1
  9
$SHADEDGE
 70
     3
  9
$SHADEDIF
 70
    70
  9
$TILEMODE
 70
     1
  9
$MAXACTVP
 70
    64
  9
$PINSBASE
 10
0.0
 20
0.0
 30
0.0
  9
$PLIMCHECK
 70
     0
  9
$PEXTMIN
 10
1.000000000000000E+20
 20
1.000000000000000E+20
 30
1.000000000000000E+20
  9
$PEXTMAX
 10
-1.000000000000000E+20
 20
-1.000000000000000E+20
 30
-1.000000000000000E+20
  9
$PLIMMIN
 10
0.0
 20
0.0
  9
$PLIMMAX
 10
12.0
 20
9.0
  9
$UNITMODE
 70
     0
  9
$VISRETAIN
 70
     1
  9
$PLINEGEN
 70
     0
  9
$PSLTSCALE
 70
     1
  9
$TREEDEPTH
 70
  3020
  9
$CMLSTYLE
  2
Standard
  9
$CMLJUST
 70
     0
  9
$CMLSCALE
 40
1.0
  9
$PROXYGRAPHICS
 70
     1
  9
$MEASUREMENT
 70
     0
  9
$CELWEIGHT
370
    -1
  9
$ENDCAPS
280
     0
  9
$JOINSTYLE
280
     0
  9
$LWDISPLAY
290
     0
  9
$INSUNITS
 70
     1
  9
$HYPERLINKBASE
  1

  9
$STYLESHEET
  1

  9
$XEDIT
290
     1
  9
$CEPSNTYPE
380
     0
  9
$PSTYLEMODE
290
     1
  9
$FINGERPRINTGUID
  2
{78C61B92-1893-449E-9CF4-A9C70A34EDC2}
  9
$VERSIONGUID
  2
{FAEB1C32-E019-11D5-929B-00C0DF256EC4}
  9
$EXTNAMES
290
     1
  9
$PSVPSCALE
 40
0.0
  9
$OLESTARTUP
290
     0
  9
$SORTENTS
280
   127
  9
$INDEXCTL
280
     0
  9
$HIDETEXT
280
     1
  9
$XCLIPFRAME
290
     0
  9
$HALOGAP
280
     0
  9
$OBSCOLOR
 70
   257
  9
$OBSLTYPE
280
     0
  9
$INTERSECTIONDISPLAY
280
     0
  9
$INTERSECTIONCOLOR
 70
   257
  9
$DIMASSOC
280
     2
  9
$PROJECTNAME
  1

  0
ENDSEC
  0
SECTION
  2
CLASSES
  0
CLASS
  1
ACDBDICTIONARYWDFLT
  2
AcDbDictionaryWithDefault
  3
ObjectDBX Classes
 90
        0
 91
        4
280
     0
281
     0
  0
CLASS
  1
VISUALSTYLE
  2
AcDbVisualStyle
  3
ObjectDBX Classes
 90
     4095
 91
        4
280
     0
281
     0
  0
ENDSEC
  0
SECTION
  2
TABLES
  0
TABLE
  2
VPORT
  5
8
330
0
100
AcDbSymbolTable
 70
     1
  0
VPORT
  5
29
330
8
100
AcDbSymbolTableRecord
100
AcDbViewportTableRecord
  2
*Active
 70
     0
 10
0.0
 20
0.0
 11
1.0
 21
1.0
 12
0.0
 22
0.0
 13
0.0
 23
0.0
 14
0.5
 24
0.5
 15
0.5
 25
0.5
 16
0.0
 26
0.0
 36
1.0
 17
-0.0000000000166125
 27
-0.0000000000195541
 37
0.0
 40
91.54501377185966
 41
1.29247906463509
 42
50.0
 43
0.0
 44
0.0
 50
0.0
 51
0.0
 71
     0
 72
   100
 73
     1
 74
     3
 75
     0
 76
     0
 77
     0
 78
     0
281
     0
 65
     1
110
0.0
120
0.0
130
0.0
111
1.0
121
0.0
131
0.0
112
0.0
122
1.0
132
0.0
 79
     0
146
0.0
  0
ENDTAB
  0
TABLE
  2
LTYPE
  5
5
330
0
100
AcDbSymbolTable
 70
     1
  0
LTYPE
  5
14
330
5
100
AcDbSymbolTableRecord
100
AcDbLinetypeTableRecord
  2
ByBlock
 70
     0
  3

 72
    65
 73
     0
 40
0.0
  0
LTYPE
  5
15
330
5
100
AcDbSymbolTableRecord
100
AcDbLinetypeTableRecord
  2
ByLayer
 70
     0
  3

 72
    65
 73
     0
 40
0.0
  0
LTYPE
  5
16
330
5
100
AcDbSymbolTableRecord
100
AcDbLinetypeTableRecord
  2
Continuous
 70
     0
  3
Solid line
 72
    65
 73
     0
 40
0.0
  0
ENDTAB
  0
TABLE
  2
LAYER
  5
2
330
0
100
AcDbSymbolTable
 70
     6
  0
LAYER
  5
10
330
2
100
AcDbSymbolTableRecord
100
AcDbLayerTableRecord
  2
0
 70
     0
 62
     7
  6
Continuous
370
    -3
390
F
  0
LAYER
  5
3B
330
2
100
AcDbSymbolTableRecord
100
AcDbLayerTableRecord
  2
SEATS
 70
     0
 62
   251
  6
Continuous
370
    -3
390
F
  0
LAYER
  5
45
330
2
100
AcDbSymbolTableRecord
100
AcDbLayerTableRecord
  2
BACKS
 70
     0
 62
   253
  6
Continuous
370
    -3
390
F
  0
LAYER
  5
56
330
2
100
AcDbSymbolTableRecord
100
AcDbLayerTableRecord
  2
Make2D visible lines
 70
     0
 62
     7
  6
Continuous
370
    -3
390
F
  0
LAYER
  5
5F
330
2
100
AcDbSymbolTableRecord
100
AcDbLayerTableRecord
  2
TABLE
 70
     0
 62
     7
  6
Continuous
370
    -3
390
F
  0
LAYER
  5
70
330
2
100
AcDbSymbolTableRecord
100
AcDbLayerTableRecord
  2
FRAME
 70
     0
 62
    15
  6
Continuous
370
    -3
390
F
  0
ENDTAB
  0
TABLE
  2
STYLE
  5
3
330
0
100
AcDbSymbolTable
 70
     1
  0
STYLE
  5
11
330
3
100
AcDbSymbolTableRecord
100
AcDbTextStyleTableRecord
  2
Standard
 70
     0
 40
0.0
 41
1.0
 50
0.0
 71
     0
 42
0.2
  3
txt
  4

  0
ENDTAB
  0
TABLE
  2
VIEW
  5
6
330
0
100
AcDbSymbolTable
 70
     0
  0
ENDTAB
  0
TABLE
  2
UCS
  5
7
330
0
100
AcDbSymbolTable
 70
     0
  0
ENDTAB
  0
TABLE
  2
APPID
  5
9
330
0
100
AcDbSymbolTable
 70
     1
  0
APPID
  5
12
330
9
100
AcDbSymbolTableRecord
100
AcDbRegAppTableRecord
  2
ACAD
 70
     0
  0
ENDTAB
  0
TABLE
  2
DIMSTYLE
  5
A
330
0
100
AcDbSymbolTable
 70
     1
100
AcDbDimStyleTable
  0
DIMSTYLE
105
27
330
A
100
AcDbSymbolTableRecord
100
AcDbDimStyleTableRecord
  2
Standard
 70
     0
340
11
  0
ENDTAB
  0
TABLE
  2
BLOCK_RECORD
  5
1
330
0
100
AcDbSymbolTable
 70
     1
  0
BLOCK_RECORD
  5
1F
330
1
100
AcDbSymbolTableRecord
100
AcDbBlockTableRecord
  2
*Model_Space
340
22
  0
BLOCK_RECORD
  5
1B
330
1
100
AcDbSymbolTableRecord
100
AcDbBlockTableRecord
  2
*Paper_Space
340
1E
  0
BLOCK_RECORD
  5
23
330
1
100
AcDbSymbolTableRecord
100
AcDbBlockTableRecord
  2
*Paper_Space0
340
26
  0
ENDTAB
  0
ENDSEC
  0
SECTION
  2
BLOCKS
  0
BLOCK
  5
20
330
1F
100
AcDbEntity
  8
0
100
AcDbBlockBegin
  2
*Model_Space
 70
     0
 10
0.0
 20
0.0
 30
0.0
  3
*Model_Space
  1

  0
ENDBLK
  5
21
330
1F
100
AcDbEntity
  8
0
100
AcDbBlockEnd
  0
BLOCK
  5
1C
330
1B
100
AcDbEntity
 67
     1
  8
0
100
AcDbBlockBegin
  2
*Paper_Space
 70
     0
 10
0.0
 20
0.0
 30
0.0
  3
*Paper_Space
  1

  0
ENDBLK
  5
1D
330
1B
100
AcDbEntity
 67
     1
  8
0
100
AcDbBlockEnd
  0
BLOCK
  5
24
330
23
100
AcDbEntity
  8
0
100
AcDbBlockBegin
  2
*Paper_Space0
 70
     0
 10
0.0
 20
0.0
 30
0.0
  3
*Paper_Space0
  1

  0
ENDBLK
  5
25
330
23
100
AcDbEntity
  8
0
100
AcDbBlockEnd
  0
ENDSEC
  0
SECTION
  2
ENTITIES
  0
LINE
  5
3C
330
1F
100
AcDbEntity
  8
SEATS
100
AcDbLine
 10
31.750006750895
 20
19.08037249945046
 30
0.0
 11
31.75000675089502
 21
36.12500675089287
 31
0.0
  0
SPLINE
  5
3D
330
1F
100
AcDbEntity
  8
SEATS
100
AcDbSpline
210
0.0
220
0.0
230
1.0
 70
    24
 71
     2
 72
     6
 73
     3
 74
     0
 42
0.0000000001
 43
0.0000000001
 40
-62.95536574855844
 40
-62.95536574855844
 40
-62.95536574855844
 40
0.0
 40
0.0
 40
0.0
 10
31.75000675089498
 20
-43.87499324910797
 30
0.0
 10
31.75000675089499
 20
-12.39731037482875
 30
0.0
 10
31.750006750895
 20
19.08037249945046
 30
0.0
  0
ARC
  5
3E
330
1F
100
AcDbEntity
  8
SEATS
100
AcDbCircle
 10
32.75000675089498
 20
-43.87499324910797
 30
0.0
 40
1.0
100
AcDbArc
 50
180.0
 51
270.0
  0
SPLINE
  5
3F
330
1F
100
AcDbEntity
  8
SEATS
100
AcDbSpline
210
0.0
220
0.0
230
1.0
 70
    24
 71
     2
 72
     6
 73
     3
 74
     0
 42
0.0000000001
 43
0.0000000001
 40
-17.0
 40
-17.0
 40
-17.0
 40
0.0
 40
0.0
 40
0.0
 10
49.75000675089495
 20
-44.87499324910799
 30
0.0
 10
41.25000675089498
 20
-44.87499324910798
 30
0.0
 10
32.75000675089498
 20
-44.87499324910797
 30
0.0
  0
ARC
  5
40
330
1F
100
AcDbEntity
  8
SEATS
100
AcDbCircle
 10
49.75000675089495
 20
-43.87499324910799
 30
0.0
 40
1.0
100
AcDbArc
 50
270.0
 51
0.0000000000008142
  0
SPLINE
  5
41
330
1F
100
AcDbEntity
  8
SEATS
100
AcDbSpline
210
0.0
220
0.0
230
1.0
 70
    24
 71
     2
 72
     6
 73
     3
 74
     0
 42
0.0000000001
 43
0.0000000001
 40
0.0
 40
0.0
 40
0.0
 40
80.0
 40
80.0
 40
80.0
 10
50.75000675089495
 20
36.12500675089203
 30
0.0
 10
50.75000675089495
 20
-3.874993249107973
 30
0.0
 10
50.75000675089495
 20
-43.87499324910797
 30
0.0
  0
ARC
  5
42
330
1F
100
AcDbEntity
  8
SEATS
100
AcDbCircle
 10
49.75000675089495
 20
36.12500675089203
 30
0.0
 40
1.0
100
AcDbArc
 50
0.0
 51
90.0
  0
SPLINE
  5
43
330
1F
100
AcDbEntity
  8
SEATS
100
AcDbSpline
210
0.0
220
0.0
230
1.0
 70
    24
 71
     2
 72
     6
 73
     3
 74
     0
 42
0.0000000001
 43
0.0000000001
 40
0.0
 40
0.0
 40
0.0
 40
17.0
 40
17.0
 40
17.0
 10
32.75000675089498
 20
37.12500675089203
 30
0.0
 10
41.25000675089498
 20
37.12500675089203
 30
0.0
 10
49.75000675089495
 20
37.12500675089203
 30
0.0
  0
SPLINE
  5
44
330
1F
100
AcDbEntity
  8
SEATS
100
AcDbSpline
210
0.0
220
0.0
230
1.0
 70
    12
 71
     2
 72
     6
 73
     3
 74
     0
 42
0.0000000001
 43
0.0000000001
 40
-1.570796326794862
 40
-1.570796326794862
 40
-1.570796326794862
 40
0.0
 40
0.0
 40
0.0
 10
31.750006750895
 20
36.12500675089203
 30
0.0
 41
1.0
 10
31.75000675089502
 20
37.12500675089198
 30
0.0
 41
0.7071067811865677
 10
32.75000675089498
 20
37.12500675089203
 30
0.0
 41
1.0
  0
SPLINE
  5
46
330
1F
100
AcDbEntity
  8
BACKS
100
AcDbSpline
210
0.0
220
0.0
230
1.0
 70
    12
 71
     3
 72
    53
 73
    49
 74
     0
 42
0.0000000001
 43
0.0000000001
 40
-1.170243373520665
 40
-1.170243373520665
 40
-1.170243373520665
 40
-1.170243373520665
 40
0.0
 40
0.0
 40
0.0
 40
0.3926863527735722
 40
0.3926863527735722
 40
0.3926863527735722
 40
18.64268635277357
 40
18.64268635277357
 40
18.64268635277357
 40
20.21331269926391
 40
20.21331269926391
 40
20.21331269926391
 40
101.9633126992628
 40
101.9633126992628
 40
101.9633126992628
 40
102.2133126992639
 40
102.2133126992639
 40
102.2133126992639
 40
103.3914184361986
 40
103.3914184361986
 40
103.3914184361986
 40
108.6414184361986
 40
108.6414184361986
 40
108.6414184361986
 40
109.8195298897622
 40
109.8195298897622
 40
109.8195298897622
 40
110.0695298897641
 40
110.0695298897641
 40
110.0695298897641
 40
198.0695298897633
 40
198.0695298897633
 40
198.0695298897633
 40
199.2476271348594
 40
199.2476271348594
 40
199.2476271348594
 40
223.7476271348582
 40
223.7476271348582
 40
223.7476271348582
 40
223.9976271348594
 40
223.9976271348594
 40
223.9976271348594
 40
225.1678643397638
 40
225.1678643397638
 40
225.1678643397638
 40
230.459167673435
 40
230.459167673435
 40
230.459167673435
 40
230.459167673435
 10
31.75002102289672
 20
38.86713845387382
 30
0.0
 41
1.0
 10
31.75459864823356
 20
38.43146350666396
 30
0.0
 41
0.8072052831464479
 10
32.06430175214506
 20
38.12500213990613
 30
0.0
 41
0.8072052831464479
 10
32.50000296794935
 20
38.12500675089224
 30
0.0
 41
1.0
 10
32.49927948259221
 20
38.12500675089203
 30
0.0
 41
1.0
 10
32.61301553501308
 20
38.12500675089203
 30
0.0
 41
1.0
 10
32.75000675089498
 20
38.12500675089203
 30
0.0
 41
1.0
 10
38.8333400842283
 20
38.12500675089203
 30
0.0
 41
1.0
 10
44.91667341756165
 20
38.12500675089203
 30
0.0
 41
1.0
 10
51.00000675089495
 20
38.12500675089203
 30
0.0
 41
1.0
 10
51.13360247523325
 20
38.12844555136942
 30
0.0
 41
1.0
 10
51.25342146755775
 20
38.00856771975012
 30
0.0
 41
1.0
 10
51.25000675089495
 20
37.87500675089203
 30
0.0
 41
1.0
 10
51.25000675089495
 20
10.62500675089241
 30
0.0
 41
1.0
 10
51.25000675089495
 20
-16.62499324910721
 30
0.0
 41
1.0
 10
51.25000675089495
 20
-43.87499324910684
 30
0.0
 41
1.0
 10
51.25000675089495
 20
-43.95832658244055
 30
0.0
 41
1.0
 10
51.25000675089515
 20
-44.04166087113086
 30
0.0
 41
1.0
 10
51.25000675089566
 20
-44.12499611517775
 30
0.0
 41
1.0
 10
51.25000412067136
 20
-44.56434055830687
 30
0.0
 41
0.8047386463117929
 10
51.56066398662795
 20
-44.87500280617461
 30
0.0
 41
0.8047386462969573
 10
52.00000675089505
 20
-44.87500186560555
 30
0.0
 41
0.9999999999554934
 10
53.75000675089495
 20
-44.87499612127383
 30
0.0
 41
0.9999999999554934
 10
55.50000675089495
 20
-44.8749977497157
 30
0.0
 41
0.9999999999554934
 10
57.25000675089495
 20
-44.87500675093114
 30
0.0
 41
0.9999999999554934
 10
57.68935142644726
 20
-44.8750075228272
 30
0.0
 41
0.8047394035496167
 10
58.00001100007586
 20
-44.5643439234934
 30
0.0
 41
0.8047394035899953
 10
58.00000675089475
 20
-44.12499703205361
 30
0.0
 41
1.00000000007663
 10
58.00000675089495
 20
-44.04165991577513
 30
0.0
 41
1.00000000007663
 10
58.00000675089505
 20
-43.95832658244115
 30
0.0
 41
1.00000000007663
 10
58.00000675089495
 20
-43.87499324910716
 30
0.0
 41
1.00000000007663
 10
58.00000675089495
 20
-14.54165991577409
 30
0.0
 41
1.00000000007663
 10
58.00000675089495
 20
14.79167341755899
 30
0.0
 41
1.00000000007663
 10
58.00000675089495
 20
44.12500675089203
 30
0.0
 41
1.00000000007663
 10
58.00000675089494
 20
44.56434657911216
 30
0.0
 41
0.8047378541860721
 10
57.68934657911513
 20
44.87500675089196
 30
0.0
 41
0.8047378541860721
 10
57.25000675089495
 20
44.87500675089204
 30
0.0
 41
1.00000000007663
 10
49.08334008422865
 20
44.87500675089203
 30
0.0
 41
1.00000000007663
 10
40.91667341756244
 20
44.87500675089203
 30
0.0
 41
1.00000000007663
 10
32.7500067508962
 20
44.87500675089203
 30
0.0
 41
1.00000000007663
 10
32.66667341756245
 20
44.87500675089203
 30
0.0
 41
1.00000000007663
 10
32.58333912887203
 20
44.8750067508918
 30
0.0
 41
1.00000000007663
 10
32.50000388482493
 20
44.87500675089136
 30
0.0
 41
1.00000000007663
 10
32.06430550211103
 20
44.8750089798251
 30
0.0
 41
0.8072052769108949
 10
31.7546060876268
 20
44.56854752988306
 30
0.0
 41
0.8072052769108949
 10
31.75003087999872
 20
44.1328748522592
 30
0.0
 41
1.00000000007663
 10
31.75027138528771
 20
42.36910709076631
 30
0.0
 41
1.00000000007663
 10
31.75051189057669
 20
40.6053393292734
 30
0.0
 41
1.00000000007663
 10
31.75003661145111
 20
38.86713696901476
 30
0.0
 41
1.00000000007663
  0
SPLINE
  5
47
330
1F
100
AcDbEntity
  8
BACKS
100
AcDbSpline
210
0.0
220
0.0
230
1.0
 70
    12
 71
     2
 72
     6
 73
     3
 74
     0
 42
0.0000000001
 43
0.0000000001
 40
-1.170235524237544
 40
-1.170235524237544
 40
-1.170235524237544
 40
0.0
 40
0.0
 40
0.0
 10
31.0000636242579
 20
38.12500675089269
 30
0.0
 41
1.0
 10
31.74224144308716
 20
38.12500295425207
 30
0.0
 41
0.7108087035112534
 10
31.7500366114511
 20
38.86713696901475
 30
0.0
 41
1.0
  0
SPLINE
  5
48
330
1F
100
AcDbEntity
  8
BACKS
100
AcDbSpline
210
0.0
220
0.0
230
1.0
 70
    28
 71
     3
 72
     8
 73
     4
 74
     0
 42
0.0000000001
 43
0.0000000001
 40
-0.3926863527735675
 40
-0.3926863527735675
 40
-0.3926863527735675
 40
-0.3926863527735675
 40
0.0
 40
0.0
 40
0.0
 40
0.0
 10
30.75006075818668
 20
38.12500675089203
 30
0.0
 41
1.0
 10
30.88719288031627
 20
38.12500675089203
 30
0.0
 41
1.0
 10
31.00057353206905
 20
38.12500675089203
 30
0.0
 41
1.0
 10
31.0000636242579
 20
38.12500675089269
 30
0.0
 41
1.0
  0
SPLINE
  5
49
330
1F
100
AcDbEntity
  8
BACKS
100
AcDbSpline
210
0.0
220
0.0
230
1.0
 70
    24
 71
     2
 72
     6
 73
     3
 74
     0
 42
0.0000000001
 43
0.0000000001
 40
-87.75005400729171
 40
-87.75005400729171
 40
-87.75005400729171
 40
0.0
 40
0.0
 40
0.0
 10
-56.99999324910502
 20
38.12500675089203
 30
0.0
 10
-13.12496624545917
 20
38.12500675089203
 30
0.0
 10
30.75006075818668
 20
38.12500675089203
 30
0.0
  0
SPLINE
  5
4A
330
1F
100
AcDbEntity
  8
BACKS
100
AcDbSpline
210
0.0
220
0.0
230
1.0
 70
    24
 71
     2
 72
     6
 73
     3
 74
     0
 42
0.0000000001
 43
0.0000000001
 40
-0.2500000000011369
 40
-0.2500000000011369
 40
-0.2500000000011369
 40
0.0
 40
0.0
 40
0.0
 10
-57.24999703205072
 20
38.12500675089224
 30
0.0
 10
-57.12499324910559
 20
38.12500675089203
 30
0.0
 10
-56.99999324910502
 20
38.12500675089203
 30
0.0
  0
SPLINE
  5
4B
330
1F
100
AcDbEntity
  8
BACKS
100
AcDbSpline
210
0.0
220
0.0
230
1.0
 70
    12
 71
     2
 72
     6
 73
     3
 74
     0
 42
0.0000000001
 43
0.0000000001
 40
-1.178111453563447
 40
-1.178111453563447
 40
-1.178111453563447
 40
0.0
 40
0.0
 40
0.0
 10
-58.00000675092818
 20
38.87500675089203
 30
0.0
 41
0.9999999998788636
 10
-58.00000806863543
 20
38.12499949709644
 30
0.0
 41
0.7071091052925011
 10
-57.24999703205072
 20
38.12500675089224
 30
0.0
 41
1.0
  0
SPLINE
  5
4C
330
1F
100
AcDbEntity
  8
BACKS
100
AcDbSpline
210
0.0
220
0.0
230
1.0
 70
     8
 71
     2
 72
     6
 73
     3
 74
     0
 42
0.0000000001
 43
0.0000000001
 40
-5.25
 40
-5.25
 40
-5.25
 40
0.0
 40
0.0
 40
0.0
 10
-58.00000186560259
 20
44.12500675089201
 30
0.0
 10
-57.99999324910502
 20
41.50000675089203
 30
0.0
 10
-58.00000675092818
 20
38.87500675089204
 30
0.0
  0
SPLINE
  5
4D
330
1F
100
AcDbEntity
  8
BACKS
100
AcDbSpline
210
0.0
220
0.0
230
1.0
 70
    12
 71
     2
 72
     6
 73
     3
 74
     0
 42
0.0000000001
 43
0.0000000001
 40
-1.178105736933708
 40
-1.178105736933708
 40
-1.178105736933708
 40
0.0
 40
0.0
 40
0.0
 10
-57.24999611517526
 20
44.87500675089134
 30
0.0
 41
1.0
 10
-58.00000347125322
 20
44.87501124096095
 30
0.0
 41
0.7071079694682134
 10
-58.00000186560259
 20
44.12500675089201
 30
0.0
 41
0.9999999999555169
  0
SPLINE
  5
4E
330
1F
100
AcDbEntity
  8
BACKS
100
AcDbSpline
210
0.0
220
0.0
230
1.0
 70
    28
 71
     3
 72
     8
 73
     4
 74
     0
 42
0.0000000001
 43
0.0000000001
 40
-0.3926863527735781
 40
-0.3926863527735781
 40
-0.3926863527735781
 40
-0.3926863527735781
 40
0.0
 40
0.0
 40
0.0
 40
0.0
 10
-56.99999324910377
 20
44.87500675089203
 30
0.0
 41
1.0
 10
-57.13712537121619
 20
44.87500675089203
 30
0.0
 41
1.0
 10
-57.25050602295771
 20
44.87500675089203
 30
0.0
 41
1.0
 10
-57.24999611517526
 20
44.87500675089134
 30
0.0
 41
1.0
  0
SPLINE
  5
4F
330
1F
100
AcDbEntity
  8
BACKS
100
AcDbSpline
210
0.0
220
0.0
230
1.0
 70
    24
 71
     2
 72
     6
 73
     3
 74
     0
 42
0.0000000001
 43
0.0000000001
 40
-87.75005400729168
 40
-87.75005400729168
 40
-87.75005400729168
 40
0.0
 40
0.0
 40
0.0
 10
30.75006075818791
 20
44.87500675089203
 30
0.0
 10
-13.12496624545794
 20
44.87500675089203
 30
0.0
 10
-56.99999324910377
 20
44.87500675089203
 30
0.0
  0
SPLINE
  5
50
330
1F
100
AcDbEntity
  8
BACKS
100
AcDbSpline
210
0.0
220
0.0
230
1.0
 70
    24
 71
     2
 72
     6
 73
     3
 74
     0
 42
0.0000000001
 43
0.0000000001
 40
-0.2500000000011369
 40
-0.2500000000011369
 40
-0.2500000000011369
 40
0.0
 40
0.0
 40
0.0
 10
31.00006454113352
 20
44.87500675089181
 30
0.0
 10
30.87506075818848
 20
44.87500675089203
 30
0.0
 10
30.75006075818791
 20
44.87500675089203
 30
0.0
  0
SPLINE
  5
51
330
1F
100
AcDbEntity
  8
BACKS
100
AcDbSpline
210
0.0
220
0.0
230
1.0
 70
    12
 71
     2
 72
     6
 73
     3
 74
     0
 42
0.0000000001
 43
0.0000000001
 40
-1.170242041670226
 40
-1.170242041670226
 40
-1.170242041670226
 40
0.0
 40
0.0
 40
0.0
 10
31.75004647221146
 20
44.13287637974145
 30
0.0
 41
1.0
 10
31.74224752719155
 20
44.87501460544642
 30
0.0
 41
0.7108085491865963
 10
31.00006454113352
 20
44.87500675089181
 30
0.0
 41
1.0
  0
POLYLINE
  5
52
330
1F
100
AcDbEntity
  8
BACKS
100
AcDb2dPolyline
 66
     1
 10
0.0
 20
0.0
 30
0.0
  0
VERTEX
  5
53
330
52
100
AcDbEntity
  8
BACKS
100
AcDbVertex
100
AcDb2dVertex
 10
31.7500366114511
 20
38.86713696901475
 30
0.0
  0
VERTEX
  5
54
330
52
100
AcDbEntity
  8
BACKS
100
AcDbVertex
100
AcDb2dVertex
 10
31.75004647221146
 20
44.13287637974145
 30
0.0
  0
SEQEND
  5
55
330
52
100
AcDbEntity
  8
BACKS
  0
SPLINE
  5
57
330
1F
100
AcDbEntity
  8
Make2D visible lines
100
AcDbSpline
210
0.0
220
0.0
230
1.0
 70
    12
 71
     2
 72
     6
 73
     3
 74
     0
 42
0.0000000001
 43
0.0000000001
 40
0.0
 40
0.0
 40
0.0
 40
2.748893571939821
 40
2.748893571939821
 40
2.748893571939821
 10
29.00000675089498
 20
17.12495274359912
 30
0.0
 41
1.0
 10
30.7500067509437
 20
17.12495274359911
 30
0.0
 41
0.7071067811767028
 10
30.75000675089498
 20
15.37495274355037
 30
0.0
 41
1.0
  0
SPLINE
  5
58
330
1F
100
AcDbEntity
  8
Make2D visible lines
100
AcDbSpline
210
0.0
220
0.0
230
1.0
 70
    24
 71
     2
 72
     6
 73
     3
 74
     0
 42
0.0000000001
 43
0.0000000001
 40
0.0
 40
0.0
 40
0.0
 40
80.49999999995123
 40
80.49999999995123
 40
80.49999999995123
 10
-51.49999324905625
 20
17.12495274359912
 30
0.0
 10
-11.24999324908064
 20
17.12495274359912
 30
0.0
 10
29.00000675089498
 20
17.12495274359912
 30
0.0
  0
SPLINE
  5
59
330
1F
100
AcDbEntity
  8
Make2D visible lines
100
AcDbSpline
210
0.0
220
0.0
230
1.0
 70
    12
 71
     2
 72
     6
 73
     3
 74
     0
 42
0.0000000001
 43
0.0000000001
 40
0.0
 40
0.0
 40
0.0
 40
2.74889357193981
 40
2.74889357193981
 40
2.74889357193981
 10
-53.249993249105
 20
15.37495274359912
 30
0.0
 41
1.0
 10
-53.24999324910497
 20
17.12495274364785
 30
0.0
 41
0.707106781176711
 10
-51.49999324905625
 20
17.12495274359914
 30
0.0
 41
1.0
  0
SPLINE
  5
5A
330
1F
100
AcDbEntity
  8
Make2D visible lines
100
AcDbSpline
210
0.0
220
0.0
230
1.0
 70
    24
 71
     2
 72
     6
 73
     3
 74
     0
 42
0.0000000001
 43
0.0000000001
 40
0.0
 40
0.0
 40
0.0
 40
38.49999999995124
 40
38.49999999995124
 40
38.49999999995124
 10
-53.24999324910501
 20
-23.12504725635212
 30
0.0
 10
-53.249993249105
 20
-3.875047256376504
 30
0.0
 10
-53.249993249105
 20
15.37495274359912
 30
0.0
  0
SPLINE
  5
5B
330
1F
100
AcDbEntity
  8
Make2D visible lines
100
AcDbSpline
210
0.0
220
0.0
230
1.0
 70
    12
 71
     2
 72
     6
 73
     3
 74
     0
 42
0.0000000001
 43
0.0000000001
 40
0.0
 40
0.0
 40
0.0
 40
2.748893571939833
 40
2.748893571939833
 40
2.748893571939833
 10
-51.499993249105
 20
-24.87504725640087
 30
0.0
 41
1.0
 10
-53.24999324915375
 20
-24.87504725640088
 30
0.0
 41
0.707106781176698
 10
-53.24999324910501
 20
-23.12504725635212
 30
0.0
 41
1.0
  0
SPLINE
  5
5C
330
1F
100
AcDbEntity
  8
Make2D visible lines
100
AcDbSpline
210
0.0
220
0.0
230
1.0
 70
    24
 71
     2
 72
     6
 73
     3
 74
     0
 42
0.0000000001
 43
0.0000000001
 40
0.0
 40
0.0
 40
0.0
 40
80.49999999999997
 40
80.49999999999997
 40
80.49999999999997
 10
29.00000675089498
 20
-24.87504725640087
 30
0.0
 10
-11.24999324910501
 20
-24.87504725640087
 30
0.0
 10
-51.499993249105
 20
-24.87504725640087
 30
0.0
  0
SPLINE
  5
5D
330
1F
100
AcDbEntity
  8
Make2D visible lines
100
AcDbSpline
210
0.0
220
0.0
230
1.0
 70
    12
 71
     2
 72
     6
 73
     3
 74
     0
 42
0.0000000001
 43
0.0000000001
 40
0.0
 40
0.0
 40
0.0
 40
2.748893571891074
 40
2.748893571891074
 40
2.748893571891074
 10
30.75000675089498
 20
-23.12504725640087
 30
0.0
 41
1.0
 10
30.750006750895
 20
-24.8750472564009
 30
0.0
 41
0.7071067811865375
 10
29.00000675089498
 20
-24.87504725640087
 30
0.0
 41
1.0
  0
SPLINE
  5
5E
330
1F
100
AcDbEntity
  8
Make2D visible lines
100
AcDbSpline
210
0.0
220
0.0
230
1.0
 70
    24
 71
     2
 72
     6
 73
     3
 74
     0
 42
0.0000000001
 43
0.0000000001
 40
0.0
 40
0.0
 40
0.0
 40
38.49999999995124
 40
38.49999999995124
 40
38.49999999995124
 10
30.75000675089498
 20
15.37495274355037
 30
0.0
 10
30.75000675089498
 20
-3.875047256425248
 30
0.0
 10
30.75000675089498
 20
-23.12504725640087
 30
0.0
  0
SPLINE
  5
60
330
1F
100
AcDbEntity
  8
TABLE
100
AcDbSpline
210
0.0
220
0.0
230
1.0
 70
    12
 71
     2
 72
     6
 73
     3
 74
     0
 42
0.0000000001
 43
0.0000000001
 40
0.0
 40
0.0
 40
0.0
 40
2.748893571939821
 40
2.748893571939821
 40
2.748893571939821
 10
29.00000675089498
 20
17.12495274359912
 30
0.0
 41
1.0
 10
30.7500067509437
 20
17.12495274359911
 30
0.0
 41
0.7071067811767028
 10
30.75000675089498
 20
15.37495274355037
 30
0.0
 41
1.0
  0
SPLINE
  5
61
330
1F
100
AcDbEntity
  8
TABLE
100
AcDbSpline
210
0.0
220
0.0
230
1.0
 70
    24
 71
     2
 72
     6
 73
     3
 74
     0
 42
0.0000000001
 43
0.0000000001
 40
0.0
 40
0.0
 40
0.0
 40
80.49999999995123
 40
80.49999999995123
 40
80.49999999995123
 10
-51.49999324905625
 20
17.12495274359912
 30
0.0
 10
-11.24999324908064
 20
17.12495274359912
 30
0.0
 10
29.00000675089498
 20
17.12495274359912
 30
0.0
  0
SPLINE
  5
62
330
1F
100
AcDbEntity
  8
TABLE
100
AcDbSpline
210
0.0
220
0.0
230
1.0
 70
    12
 71
     2
 72
     6
 73
     3
 74
     0
 42
0.0000000001
 43
0.0000000001
 40
0.0
 40
0.0
 40
0.0
 40
2.74889357193981
 40
2.74889357193981
 40
2.74889357193981
 10
-53.249993249105
 20
15.37495274359912
 30
0.0
 41
1.0
 10
-53.24999324910497
 20
17.12495274364785
 30
0.0
 41
0.707106781176711
 10
-51.49999324905625
 20
17.12495274359914
 30
0.0
 41
1.0
  0
SPLINE
  5
63
330
1F
100
AcDbEntity
  8
TABLE
100
AcDbSpline
210
0.0
220
0.0
230
1.0
 70
    24
 71
     2
 72
     6
 73
     3
 74
     0
 42
0.0000000001
 43
0.0000000001
 40
0.0
 40
0.0
 40
0.0
 40
38.49999999995124
 40
38.49999999995124
 40
38.49999999995124
 10
-53.24999324910501
 20
-23.12504725635212
 30
0.0
 10
-53.249993249105
 20
-3.875047256376504
 30
0.0
 10
-53.249993249105
 20
15.37495274359912
 30
0.0
  0
SPLINE
  5
64
330
1F
100
AcDbEntity
  8
TABLE
100
AcDbSpline
210
0.0
220
0.0
230
1.0
 70
    12
 71
     2
 72
     6
 73
     3
 74
     0
 42
0.0000000001
 43
0.0000000001
 40
0.0
 40
0.0
 40
0.0
 40
2.748893571939833
 40
2.748893571939833
 40
2.748893571939833
 10
-51.499993249105
 20
-24.87504725640087
 30
0.0
 41
1.0
 10
-53.24999324915375
 20
-24.87504725640088
 30
0.0
 41
0.707106781176698
 10
-53.24999324910501
 20
-23.12504725635212
 30
0.0
 41
1.0
  0
SPLINE
  5
65
330
1F
100
AcDbEntity
  8
TABLE
100
AcDbSpline
210
0.0
220
0.0
230
1.0
 70
    24
 71
     2
 72
     6
 73
     3
 74
     0
 42
0.0000000001
 43
0.0000000001
 40
0.0
 40
0.0
 40
0.0
 40
80.49999999999997
 40
80.49999999999997
 40
80.49999999999997
 10
29.00000675089498
 20
-24.87504725640087
 30
0.0
 10
-11.24999324910501
 20
-24.87504725640087
 30
0.0
 10
-51.499993249105
 20
-24.87504725640087
 30
0.0
  0
SPLINE
  5
66
330
1F
100
AcDbEntity
  8
TABLE
100
AcDbSpline
210
0.0
220
0.0
230
1.0
 70
    12
 71
     2
 72
     6
 73
     3
 74
     0
 42
0.0000000001
 43
0.0000000001
 40
0.0
 40
0.0
 40
0.0
 40
2.748893571891074
 40
2.748893571891074
 40
2.748893571891074
 10
30.75000675089498
 20
-23.12504725640087
 30
0.0
 41
1.0
 10
30.750006750895
 20
-24.8750472564009
 30
0.0
 41
0.7071067811865375
 10
29.00000675089498
 20
-24.87504725640087
 30
0.0
 41
1.0
  0
SPLINE
  5
67
330
1F
100
AcDbEntity
  8
TABLE
100
AcDbSpline
210
0.0
220
0.0
230
1.0
 70
    24
 71
     2
 72
     6
 73
     3
 74
     0
 42
0.0000000001
 43
0.0000000001
 40
0.0
 40
0.0
 40
0.0
 40
38.49999999995124
 40
38.49999999995124
 40
38.49999999995124
 10
30.75000675089498
 20
15.37495274355037
 30
0.0
 10
30.75000675089498
 20
-3.875047256425248
 30
0.0
 10
30.75000675089498
 20
-23.12504725640087
 30
0.0
  0
SPLINE
  5
68
330
1F
100
AcDbEntity
  8
SEATS
100
AcDbSpline
210
0.0
220
0.0
230
1.0
 70
    24
 71
     2
 72
     6
 73
     3
 74
     0
 42
0.0000000001
 43
0.0000000001
 40
0.0
 40
0.0
 40
0.0
 40
17.0
 40
17.0
 40
17.0
 10
-57.99999324910502
 20
19.12495274359912
 30
0.0
 10
-57.99999324910502
 20
27.62495274359912
 30
0.0
 10
-57.99999324910502
 20
36.12495274359912
 30
0.0
  0
ARC
  5
69
330
1F
100
AcDbEntity
  8
SEATS
100
AcDbCircle
 10
-56.99999324910502
 20
19.12495274359912
 30
0.0
 40
1.0
100
AcDbArc
 50
180.0
 51
270.0
  0
SPLINE
  5
6A
330
1F
100
AcDbEntity
  8
SEATS
100
AcDbSpline
210
0.0
220
0.0
230
1.0
 70
    24
 71
     2
 72
     6
 73
     3
 74
     0
 42
0.0000000001
 43
0.0000000001
 40
0.0
 40
0.0
 40
0.0
 40
87.75
 40
87.75
 40
87.75
 10
30.75000675089498
 20
18.12495274359912
 30
0.0
 10
-13.12499324910502
 20
18.12495274359912
 30
0.0
 10
-56.99999324910502
 20
18.12495274359912
 30
0.0
  0
ARC
  5
6B
330
1F
100
AcDbEntity
  8
SEATS
100
AcDbCircle
 10
30.75000675089498
 20
19.12495274359912
 30
0.0
 40
1.0
100
AcDbArc
 50
270.0
 51
0.0
  0
SPLINE
  5
6C
330
1F
100
AcDbEntity
  8
SEATS
100
AcDbSpline
210
0.0
220
0.0
230
1.0
 70
    24
 71
     2
 72
     6
 73
     3
 74
     0
 42
0.0000000001
 43
0.0000000001
 40
-17.0
 40
-17.0
 40
-17.0
 40
0.0
 40
0.0
 40
0.0
 10
31.75000675089498
 20
36.12495274359912
 30
0.0
 10
31.75000675089498
 20
27.62495274359912
 30
0.0
 10
31.75000675089498
 20
19.12495274359912
 30
0.0
  0
ARC
  5
6D
330
1F
100
AcDbEntity
  8
SEATS
100
AcDbCircle
 10
30.75000675089498
 20
36.12495274359912
 30
0.0
 40
1.0
100
AcDbArc
 50
0.0
 51
90.0
  0
SPLINE
  5
6E
330
1F
100
AcDbEntity
  8
SEATS
100
AcDbSpline
210
0.0
220
0.0
230
1.0
 70
    24
 71
     2
 72
     6
 73
     3
 74
     0
 42
0.0000000001
 43
0.0000000001
 40
0.0
 40
0.0
 40
0.0
 40
87.75
 40
87.75
 40
87.75
 10
-56.99999324910502
 20
37.12495274359912
 30
0.0
 10
-13.12499324910502
 20
37.12495274359912
 30
0.0
 10
30.75000675089498
 20
37.12495274359912
 30
0.0
  0
ARC
  5
6F
330
1F
100
AcDbEntity
  8
SEATS
100
AcDbCircle
 10
-56.99999324910502
 20
36.12495274359912
 30
0.0
 40
1.0
100
AcDbArc
 50
90.0
 51
180.0
  0
POLYLINE
  5
71
330
1F
100
AcDbEntity
  8
FRAME
100
AcDb2dPolyline
 66
     1
 10
0.0
 20
0.0
 30
0.0
  0
VERTEX
  5
72
330
71
100
AcDbEntity
  8
FRAME
100
AcDbVertex
100
AcDb2dVertex
 10
50.75000675089495
 20
-35.05408175238292
 30
0.0
  0
VERTEX
  5
73
330
71
100
AcDbEntity
  8
FRAME
100
AcDbVertex
100
AcDb2dVertex
 10
51.25000675089495
 20
-35.05408175238274
 30
0.0
  0
SEQEND
  5
74
330
71
100
AcDbEntity
  8
FRAME
  0
SPLINE
  5
75
330
1F
100
AcDbEntity
  8
FRAME
100
AcDbSpline
210
0.0
220
0.0
230
1.0
 70
    28
 71
     2
 72
     6
 73
     3
 74
     0
 42
0.0000000001
 43
0.0000000001
 40
-8509.352287339254
 40
-8509.352287339254
 40
-8509.352287339254
 40
-8508.564885764452
 40
-8508.564885764452
 40
-8508.564885764452
 10
50.75000675089495
 20
-35.84148332718543
 30
0.0
 41
1.0
 10
50.75000675089495
 20
-35.44778253978413
 30
0.0
 41
1.0
 10
50.75000675089495
 20
-35.05408175238292
 30
0.0
 41
1.0
  0
POLYLINE
  5
76
330
1F
100
AcDbEntity
  8
FRAME
100
AcDb2dPolyline
 66
     1
 10
0.0
 20
0.0
 30
0.0
  0
VERTEX
  5
77
330
76
100
AcDbEntity
  8
FRAME
100
AcDbVertex
100
AcDb2dVertex
 10
51.25000675089495
 20
-35.8414833271857
 30
0.0
  0
VERTEX
  5
78
330
76
100
AcDbEntity
  8
FRAME
100
AcDbVertex
100
AcDb2dVertex
 10
50.75000675089495
 20
-35.84148332718543
 30
0.0
  0
SEQEND
  5
79
330
76
100
AcDbEntity
  8
FRAME
  0
SPLINE
  5
7A
330
1F
100
AcDbEntity
  8
FRAME
100
AcDbSpline
210
0.0
220
0.0
230
1.0
 70
    28
 71
     3
 72
     8
 73
     4
 74
     0
 42
0.0000000001
 43
0.0000000001
 40
93.14240120253868
 40
93.14240120253868
 40
93.14240120253868
 40
93.14240120253868
 40
93.92980277734164
 40
93.92980277734164
 40
93.92980277734164
 40
93.92980277734164
 10
51.25000675089495
 20
-35.05408175238274
 30
0.0
 41
1.0
 10
51.25000675089495
 20
-35.31654894398373
 30
0.0
 41
1.0
 10
51.25000675089495
 20
-35.57901613558472
 30
0.0
 41
1.0
 10
51.25000675089495
 20
-35.8414833271857
 30
0.0
 41
1.0
  0
SPLINE
  5
7B
330
1F
100
AcDbEntity
  8
FRAME
100
AcDbSpline
210
0.0
220
0.0
230
1.0
 70
    28
 71
     3
 72
     8
 73
     4
 74
     0
 42
0.0000000001
 43
0.0000000001
 40
22.27628210557251
 40
22.27628210557251
 40
22.27628210557251
 40
22.27628210557251
 40
23.06368368037544
 40
23.06368368037544
 40
23.06368368037544
 40
23.06368368037544
 10
51.25000675089495
 20
35.81203734458343
 30
0.0
 41
1.0
 10
51.25000675089495
 20
35.54957015298245
 30
0.0
 41
1.0
 10
51.25000675089495
 20
35.28710296138148
 30
0.0
 41
1.0
 10
51.25000675089495
 20
35.0246357697805
 30
0.0
 41
1.0
  0
POLYLINE
  5
7C
330
1F
100
AcDbEntity
  8
FRAME
100
AcDb2dPolyline
 66
     1
 10
0.0
 20
0.0
 30
0.0
  0
VERTEX
  5
7D
330
7C
100
AcDbEntity
  8
FRAME
100
AcDbVertex
100
AcDb2dVertex
 10
50.75000675089495
 20
35.81203734458363
 30
0.0
  0
VERTEX
  5
7E
330
7C
100
AcDbEntity
  8
FRAME
100
AcDbVertex
100
AcDb2dVertex
 10
51.25000675089495
 20
35.81203734458343
 30
0.0
  0
SEQEND
  5
7F
330
7C
100
AcDbEntity
  8
FRAME
  0
SPLINE
  5
80
330
1F
100
AcDbEntity
  8
FRAME
100
AcDbSpline
210
0.0
220
0.0
230
1.0
 70
    28
 71
     2
 72
     6
 73
     3
 74
     0
 42
0.0000000001
 43
0.0000000001
 40
-8438.486168242289
 40
-8438.486168242289
 40
-8438.486168242289
 40
-8437.698766667485
 40
-8437.698766667485
 40
-8437.698766667485
 10
50.75000675089495
 20
35.02463576978023
 30
0.0
 41
1.0
 10
50.75000675089495
 20
35.4183365571819
 30
0.0
 41
1.0
 10
50.75000675089495
 20
35.81203734458363
 30
0.0
 41
1.0
  0
POLYLINE
  5
81
330
1F
100
AcDbEntity
  8
FRAME
100
AcDb2dPolyline
 66
     1
 10
0.0
 20
0.0
 30
0.0
  0
VERTEX
  5
82
330
81
100
AcDbEntity
  8
FRAME
100
AcDbVertex
100
AcDb2dVertex
 10
51.25000675089495
 20
35.0246357697805
 30
0.0
  0
VERTEX
  5
83
330
81
100
AcDbEntity
  8
FRAME
100
AcDbVertex
100
AcDb2dVertex
 10
50.75000675089495
 20
35.02463576978023
 30
0.0
  0
SEQEND
  5
84
330
81
100
AcDbEntity
  8
FRAME
  0
POLYLINE
  5
85
330
1F
100
AcDbEntity
  8
FRAME
100
AcDb2dPolyline
 66
     1
 10
0.0
 20
0.0
 30
0.0
  0
VERTEX
  5
86
330
85
100
AcDbEntity
  8
FRAME
100
AcDbVertex
100
AcDb2dVertex
 10
48.77757441383225
 20
37.12500675089203
 30
0.0
  0
VERTEX
  5
87
330
85
100
AcDbEntity
  8
FRAME
100
AcDbVertex
100
AcDb2dVertex
 10
48.77757441410215
 20
38.12500675089203
 30
0.0
  0
SEQEND
  5
88
330
85
100
AcDbEntity
  8
FRAME
  0
SPLINE
  5
89
330
1F
100
AcDbEntity
  8
FRAME
100
AcDbSpline
210
0.0
220
0.0
230
1.0
 70
    28
 71
     2
 72
     6
 73
     3
 74
     0
 42
0.0000000001
 43
0.0000000001
 40
-8435.629970172173
 40
-8435.629970172173
 40
-8435.629970172173
 40
-8434.842568597318
 40
-8434.842568597318
 40
-8434.842568597318
 10
49.56497598868736
 20
37.12500675089203
 30
0.0
 41
1.0
 10
49.17127520125945
 20
37.12500675089203
 30
0.0
 41
1.0
 10
48.77757441383225
 20
37.12500675089203
 30
0.0
 41
1.0
  0
POLYLINE
  5
8A
330
1F
100
AcDbEntity
  8
FRAME
100
AcDb2dPolyline
 66
     1
 10
0.0
 20
0.0
 30
0.0
  0
VERTEX
  5
8B
330
8A
100
AcDbEntity
  8
FRAME
100
AcDbVertex
100
AcDb2dVertex
 10
49.56497598909265
 20
38.12500675089203
 30
0.0
  0
VERTEX
  5
8C
330
8A
100
AcDbEntity
  8
FRAME
100
AcDbVertex
100
AcDb2dVertex
 10
49.56497598868736
 20
37.12500675089203
 30
0.0
  0
SEQEND
  5
8D
330
8A
100
AcDbEntity
  8
FRAME
  0
SPLINE
  5
8E
330
1F
100
AcDbEntity
  8
FRAME
100
AcDbSpline
210
0.0
220
0.0
230
1.0
 70
    28
 71
     3
 72
     8
 73
     4
 74
     0
 42
0.0000000001
 43
0.0000000001
 40
16.42025401598078
 40
16.42025401598078
 40
16.42025401598078
 40
16.42025401598078
 40
17.20765559097127
 40
17.20765559097127
 40
17.20765559097127
 40
17.20765559097127
 10
48.77757441410215
 20
38.12500675089203
 30
0.0
 41
1.0
 10
49.04004160576566
 20
38.12500675089203
 30
0.0
 41
1.0
 10
49.30250879742915
 20
38.12500675089203
 30
0.0
 41
1.0
 10
49.56497598909265
 20
38.12500675089203
 30
0.0
 41
1.0
  0
POLYLINE
  5
8F
330
1F
100
AcDbEntity
  8
FRAME
100
AcDb2dPolyline
 66
     1
 10
0.0
 20
0.0
 30
0.0
  0
VERTEX
  5
90
330
8F
100
AcDbEntity
  8
FRAME
100
AcDbVertex
100
AcDb2dVertex
 10
37.7539523676032
 20
38.12500675089203
 30
0.0
  0
VERTEX
  5
91
330
8F
100
AcDbEntity
  8
FRAME
100
AcDbVertex
100
AcDb2dVertex
 10
37.75395236746868
 20
37.12500675089201
 30
0.0
  0
SEQEND
  5
92
330
8F
100
AcDbEntity
  8
FRAME
  0
SPLINE
  5
93
330
1F
100
AcDbEntity
  8
FRAME
100
AcDbSpline
210
0.0
220
0.0
230
1.0
 70
    28
 71
     3
 72
     8
 73
     4
 74
     0
 42
0.0000000001
 43
0.0000000001
 40
4.609230395569226
 40
4.609230395569226
 40
4.609230395569226
 40
4.609230395569226
 40
5.396631969481803
 40
5.396631969481803
 40
5.396631969481803
 40
5.396631969481803
 10
36.96655079369062
 20
38.12500675089203
 30
0.0
 41
1.0
 10
37.2290179849948
 20
38.12500675089203
 30
0.0
 41
1.0
 10
37.491485176299
 20
38.12500675089203
 30
0.0
 41
1.0
 10
37.7539523676032
 20
38.12500675089203
 30
0.0
 41
1.0
  0
POLYLINE
  5
94
330
1F
100
AcDbEntity
  8
FRAME
100
AcDb2dPolyline
 66
     1
 10
0.0
 20
0.0
 30
0.0
  0
VERTEX
  5
95
330
94
100
AcDbEntity
  8
FRAME
100
AcDbVertex
100
AcDb2dVertex
 10
36.96655079315604
 20
37.12500675089201
 30
0.0
  0
VERTEX
  5
96
330
94
100
AcDbEntity
  8
FRAME
100
AcDbVertex
100
AcDb2dVertex
 10
36.96655079369062
 20
38.12500675089203
 30
0.0
  0
SEQEND
  5
97
330
94
100
AcDbEntity
  8
FRAME
  0
SPLINE
  5
98
330
1F
100
AcDbEntity
  8
FRAME
100
AcDbSpline
210
0.0
220
0.0
230
1.0
 70
    28
 71
     2
 72
     6
 73
     3
 74
     0
 42
0.0000000001
 43
0.0000000001
 40
-8423.818946550955
 40
-8423.818946550955
 40
-8423.818946550955
 40
-8423.031544976642
 40
-8423.031544976642
 40
-8423.031544976642
 10
37.75395236746868
 20
37.12500675089201
 30
0.0
 41
1.0
 10
37.36025158031273
 20
37.12500675089203
 30
0.0
 41
1.0
 10
36.96655079315604
 20
37.12500675089201
 30
0.0
 41
1.0
  0
POLYLINE
  5
99
330
1F
100
AcDbEntity
  8
FRAME
100
AcDb2dPolyline
 66
     1
 10
0.0
 20
0.0
 30
0.0
  0
VERTEX
  5
9A
330
99
100
AcDbEntity
  8
FRAME
100
AcDbVertex
100
AcDb2dVertex
 10
22.70180544607421
 20
38.12500675089203
 30
0.0
  0
VERTEX
  5
9B
330
99
100
AcDbEntity
  8
FRAME
100
AcDbVertex
100
AcDb2dVertex
 10
22.70180544607421
 20
37.12495274359912
 30
0.0
  0
SEQEND
  5
9C
330
99
100
AcDbEntity
  8
FRAME
  0
SPLINE
  5
9D
330
1F
100
AcDbEntity
  8
FRAME
100
AcDbSpline
210
0.0
220
0.0
230
1.0
 70
    28
 71
     3
 72
     8
 73
     4
 74
     0
 42
0.0000000001
 43
0.0000000001
 40
181.5993361233471
 40
181.5993361233471
 40
181.5993361233471
 40
181.5993361233471
 40
182.3867376981501
 40
182.3867376981501
 40
182.3867376981501
 40
182.3867376981501
 10
21.91440387127127
 20
38.12500675089203
 30
0.0
 41
1.000000000076653
 10
22.17687106287225
 20
38.12500675089203
 30
0.0
 41
1.000000000076653
 10
22.43933825447322
 20
38.12500675089203
 30
0.0
 41
1.000000000076653
 10
22.70180544607421
 20
38.12500675089203
 30
0.0
 41
1.000000000076653
  0
POLYLINE
  5
9E
330
1F
100
AcDbEntity
  8
FRAME
100
AcDb2dPolyline
 66
     1
 10
0.0
 20
0.0
 30
0.0
  0
VERTEX
  5
9F
330
9E
100
AcDbEntity
  8
FRAME
100
AcDbVertex
100
AcDb2dVertex
 10
21.91440387127127
 20
37.12495274359911
 30
0.0
  0
VERTEX
  5
A0
330
9E
100
AcDbEntity
  8
FRAME
100
AcDbVertex
100
AcDb2dVertex
 10
21.91440387127127
 20
38.12500675089203
 30
0.0
  0
SEQEND
  5
A1
330
9E
100
AcDbEntity
  8
FRAME
  0
SPLINE
  5
A2
330
1F
100
AcDbEntity
  8
FRAME
100
AcDbSpline
210
0.0
220
0.0
230
1.0
 70
    28
 71
     2
 72
     6
 73
     3
 74
     0
 42
0.0000000001
 43
0.0000000001
 40
-187.593391348769
 40
-187.593391348769
 40
-187.593391348769
 40
-186.8059897739661
 40
-186.8059897739661
 40
-186.8059897739661
 10
22.70180544607421
 20
37.12495274359912
 30
0.0
 41
1.0
 10
22.30810465867274
 20
37.12495274359912
 30
0.0
 41
1.0
 10
21.91440387127127
 20
37.12495274359911
 30
0.0
 41
1.0
  0
SPLINE
  5
A3
330
1F
100
AcDbEntity
  8
FRAME
100
AcDbSpline
210
0.0
220
0.0
230
1.0
 70
    28
 71
     3
 72
     8
 73
     4
 74
     0
 42
0.0000000001
 43
0.0000000001
 40
110.7332170263808
 40
110.7332170263808
 40
110.7332170263808
 40
110.7332170263808
 40
111.5206186011838
 40
111.5206186011838
 40
111.5206186011838
 40
111.5206186011838
 10
-48.95171522569503
 20
38.12500675089203
 30
0.0
 41
1.000000000076653
 10
-48.68924803409404
 20
38.12500675089203
 30
0.0
 41
1.000000000076653
 10
-48.42678084249305
 20
38.12500675089203
 30
0.0
 41
1.000000000076653
 10
-48.16431365089206
 20
38.12500675089203
 30
0.0
 41
1.000000000076653
  0
POLYLINE
  5
A4
330
1F
100
AcDbEntity
  8
FRAME
100
AcDb2dPolyline
 66
     1
 10
0.0
 20
0.0
 30
0.0
  0
VERTEX
  5
A5
330
A4
100
AcDbEntity
  8
FRAME
100
AcDbVertex
100
AcDb2dVertex
 10
-48.95171522569502
 20
37.12495274359912
 30
0.0
  0
VERTEX
  5
A6
330
A4
100
AcDbEntity
  8
FRAME
100
AcDbVertex
100
AcDb2dVertex
 10
-48.95171522569503
 20
38.12500675089203
 30
0.0
  0
SEQEND
  5
A7
330
A4
100
AcDbEntity
  8
FRAME
  0
SPLINE
  5
A8
330
1F
100
AcDbEntity
  8
FRAME
100
AcDbSpline
210
0.0
220
0.0
230
1.0
 70
    28
 71
     2
 72
     6
 73
     3
 74
     0
 42
0.0000000001
 43
0.0000000001
 40
-116.7272722518027
 40
-116.7272722518027
 40
-116.7272722518027
 40
-115.9398706769998
 40
-115.9398706769998
 40
-115.9398706769998
 10
-48.16431365089206
 20
37.12495274359912
 30
0.0
 41
1.0
 10
-48.55801443829354
 20
37.12495274359912
 30
0.0
 41
1.0
 10
-48.95171522569502
 20
37.12495274359912
 30
0.0
 41
1.0
  0
POLYLINE
  5
A9
330
1F
100
AcDbEntity
  8
FRAME
100
AcDb2dPolyline
 66
     1
 10
0.0
 20
0.0
 30
0.0
  0
VERTEX
  5
AA
330
A9
100
AcDbEntity
  8
FRAME
100
AcDbVertex
100
AcDb2dVertex
 10
-48.16431365089206
 20
38.12500675089203
 30
0.0
  0
VERTEX
  5
AB
330
A9
100
AcDbEntity
  8
FRAME
100
AcDbVertex
100
AcDb2dVertex
 10
-48.16431365089206
 20
37.12495274359912
 30
0.0
  0
SEQEND
  5
AC
330
A9
100
AcDbEntity
  8
FRAME
  0
ENDSEC
  0
SECTION
  2
OBJECTS
  0
DICTIONARY
  5
C
330
0
100
AcDbDictionary
281
     1
  3
ACAD_GROUP
350
D
  3
ACAD_LAYOUT
350
1A
  3
ACAD_MLEADERSTYLE
350
AE
  3
ACAD_MLINESTYLE
350
17
  3
ACAD_PLOTSETTINGS
350
19
  3
ACAD_PLOTSTYLENAME
350
E
  3
ACAD_TABLESTYLE
350
AD
  3
ACAD_VISUALSTYLE
350
2A
  0
DICTIONARY
  5
D
102
{ACAD_REACTORS
330
C
102
}
330
C
100
AcDbDictionary
281
     1
  0
DICTIONARY
  5
1A
102
{ACAD_REACTORS
330
C
102
}
330
C
100
AcDbDictionary
281
     1
  3
Layout1
350
1E
  3
Layout2
350
26
  3
Model
350
22
  0
DICTIONARY
  5
AE
102
{ACAD_REACTORS
330
C
102
}
330
C
100
AcDbDictionary
281
     1
  0
DICTIONARY
  5
17
102
{ACAD_REACTORS
330
C
102
}
330
C
100
AcDbDictionary
281
     1
  3
Standard
350
18
  0
DICTIONARY
  5
19
102
{ACAD_REACTORS
330
C
102
}
330
C
100
AcDbDictionary
281
     1
  0
ACDBDICTIONARYWDFLT
  5
E
102
{ACAD_REACTORS
330
C
102
}
330
C
100
AcDbDictionary
281
     1
  3
Normal
350
F
100
AcDbDictionaryWithDefault
340
F
  0
DICTIONARY
  5
AD
102
{ACAD_REACTORS
330
C
102
}
330
C
100
AcDbDictionary
281
     1
  0
DICTIONARY
  5
2A
102
{ACAD_REACTORS
330
C
102
}
330
C
100
AcDbDictionary
281
     1
  3
2dWireframe
350
2F
  3
3D Hidden
350
31
  3
3dWireframe
350
30
  3
Basic
350
32
  3
Brighten
350
36
  3
ColorChange
350
3A
  3
Conceptual
350
34
  3
Dim
350
35
  3
Facepattern
350
39
  3
Flat
350
2B
  3
FlatWithEdges
350
2C
  3
Gouraud
350
2D
  3
GouraudWithEdges
350
2E
  3
Linepattern
350
38
  3
Realistic
350
33
  3
Thicken
350
37
  0
LAYOUT
  5
1E
102
{ACAD_REACTORS
330
1A
102
}
330
1A
100
AcDbPlotSettings
  1

  2
none_device
  4

  6

 40
0.0
 41
0.0
 42
0.0
 43
0.0
 44
0.0
 45
0.0
 46
0.0
 47
0.0
 48
0.0
 49
0.0
140
0.0
141
0.0
142
1.0
143
1.0
 70
   688
 72
     0
 73
     0
 74
     5
  7

 75
    16
 76
     0
 77
     2
 78
   300
147
1.0
148
0.0
149
0.0
100
AcDbLayout
  1
Layout1
 70
     1
 71
     1
 10
0.0
 20
0.0
 11
12.0
 21
9.0
 12
0.0
 22
0.0
 32
0.0
 14
1.000000000000000E+20
 24
1.000000000000000E+20
 34
1.000000000000000E+20
 15
-1.000000000000000E+20
 25
-1.000000000000000E+20
 35
-1.000000000000000E+20
146
0.0
 13
0.0
 23
0.0
 33
0.0
 16
1.0
 26
0.0
 36
0.0
 17
0.0
 27
1.0
 37
0.0
 76
     0
330
1B
  0
LAYOUT
  5
26
102
{ACAD_REACTORS
330
1A
102
}
330
1A
100
AcDbPlotSettings
  1

  2
none_device
  4

  6

 40
0.0
 41
0.0
 42
0.0
 43
0.0
 44
0.0
 45
0.0
 46
0.0
 47
0.0
 48
0.0
 49
0.0
140
0.0
141
0.0
142
1.0
143
1.0
 70
   688
 72
     0
 73
     0
 74
     5
  7

 75
    16
 76
     0
 77
     2
 78
   300
147
1.0
148
0.0
149
0.0
100
AcDbLayout
  1
Layout2
 70
     1
 71
     2
 10
0.0
 20
0.0
 11
0.0
 21
0.0
 12
0.0
 22
0.0
 32
0.0
 14
0.0
 24
0.0
 34
0.0
 15
0.0
 25
0.0
 35
0.0
146
0.0
 13
0.0
 23
0.0
 33
0.0
 16
1.0
 26
0.0
 36
0.0
 17
0.0
 27
1.0
 37
0.0
 76
     0
330
23
  0
LAYOUT
  5
22
102
{ACAD_REACTORS
330
1A
102
}
330
1A
100
AcDbPlotSettings
  1

  2
none_device
  4

  6

 40
0.0
 41
0.0
 42
0.0
 43
0.0
 44
0.0
 45
0.0
 46
0.0
 47
0.0
 48
0.0
 49
0.0
140
0.0
141
0.0
142
1.0
143
1.0
 70
  1712
 72
     0
 73
     0
 74
     0
  7

 75
     0
 76
     0
 77
     2
 78
   300
147
1.0
148
0.0
149
0.0
100
AcDbLayout
  1
Model
 70
     1
 71
     0
 10
0.0
 20
0.0
 11
12.0
 21
9.0
 12
0.0
 22
0.0
 32
0.0
 14
-58.00000675092818
 24
-44.87500675093114
 34
0.0
 15
58.00000675089495
 25
44.87500675089204
 35
0.0
146
0.0
 13
0.0
 23
0.0
 33
0.0
 16
1.0
 26
0.0
 36
0.0
 17
0.0
 27
1.0
 37
0.0
 76
     0
330
1F
331
29
  0
MLINESTYLE
  5
18
102
{ACAD_REACTORS
330
17
102
}
330
17
100
AcDbMlineStyle
  2
Standard
 70
     0
  3

 62
   256
 51
90.0
 52
90.0
 71
     2
 49
0.5
 62
   256
  6
BYLAYER
 49
-0.5
 62
   256
  6
BYLAYER
  0
ACDBPLACEHOLDER
  5
F
102
{ACAD_REACTORS
330
E
102
}
330
E
  0
VISUALSTYLE
  5
2F
102
{ACAD_REACTORS
330
2A
102
}
330
2A
100
AcDbVisualStyle
  2
2dWireframe
 70
     4
 71
     0
 72
     2
 73
     0
 90
        0
 40
-0.6
 41
-30.0
 62
     5
 63
     7
421
 16777215
 74
     1
 91
        4
 64
     7
 65
   257
 75
     1
175
     1
 42
1.0
 92
        0
 66
   257
 43
1.0
 76
     1
 77
     6
 78
     2
 67
     7
 79
     5
170
     0
171
     0
290
     0
174
     0
 93
        1
 44
0.0
173
     0
291
     0
 45
0.0
1001
ACAD
1000
AcDbSavedByObjectVersion
1070
     0
  0
VISUALSTYLE
  5
31
102
{ACAD_REACTORS
330
2A
102
}
330
2A
100
AcDbVisualStyle
  2
3D Hidden
 70
     6
 71
     1
 72
     2
 73
     2
 90
        0
 40
-0.6
 41
-30.0
 62
     5
 63
     7
421
 16777215
 74
     2
 91
        2
 64
     7
 65
   257
 75
     2
175
     1
 42
40.0
 92
        0
 66
   257
 43
1.0
 76
     1
 77
     6
 78
     2
 67
     7
 79
     3
170
     0
171
     0
290
     0
174
     0
 93
        1
 44
0.0
173
     0
291
     0
 45
0.0
1001
ACAD
1000
AcDbSavedByObjectVersion
1070
     0
  0
VISUALSTYLE
  5
30
102
{ACAD_REACTORS
330
2A
102
}
330
2A
100
AcDbVisualStyle
  2
3dWireframe
 70
     5
 71
     0
 72
     2
 73
     0
 90
        0
 40
-0.6
 41
-30.0
 62
     5
 63
     7
421
 16777215
 74
     1
 91
        4
 64
     7
 65
   257
 75
     1
175
     1
 42
1.0
 92
        0
 66
   257
 43
1.0
 76
     1
 77
     6
 78
     2
 67
     7
 79
     5
170
     0
171
     0
290
     0
174
     0
 93
        1
 44
0.0
173
     0
291
     0
 45
0.0
1001
ACAD
1000
AcDbSavedByObjectVersion
1070
     0
  0
VISUALSTYLE
  5
32
102
{ACAD_REACTORS
330
2A
102
}
330
2A
100
AcDbVisualStyle
  2
Basic
 70
     7
 71
     1
 72
     0
 73
     1
 90
        0
 40
-0.6
 41
-30.0
 62
     5
 63
     7
421
 16777215
 74
     0
 91
        4
 64
     7
 65
   257
 75
     1
175
     1
 42
1.0
 92
        8
 66
     7
 43
1.0
 76
     1
 77
     6
 78
     2
 67
     7
 79
     5
170
     0
171
     0
290
     0
174
     0
 93
        1
 44
0.0
173
     0
291
     1
 45
0.0
1001
ACAD
1000
AcDbSavedByObjectVersion
1070
     0
  0
VISUALSTYLE
  5
36
102
{ACAD_REACTORS
330
2A
102
}
330
2A
100
AcDbVisualStyle
  2
Brighten
 70
    12
 71
     2
 72
     2
 73
     0
 90
        0
 40
-0.6
 41
-30.0
 62
     5
 63
     7
421
 16777215
 74
     1
 91
        4
 64
     7
 65
   257
 75
     1
175
     1
 42
1.0
 92
        8
 66
     7
 43
1.0
 76
     1
 77
     6
 78
     2
 67
     7
 79
     5
170
     0
171
     0
290
     0
174
     0
 93
        1
 44
50.0
173
     0
291
     1
 45
0.0
1001
ACAD
1000
AcDbSavedByObjectVersion
1070
     0
  0
VISUALSTYLE
  5
3A
102
{ACAD_REACTORS
330
2A
102
}
330
2A
100
AcDbVisualStyle
  2
ColorChange
 70
    16
 71
     2
 72
     2
 73
     3
 90
        0
 40
-0.6
 41
-30.0
 62
     5
 63
     8
421
  8421504
 74
     1
 91
        4
 64
     7
 65
   257
 75
     1
175
     1
 42
1.0
 92
        8
 66
     8
424
  8421504
 43
1.0
 76
     1
 77
     6
 78
     2
 67
     7
 79
     5
170
     0
171
     0
290
     0
174
     0
 93
        1
 44
0.0
173
     0
291
     1
 45
0.0
1001
ACAD
1000
AcDbSavedByObjectVersion
1070
     0
  0
VISUALSTYLE
  5
34
102
{ACAD_REACTORS
330
2A
102
}
330
2A
100
AcDbVisualStyle
  2
Conceptual
 70
     9
 71
     3
 72
     2
 73
     0
 90
        0
 40
-0.6
 41
-30.0
 62
     5
 63
     7
421
 16777215
 74
     2
 91
        2
 64
     7
 65
   257
 75
     1
175
     1
 42
40.0
 92
        8
 66
     7
 43
1.0
 76
     1
 77
     6
 78
     2
 67
     7
 79
     3
170
     0
171
     0
290
     0
174
     0
 93
        1
 44
0.0
173
     0
291
     0
 45
0.0
1001
ACAD
1000
AcDbSavedByObjectVersion
1070
     0
  0
VISUALSTYLE
  5
35
102
{ACAD_REACTORS
330
2A
102
}
330
2A
100
AcDbVisualStyle
  2
Dim
 70
    11
 71
     2
 72
     2
 73
     0
 90
        0
 40
-0.6
 41
-30.0
 62
     5
 63
     7
421
 16777215
 74
     1
 91
        4
 64
     7
 65
   257
 75
     1
175
     1
 42
1.0
 92
        8
 66
     7
 43
1.0
 76
     1
 77
     6
 78
     2
 67
     7
 79
     5
170
     0
171
     0
290
     0
174
     0
 93
        1
 44
-50.0
173
     0
291
     1
 45
0.0
1001
ACAD
1000
AcDbSavedByObjectVersion
1070
     0
  0
VISUALSTYLE
  5
39
102
{ACAD_REACTORS
330
2A
102
}
330
2A
100
AcDbVisualStyle
  2
Facepattern
 70
    15
 71
     2
 72
     2
 73
     0
 90
        0
 40
-0.6
 41
-30.0
 62
     5
 63
     7
421
 16777215
 74
     1
 91
        4
 64
     7
 65
   257
 75
     1
175
     1
 42
1.0
 92
        8
 66
     7
 43
1.0
 76
     1
 77
     6
 78
     2
 67
     7
 79
     5
170
     0
171
     0
290
     0
174
     0
 93
        1
 44
0.0
173
     0
291
     1
 45
0.0
1001
ACAD
1000
AcDbSavedByObjectVersion
1070
     0
  0
VISUALSTYLE
  5
2B
102
{ACAD_REACTORS
330
2A
102
}
330
2A
100
AcDbVisualStyle
  2
Flat
 70
     0
 71
     2
 72
     1
 73
     1
 90
        2
 40
-0.6
 41
30.0
 62
     5
 63
     7
421
 16777215
 74
     0
 91
        4
 64
     7
 65
   257
 75
     1
175
     1
 42
1.0
 92
        8
 66
     7
 43
1.0
 76
     1
 77
     6
 78
     2
 67
     7
 79
     5
170
     0
171
     0
290
     0
174
     0
 93
       13
 44
0.0
173
     0
291
     1
 45
0.0
1001
ACAD
1000
AcDbSavedByObjectVersion
1070
     0
  0
VISUALSTYLE
  5
2C
102
{ACAD_REACTORS
330
2A
102
}
330
2A
100
AcDbVisualStyle
  2
FlatWithEdges
 70
     1
 71
     2
 72
     1
 73
     1
 90
        2
 40
-0.6
 41
30.0
 62
     5
 63
     7
421
 16777215
 74
     1
 91
        4
 64
     7
 65
   257
 75
     1
175
     1
 42
1.0
 92
        0
 66
   257
 43
1.0
 76
     1
 77
     6
 78
     2
 67
     7
 79
     5
170
     0
171
     0
290
     0
174
     0
 93
       13
 44
0.0
173
     0
291
     1
 45
0.0
1001
ACAD
1000
AcDbSavedByObjectVersion
1070
     0
  0
VISUALSTYLE
  5
2D
102
{ACAD_REACTORS
330
2A
102
}
330
2A
100
AcDbVisualStyle
  2
Gouraud
 70
     2
 71
     2
 72
     2
 73
     1
 90
        2
 40
-0.6
 41
30.0
 62
     5
 63
     7
421
 16777215
 74
     0
 91
        4
 64
     7
 65
   257
 75
     1
175
     1
 42
1.0
 92
        0
 66
     7
 43
1.0
 76
     1
 77
     6
 78
     2
 67
     7
 79
     5
170
     0
171
     0
290
     0
174
     0
 93
       13
 44
0.0
173
     0
291
     1
 45
0.0
1001
ACAD
1000
AcDbSavedByObjectVersion
1070
     0
  0
VISUALSTYLE
  5
2E
102
{ACAD_REACTORS
330
2A
102
}
330
2A
100
AcDbVisualStyle
  2
GouraudWithEdges
 70
     3
 71
     2
 72
     2
 73
     1
 90
        2
 40
-0.6
 41
30.0
 62
     5
 63
     7
421
 16777215
 74
     1
 91
        4
 64
     7
 65
   257
 75
     1
175
     1
 42
1.0
 92
        0
 66
   257
 43
1.0
 76
     1
 77
     6
 78
     2
 67
     7
 79
     5
170
     0
171
     0
290
     0
174
     0
 93
       13
 44
0.0
173
     0
291
     1
 45
0.0
1001
ACAD
1000
AcDbSavedByObjectVersion
1070
     0
  0
VISUALSTYLE
  5
38
102
{ACAD_REACTORS
330
2A
102
}
330
2A
100
AcDbVisualStyle
  2
Linepattern
 70
    14
 71
     2
 72
     2
 73
     0
 90
        0
 40
-0.6
 41
-30.0
 62
     5
 63
     7
421
 16777215
 74
     1
 91
        4
 64
     7
 65
   257
 75
     7
175
     7
 42
1.0
 92
        8
 66
     7
 43
1.0
 76
     1
 77
     6
 78
     2
 67
     7
 79
     5
170
     0
171
     0
290
     0
174
     0
 93
        1
 44
0.0
173
     0
291
     1
 45
0.0
1001
ACAD
1000
AcDbSavedByObjectVersion
1070
     0
  0
VISUALSTYLE
  5
33
102
{ACAD_REACTORS
330
2A
102
}
330
2A
100
AcDbVisualStyle
  2
Realistic
 70
     8
 71
     2
 72
     2
 73
     0
 90
        0
 40
-0.6
 41
-30.0
 62
     5
 63
     7
421
 16777215
 74
     1
 91
        0
 64
     7
 65
   257
 75
     1
175
     1
 42
1.0
 92
        8
 66
     8
424
  7895160
 43
1.0
 76
     1
 77
     6
 78
     2
 67
     7
 79
     5
170
     0
171
     0
290
     0
174
     0
 93
       13
 44
0.0
173
     0
291
     0
 45
0.0
1001
ACAD
1000
AcDbSavedByObjectVersion
1070
     0
  0
VISUALSTYLE
  5
37
102
{ACAD_REACTORS
330
2A
102
}
330
2A
100
AcDbVisualStyle
  2
Thicken
 70
    13
 71
     2
 72
     2
 73
     0
 90
        0
 40
-0.6
 41
-30.0
 62
     5
 63
     7
421
 16777215
 74
     1
 91
        4
 64
     7
 65
   257
 75
     1
175
     1
 42
1.0
 92
       12
 66
     7
 43
1.0
 76
     1
 77
     6
 78
     2
 67
     7
 79
     5
170
     0
171
     0
290
     0
174
     0
 93
        1
 44
0.0
173
     0
291
     1
 45
0.0
1001
ACAD
1000
AcDbSavedByObjectVersion
1070
     0
  0
ENDSEC
  0
EOF
