  0
SECTION
  2
HEADER
  9
$ACADVER
  1
AC1018
  9
$ACADMAINTVER
 70
     0
  9
$DWGCODEPAGE
  3
ANSI_1252
  9
$INSBASE
 10
0.0
 20
0.0
 30
0.0
  9
$EXTMIN
 10
-44.87501350182317
 20
-48.75005400726852
 30
0.0
  9
$EXTMAX
 10
44.87506750911608
 20
48.75005400731727
 30
0.0
  9
$LIMMIN
 10
0.0
 20
0.0
  9
$LIMMAX
 10
12.0
 20
9.0
  9
$ORTHOMODE
 70
     0
  9
$REGENMODE
 70
     1
  9
$FILLMODE
 70
     1
  9
$QTEXTMODE
 70
     0
  9
$MIRRTEXT
 70
     1
  9
$LTSCALE
 40
0.0393700787401575
  9
$ATTMODE
 70
     1
  9
$TEXTSIZE
 40
0.2
  9
$TRACEWID
 40
0.05
  9
$TEXTSTYLE
  7
Standard
  9
$CLAYER
  8
SEATS
  9
$CELTYPE
  6
ByLayer
  9
$CECOLOR
 62
   256
  9
$CELTSCALE
 40
1.0
  9
$DISPSILH
 70
     0
  9
$DIMSCALE
 40
1.0
  9
$DIMASZ
 40
0.18
  9
$DIMEXO
 40
0.0625
  9
$DIMDLI
 40
0.38
  9
$DIMRND
 40
0.0
  9
$DIMDLE
 40
0.0
  9
$DIMEXE
 40
0.18
  9
$DIMTP
 40
0.0
  9
$DIMTM
 40
0.0
  9
$DIMTXT
 40
0.18
  9
$DIMCEN
 40
0.09
  9
$DIMTSZ
 40
0.0
  9
$DIMTOL
 70
     0
  9
$DIMLIM
 70
     0
  9
$DIMTIH
 70
     1
  9
$DIMTOH
 70
     1
  9
$DIMSE1
 70
     0
  9
$DIMSE2
 70
     0
  9
$DIMTAD
 70
     0
  9
$DIMZIN
 70
     0
  9
$DIMBLK
  1

  9
$DIMASO
 70
     1
  9
$DIMSHO
 70
     1
  9
$DIMPOST
  1

  9
$DIMAPOST
  1

  9
$DIMALT
 70
     0
  9
$DIMALTD
 70
     2
  9
$DIMALTF
 40
25.4
  9
$DIMLFAC
 40
1.0
  9
$DIMTOFL
 70
     0
  9
$DIMTVP
 40
0.0
  9
$DIMTIX
 70
     0
  9
$DIMSOXD
 70
     0
  9
$DIMSAH
 70
     0
  9
$DIMBLK1
  1

  9
$DIMBLK2
  1

  9
$DIMSTYLE
  2
Standard
  9
$DIMCLRD
 70
     0
  9
$DIMCLRE
 70
     0
  9
$DIMCLRT
 70
     0
  9
$DIMTFAC
 40
1.0
  9
$DIMGAP
 40
0.09
  9
$DIMJUST
 70
     0
  9
$DIMSD1
 70
     0
  9
$DIMSD2
 70
     0
  9
$DIMTOLJ
 70
     1
  9
$DIMTZIN
 70
     0
  9
$DIMALTZ
 70
     0
  9
$DIMALTTZ
 70
     0
  9
$DIMUPT
 70
     0
  9
$DIMDEC
 70
     4
  9
$DIMTDEC
 70
     4
  9
$DIMALTU
 70
     2
  9
$DIMALTTD
 70
     2
  9
$DIMTXSTY
  7
Standard
  9
$DIMAUNIT
 70
     0
  9
$DIMADEC
 70
     0
  9
$DIMALTRND
 40
0.0
  9
$DIMAZIN
 70
     0
  9
$DIMDSEP
 70
    46
  9
$DIMATFIT
 70
     3
  9
$DIMFRAC
 70
     0
  9
$DIMLDRBLK
  1

  9
$DIMLUNIT
 70
     2
  9
$DIMLWD
 70
    -2
  9
$DIMLWE
 70
    -2
  9
$DIMTMOVE
 70
     2
  9
$LUNITS
 70
     2
  9
$LUPREC
 70
     3
  9
$SKETCHINC
 40
0.1
  9
$FILLETRAD
 40
0.5
  9
$AUNITS
 70
     0
  9
$AUPREC
 70
     0
  9
$MENU
  1
.
  9
$ELEVATION
 40
0.0
  9
$PELEVATION
 40
0.0
  9
$THICKNESS
 40
0.0
  9
$LIMCHECK
 70
     0
  9
$CHAMFERA
 40
0.5
  9
$CHAMFERB
 40
0.5
  9
$CHAMFERC
 40
1.0
  9
$CHAMFERD
 40
0.0
  9
$SKPOLY
 70
     0
  9
$TDCREATE
 40
2457539.94534647
  9
$TDUCREATE
 40
2457540.112013137
  9
$TDUPDATE
 40
2457539.945346482
  9
$TDUUPDATE
 40
2457540.112013148
  9
$TDINDWG
 40
0.0000000116
  9
$TDUSRTIMER
 40
0.0000000116
  9
$USRTIMER
 70
     1
  9
$ANGBASE
 50
0.0
  9
$ANGDIR
 70
     0
  9
$PDMODE
 70
     0
  9
$PDSIZE
 40
0.0
  9
$PLINEWID
 40
0.0
  9
$SPLFRAME
 70
     0
  9
$SPLINETYPE
 70
     6
  9
$SPLINESEGS
 70
     8
  9
$HANDSEED
  5
99
  9
$SURFTAB1
 70
     6
  9
$SURFTAB2
 70
     6
  9
$SURFTYPE
 70
     6
  9
$SURFU
 70
     6
  9
$SURFV
 70
     6
  9
$UCSBASE
  2

  9
$UCSNAME
  2

  9
$UCSORG
 10
0.0
 20
0.0
 30
0.0
  9
$UCSXDIR
 10
1.0
 20
0.0
 30
0.0
  9
$UCSYDIR
 10
0.0
 20
1.0
 30
0.0
  9
$UCSORTHOREF
  2

  9
$UCSORTHOVIEW
 70
     0
  9
$UCSORGTOP
 10
0.0
 20
0.0
 30
0.0
  9
$UCSORGBOTTOM
 10
0.0
 20
0.0
 30
0.0
  9
$UCSORGLEFT
 10
0.0
 20
0.0
 30
0.0
  9
$UCSORGRIGHT
 10
0.0
 20
0.0
 30
0.0
  9
$UCSORGFRONT
 10
0.0
 20
0.0
 30
0.0
  9
$UCSORGBACK
 10
0.0
 20
0.0
 30
0.0
  9
$PUCSBASE
  2

  9
$PUCSNAME
  2

  9
$PUCSORG
 10
0.0
 20
0.0
 30
0.0
  9
$PUCSXDIR
 10
1.0
 20
0.0
 30
0.0
  9
$PUCSYDIR
 10
0.0
 20
1.0
 30
0.0
  9
$PUCSORTHOREF
  2

  9
$PUCSORTHOVIEW
 70
     0
  9
$PUCSORGTOP
 10
0.0
 20
0.0
 30
0.0
  9
$PUCSORGBOTTOM
 10
0.0
 20
0.0
 30
0.0
  9
$PUCSORGLEFT
 10
0.0
 20
0.0
 30
0.0
  9
$PUCSORGRIGHT
 10
0.0
 20
0.0
 30
0.0
  9
$PUCSORGFRONT
 10
0.0
 20
0.0
 30
0.0
  9
$PUCSORGBACK
 10
0.0
 20
0.0
 30
0.0
  9
$USERI1
 70
     0
  9
$USERI2
 70
     0
  9
$USERI3
 70
     0
  9
$USERI4
 70
     0
  9
$USERI5
 70
     0
  9
$USERR1
 40
0.0
  9
$USERR2
 40
0.0
  9
$USERR3
 40
0.0
  9
$USERR4
 40
0.0
  9
$USERR5
 40
0.0
  9
$WORLDVIEW
 70
     1
  9
$SHADEDGE
 70
     3
  9
$SHADEDIF
 70
    70
  9
$TILEMODE
 70
     1
  9
$MAXACTVP
 70
    64
  9
$PINSBASE
 10
0.0
 20
0.0
 30
0.0
  9
$PLIMCHECK
 70
     0
  9
$PEXTMIN
 10
1.000000000000000E+20
 20
1.000000000000000E+20
 30
1.000000000000000E+20
  9
$PEXTMAX
 10
-1.000000000000000E+20
 20
-1.000000000000000E+20
 30
-1.000000000000000E+20
  9
$PLIMMIN
 10
0.0
 20
0.0
  9
$PLIMMAX
 10
12.0
 20
9.0
  9
$UNITMODE
 70
     0
  9
$VISRETAIN
 70
     1
  9
$PLINEGEN
 70
     0
  9
$PSLTSCALE
 70
     1
  9
$TREEDEPTH
 70
  3020
  9
$CMLSTYLE
  2
Standard
  9
$CMLJUST
 70
     0
  9
$CMLSCALE
 40
1.0
  9
$PROXYGRAPHICS
 70
     1
  9
$MEASUREMENT
 70
     0
  9
$CELWEIGHT
370
    -1
  9
$ENDCAPS
280
     0
  9
$JOINSTYLE
280
     0
  9
$LWDISPLAY
290
     0
  9
$INSUNITS
 70
     1
  9
$HYPERLINKBASE
  1

  9
$STYLESHEET
  1

  9
$XEDIT
290
     1
  9
$CEPSNTYPE
380
     0
  9
$PSTYLEMODE
290
     1
  9
$FINGERPRINTGUID
  2
{CE6A04C1-65D1-49F4-88D0-E25D91A23A12}
  9
$VERSIONGUID
  2
{FAEB1C32-E019-11D5-929B-00C0DF256EC4}
  9
$EXTNAMES
290
     1
  9
$PSVPSCALE
 40
0.0
  9
$OLESTARTUP
290
     0
  9
$SORTENTS
280
   127
  9
$INDEXCTL
280
     0
  9
$HIDETEXT
280
     1
  9
$XCLIPFRAME
290
     0
  9
$HALOGAP
280
     0
  9
$OBSCOLOR
 70
   257
  9
$OBSLTYPE
280
     0
  9
$INTERSECTIONDISPLAY
280
     0
  9
$INTERSECTIONCOLOR
 70
   257
  9
$DIMASSOC
280
     2
  9
$PROJECTNAME
  1

  0
ENDSEC
  0
SECTION
  2
CLASSES
  0
CLASS
  1
ACDBDICTIONARYWDFLT
  2
AcDbDictionaryWithDefault
  3
ObjectDBX Classes
 90
        0
 91
        4
280
     0
281
     0
  0
CLASS
  1
VISUALSTYLE
  2
AcDbVisualStyle
  3
ObjectDBX Classes
 90
     4095
 91
        4
280
     0
281
     0
  0
ENDSEC
  0
SECTION
  2
TABLES
  0
TABLE
  2
VPORT
  5
8
330
0
100
AcDbSymbolTable
 70
     1
  0
VPORT
  5
29
330
8
100
AcDbSymbolTableRecord
100
AcDbViewportTableRecord
  2
*Active
 70
     0
 10
0.0
 20
0.0
 11
1.0
 21
1.0
 12
0.0000270036464514
 22
0.0000000000243716
 13
0.0
 23
0.0
 14
0.5
 24
0.5
 15
0.5
 25
0.5
 16
0.0
 26
0.0
 36
1.0
 17
0.0
 27
0.0
 37
0.0
 40
99.45011017487751
 41
0.9205126316117809
 42
50.0
 43
0.0
 44
0.0
 50
0.0
 51
0.0
 71
     0
 72
   100
 73
     1
 74
     3
 75
     0
 76
     0
 77
     0
 78
     0
281
     0
 65
     1
110
0.0
120
0.0
130
0.0
111
1.0
121
0.0
131
0.0
112
0.0
122
1.0
132
0.0
 79
     0
146
0.0
  0
ENDTAB
  0
TABLE
  2
LTYPE
  5
5
330
0
100
AcDbSymbolTable
 70
     1
  0
LTYPE
  5
14
330
5
100
AcDbSymbolTableRecord
100
AcDbLinetypeTableRecord
  2
ByBlock
 70
     0
  3

 72
    65
 73
     0
 40
0.0
  0
LTYPE
  5
15
330
5
100
AcDbSymbolTableRecord
100
AcDbLinetypeTableRecord
  2
ByLayer
 70
     0
  3

 72
    65
 73
     0
 40
0.0
  0
LTYPE
  5
16
330
5
100
AcDbSymbolTableRecord
100
AcDbLinetypeTableRecord
  2
Continuous
 70
     0
  3
Solid line
 72
    65
 73
     0
 40
0.0
  0
ENDTAB
  0
TABLE
  2
LAYER
  5
2
330
0
100
AcDbSymbolTable
 70
     5
  0
LAYER
  5
10
330
2
100
AcDbSymbolTableRecord
100
AcDbLayerTableRecord
  2
0
 70
     0
 62
     7
  6
Continuous
370
    -3
390
F
  0
LAYER
  5
3B
330
2
100
AcDbSymbolTableRecord
100
AcDbLayerTableRecord
  2
SEATS
 70
     0
 62
   251
  6
Continuous
370
    -3
390
F
  0
LAYER
  5
44
330
2
100
AcDbSymbolTableRecord
100
AcDbLayerTableRecord
  2
BACKS
 70
     0
 62
   253
  6
Continuous
370
    -3
390
F
  0
LAYER
  5
65
330
2
100
AcDbSymbolTableRecord
100
AcDbLayerTableRecord
  2
TABLE
 70
     0
 62
     7
  6
Continuous
370
    -3
390
F
  0
LAYER
  5
6E
330
2
100
AcDbSymbolTableRecord
100
AcDbLayerTableRecord
  2
FRAME
 70
     0
 62
    15
  6
Continuous
370
    -3
390
F
  0
ENDTAB
  0
TABLE
  2
STYLE
  5
3
330
0
100
AcDbSymbolTable
 70
     1
  0
STYLE
  5
11
330
3
100
AcDbSymbolTableRecord
100
AcDbTextStyleTableRecord
  2
Standard
 70
     0
 40
0.0
 41
1.0
 50
0.0
 71
     0
 42
0.2
  3
txt
  4

  0
ENDTAB
  0
TABLE
  2
VIEW
  5
6
330
0
100
AcDbSymbolTable
 70
     0
  0
ENDTAB
  0
TABLE
  2
UCS
  5
7
330
0
100
AcDbSymbolTable
 70
     0
  0
ENDTAB
  0
TABLE
  2
APPID
  5
9
330
0
100
AcDbSymbolTable
 70
     1
  0
APPID
  5
12
330
9
100
AcDbSymbolTableRecord
100
AcDbRegAppTableRecord
  2
ACAD
 70
     0
  0
ENDTAB
  0
TABLE
  2
DIMSTYLE
  5
A
330
0
100
AcDbSymbolTable
 70
     1
100
AcDbDimStyleTable
  0
DIMSTYLE
105
27
330
A
100
AcDbSymbolTableRecord
100
AcDbDimStyleTableRecord
  2
Standard
 70
     0
340
11
  0
ENDTAB
  0
TABLE
  2
BLOCK_RECORD
  5
1
330
0
100
AcDbSymbolTable
 70
     1
  0
BLOCK_RECORD
  5
1F
330
1
100
AcDbSymbolTableRecord
100
AcDbBlockTableRecord
  2
*Model_Space
340
22
  0
BLOCK_RECORD
  5
1B
330
1
100
AcDbSymbolTableRecord
100
AcDbBlockTableRecord
  2
*Paper_Space
340
1E
  0
BLOCK_RECORD
  5
23
330
1
100
AcDbSymbolTableRecord
100
AcDbBlockTableRecord
  2
*Paper_Space0
340
26
  0
ENDTAB
  0
ENDSEC
  0
SECTION
  2
BLOCKS
  0
BLOCK
  5
20
330
1F
100
AcDbEntity
  8
0
100
AcDbBlockBegin
  2
*Model_Space
 70
     0
 10
0.0
 20
0.0
 30
0.0
  3
*Model_Space
  1

  0
ENDBLK
  5
21
330
1F
100
AcDbEntity
  8
0
100
AcDbBlockEnd
  0
BLOCK
  5
1C
330
1B
100
AcDbEntity
 67
     1
  8
0
100
AcDbBlockBegin
  2
*Paper_Space
 70
     0
 10
0.0
 20
0.0
 30
0.0
  3
*Paper_Space
  1

  0
ENDBLK
  5
1D
330
1B
100
AcDbEntity
 67
     1
  8
0
100
AcDbBlockEnd
  0
BLOCK
  5
24
330
23
100
AcDbEntity
  8
0
100
AcDbBlockBegin
  2
*Paper_Space0
 70
     0
 10
0.0
 20
0.0
 30
0.0
  3
*Paper_Space0
  1

  0
ENDBLK
  5
25
330
23
100
AcDbEntity
  8
0
100
AcDbBlockEnd
  0
ENDSEC
  0
SECTION
  2
ENTITIES
  0
SPLINE
  5
3C
330
1F
100
AcDbEntity
  8
SEATS
100
AcDbSpline
210
0.0
220
0.0
230
1.0
 70
    24
 71
     2
 72
     6
 73
     3
 74
     0
 42
0.0000000001
 43
0.0000000001
 40
0.0
 40
0.0
 40
0.0
 40
16.99999999999999
 40
16.99999999999999
 40
16.99999999999999
 10
-44.875
 20
-22.99999999997562
 30
0.0
 10
-44.875
 20
-31.49999999997561
 30
0.0
 10
-44.875
 20
-39.99999999997561
 30
0.0
  0
SPLINE
  5
3D
330
1F
100
AcDbEntity
  8
SEATS
100
AcDbSpline
210
0.0
220
0.0
230
1.0
 70
    12
 71
     2
 72
     6
 73
     3
 74
     0
 42
0.0000000001
 43
0.0000000001
 40
0.0
 40
0.0
 40
0.0
 40
1.570796326794885
 40
1.570796326794885
 40
1.570796326794885
 10
-43.875
 20
-21.99999999997562
 30
0.0
 41
1.0
 10
-44.87499999999997
 20
-21.99999999997564
 30
0.0
 41
0.7071067811865653
 10
-44.875
 20
-22.99999999997562
 30
0.0
 41
1.0
  0
SPLINE
  5
3E
330
1F
100
AcDbEntity
  8
SEATS
100
AcDbSpline
210
0.0
220
0.0
230
1.0
 70
    24
 71
     2
 72
     6
 73
     3
 74
     0
 42
0.0000000001
 43
0.0000000001
 40
0.0
 40
0.0
 40
0.0
 40
87.74999999999999
 40
87.74999999999999
 40
87.74999999999999
 10
43.87499999999999
 20
-21.99999999997562
 30
0.0
 10
-0.0000000000000071
 20
-21.99999999997562
 30
0.0
 10
-43.875
 20
-21.99999999997562
 30
0.0
  0
ARC
  5
3F
330
1F
100
AcDbEntity
  8
SEATS
100
AcDbCircle
 10
43.87499999999999
 20
-22.99999999997562
 30
0.0
 40
1.0
100
AcDbArc
 50
0.0
 51
90.0
  0
SPLINE
  5
40
330
1F
100
AcDbEntity
  8
SEATS
100
AcDbSpline
210
0.0
220
0.0
230
1.0
 70
    24
 71
     2
 72
     6
 73
     3
 74
     0
 42
0.0000000001
 43
0.0000000001
 40
-16.99999999999999
 40
-16.99999999999999
 40
-16.99999999999999
 40
0.0
 40
0.0
 40
0.0
 10
44.87499999999999
 20
-39.99999999997561
 30
0.0
 10
44.87499999999999
 20
-31.49999999997562
 30
0.0
 10
44.87499999999999
 20
-22.99999999997562
 30
0.0
  0
ARC
  5
41
330
1F
100
AcDbEntity
  8
SEATS
100
AcDbCircle
 10
43.87499999999999
 20
-39.99999999997562
 30
0.0
 40
1.0
100
AcDbArc
 50
270.0
 51
0.0000000000004071
  0
SPLINE
  5
42
330
1F
100
AcDbEntity
  8
SEATS
100
AcDbSpline
210
0.0
220
0.0
230
1.0
 70
    24
 71
     2
 72
     6
 73
     3
 74
     0
 42
0.0000000001
 43
0.0000000001
 40
0.0
 40
0.0
 40
0.0
 40
87.74999999999999
 40
87.74999999999999
 40
87.74999999999999
 10
-43.875
 20
-40.99999999997562
 30
0.0
 10
-0.0000000000000071
 20
-40.99999999997562
 30
0.0
 10
43.87499999999999
 20
-40.99999999997562
 30
0.0
  0
ARC
  5
43
330
1F
100
AcDbEntity
  8
SEATS
100
AcDbCircle
 10
-43.875
 20
-39.99999999997562
 30
0.0
 40
1.0
100
AcDbArc
 50
179.9999999999996
 51
270.0
  0
SPLINE
  5
45
330
1F
100
AcDbEntity
  8
BACKS
100
AcDbSpline
210
0.0
220
0.0
230
1.0
 70
    12
 71
     2
 72
     6
 73
     3
 74
     0
 42
0.0000000001
 43
0.0000000001
 40
-1.178111817889125
 40
-1.178111817889125
 40
-1.178111817889125
 40
0.0
 40
0.0
 40
0.0
 10
-44.12500392354652
 20
-42.00005400726891
 30
0.0
 41
1.0
 10
-44.8750163235572
 20
-42.0000455306391
 30
0.0
 41
0.7071078198569992
 10
-44.87501350182317
 20
-42.75005400726854
 30
0.0
 41
0.9999999998938145
  0
SPLINE
  5
46
330
1F
100
AcDbEntity
  8
BACKS
100
AcDbSpline
210
0.0
220
0.0
230
1.0
 70
    24
 71
     2
 72
     6
 73
     3
 74
     0
 42
0.0000000001
 43
0.0000000001
 40
0.0
 40
0.0
 40
0.0
 40
0.2500000000011369
 40
0.2500000000011369
 40
0.2500000000011369
 10
-43.875
 20
-42.00005400726852
 30
0.0
 10
-44.00000000000057
 20
-42.00005400726852
 30
0.0
 10
-44.12500392354652
 20
-42.00005400726891
 30
0.0
  0
SPLINE
  5
47
330
1F
100
AcDbEntity
  8
BACKS
100
AcDbSpline
210
0.0
220
0.0
230
1.0
 70
    24
 71
     2
 72
     6
 73
     3
 74
     0
 42
0.0000000001
 43
0.0000000001
 40
0.0
 40
0.0
 40
0.0
 40
87.7500540072917
 40
87.7500540072917
 40
87.7500540072917
 10
43.87505400729169
 20
-42.00005400726852
 30
0.0
 10
0.0000270036458545
 20
-42.00005400726852
 30
0.0
 10
-43.875
 20
-42.00005400726852
 30
0.0
  0
SPLINE
  5
48
330
1F
100
AcDbEntity
  8
BACKS
100
AcDbSpline
210
0.0
220
0.0
230
1.0
 70
    28
 71
     3
 72
     8
 73
     4
 74
     0
 42
0.0000000001
 43
0.0000000001
 40
0.0
 40
0.0
 40
0.0
 40
0.0
 40
0.3926863527735675
 40
0.3926863527735675
 40
0.3926863527735675
 40
0.3926863527735675
 10
44.1250561614653
 20
-42.00005400726852
 30
0.0
 41
1.0
 10
44.12566314378329
 20
-42.00005400726852
 30
0.0
 41
1.0
 10
44.01224440654846
 20
-42.00005400726852
 30
0.0
 41
1.0
 10
43.87505400729169
 20
-42.00005400726852
 30
0.0
 41
1.0
  0
SPLINE
  5
49
330
1F
100
AcDbEntity
  8
BACKS
100
AcDbSpline
210
0.0
220
0.0
230
1.0
 70
    12
 71
     2
 72
     6
 73
     3
 74
     0
 42
0.0000000001
 43
0.0000000001
 40
-1.178106514454266
 40
-1.178106514454266
 40
-1.178106514454266
 40
0.0
 40
0.0
 40
0.0
 10
44.87506262379046
 20
-42.75005400726853
 30
0.0
 41
0.999999999945961
 10
44.87506272365551
 20
-42.00004959918827
 30
0.0
 41
0.7071087179435124
 10
44.1250561614653
 20
-42.00005400726852
 30
0.0
 41
1.0
  0
SPLINE
  5
4A
330
1F
100
AcDbEntity
  8
BACKS
100
AcDbSpline
210
0.0
220
0.0
230
1.0
 70
     8
 71
     2
 72
     6
 73
     3
 74
     0
 42
0.0000000001
 43
0.0000000001
 40
0.0
 40
0.0
 40
0.0
 40
5.249999999999992
 40
5.249999999999992
 40
5.249999999999992
 10
44.87506750911606
 20
-48.00005400726852
 30
0.0
 10
44.87505400729289
 20
-45.37505400726852
 30
0.0
 10
44.87506262379046
 20
-42.75005400726853
 30
0.0
  0
SPLINE
  5
4B
330
1F
100
AcDbEntity
  8
BACKS
100
AcDbSpline
210
0.0
220
0.0
230
1.0
 70
    12
 71
     2
 72
     6
 73
     3
 74
     0
 42
0.0000000001
 43
0.0000000001
 40
-1.178112861491557
 40
-1.178112861491557
 40
-1.178112861491557
 40
0.0
 40
0.0
 40
0.0
 10
44.12505740902324
 20
-48.75005400726852
 30
0.0
 41
1.0
 10
44.87507033074783
 20
-48.75006352744057
 30
0.0
 41
0.7071073279802188
 10
44.87506750911606
 20
-48.00005400726852
 30
0.0
 41
0.9999999998938174
  0
SPLINE
  5
4C
330
1F
100
AcDbEntity
  8
BACKS
100
AcDbSpline
210
0.0
220
0.0
230
1.0
 70
    24
 71
     2
 72
     6
 73
     3
 74
     0
 42
0.0000000001
 43
0.0000000001
 40
0.0
 40
0.0
 40
0.0
 40
0.2500000000011369
 40
0.2500000000011369
 40
0.2500000000011369
 10
43.87505400729292
 20
-48.75005400726852
 30
0.0
 10
44.00005400729349
 20
-48.75005400726852
 30
0.0
 10
44.12505740902324
 20
-48.75005400726852
 30
0.0
  0
SPLINE
  5
4D
330
1F
100
AcDbEntity
  8
BACKS
100
AcDbSpline
210
0.0
220
0.0
230
1.0
 70
    24
 71
     2
 72
     6
 73
     3
 74
     0
 42
0.0000000001
 43
0.0000000001
 40
0.0
 40
0.0
 40
0.0
 40
87.75005400729167
 40
87.75005400729167
 40
87.75005400729167
 10
-43.87499999999875
 20
-48.75005400726852
 30
0.0
 10
0.0000270036470837
 20
-48.75005400726852
 30
0.0
 10
43.87505400729292
 20
-48.75005400726852
 30
0.0
  0
SPLINE
  5
4E
330
1F
100
AcDbEntity
  8
BACKS
100
AcDbSpline
210
0.0
220
0.0
230
1.0
 70
    28
 71
     3
 72
     8
 73
     4
 74
     0
 42
0.0000000001
 43
0.0000000001
 40
0.0
 40
0.0
 40
0.0
 40
0.0
 40
0.3926863527735781
 40
0.3926863527735781
 40
0.3926863527735781
 40
0.3926863527735781
 10
-44.12500215417241
 20
-48.75005400726852
 30
0.0
 41
1.0
 10
-44.12560913648871
 20
-48.75005400726852
 30
0.0
 41
1.0
 10
-44.01219039925458
 20
-48.75005400726852
 30
0.0
 41
1.0
 10
-43.87499999999875
 20
-48.75005400726852
 30
0.0
 41
1.0
  0
SPLINE
  5
4F
330
1F
100
AcDbEntity
  8
BACKS
100
AcDbSpline
210
0.0
220
0.0
230
1.0
 70
    12
 71
     2
 72
     6
 73
     3
 74
     0
 42
0.0000000001
 43
0.0000000001
 40
-1.178106514454271
 40
-1.178106514454271
 40
-1.178106514454271
 40
0.0
 40
0.0
 40
0.0
 10
-44.87500861649757
 20
-48.00005400726852
 30
0.0
 41
0.999999999945963
 10
-44.87500871636263
 20
-48.75005841534878
 30
0.0
 41
0.7071087179435166
 10
-44.12500215417241
 20
-48.75005400726852
 30
0.0
 41
1.0
  0
SPLINE
  5
50
330
1F
100
AcDbEntity
  8
BACKS
100
AcDbSpline
210
0.0
220
0.0
230
1.0
 70
     8
 71
     2
 72
     6
 73
     3
 74
     0
 42
0.0000000001
 43
0.0000000001
 40
0.0
 40
0.0
 40
0.0
 40
5.249999999999985
 40
5.249999999999985
 40
5.249999999999985
 10
-44.87501350182316
 20
-42.75005400726854
 30
0.0
 10
-44.875
 20
-45.37505400726852
 30
0.0
 10
-44.87500861649757
 20
-48.00005400726852
 30
0.0
  0
SPLINE
  5
51
330
1F
100
AcDbEntity
  8
BACKS
100
AcDbSpline
210
0.0
220
0.0
230
1.0
 70
    12
 71
     2
 72
     6
 73
     3
 74
     0
 42
0.0000000001
 43
0.0000000001
 40
0.0
 40
0.0
 40
0.0
 40
1.17811145356354
 40
1.17811145356354
 40
1.17811145356354
 10
-44.12500378294565
 20
42.00005400731747
 30
0.0
 41
1.0
 10
-44.87501481953037
 20
42.00004675352163
 30
0.0
 41
0.7071091052925103
 10
-44.87501350182317
 20
42.75005400731728
 30
0.0
 41
0.9999999998788636
  0
SPLINE
  5
52
330
1F
100
AcDbEntity
  8
BACKS
100
AcDbSpline
210
0.0
220
0.0
230
1.0
 70
    24
 71
     2
 72
     6
 73
     3
 74
     0
 42
0.0000000001
 43
0.0000000001
 40
0.0
 40
0.0
 40
0.0
 40
0.2500000000011369
 40
0.2500000000011369
 40
0.2500000000011369
 10
-43.875
 20
42.00005400731725
 30
0.0
 10
-44.00000000000057
 20
42.00005400731725
 30
0.0
 10
-44.12500378294565
 20
42.00005400731747
 30
0.0
  0
SPLINE
  5
53
330
1F
100
AcDbEntity
  8
BACKS
100
AcDbSpline
210
0.0
220
0.0
230
1.0
 70
    24
 71
     2
 72
     6
 73
     3
 74
     0
 42
0.0000000001
 43
0.0000000001
 40
0.0
 40
0.0
 40
0.0
 40
87.7500540072917
 40
87.7500540072917
 40
87.7500540072917
 10
43.87505400729169
 20
42.00005400731727
 30
0.0
 10
0.0000270036458545
 20
42.00005400731725
 30
0.0
 10
-43.875
 20
42.00005400731725
 30
0.0
  0
SPLINE
  5
54
330
1F
100
AcDbEntity
  8
BACKS
100
AcDbSpline
210
0.0
220
0.0
230
1.0
 70
    28
 71
     3
 72
     8
 73
     4
 74
     0
 42
0.0000000001
 43
0.0000000001
 40
0.0
 40
0.0
 40
0.0
 40
0.0
 40
0.3926863527735675
 40
0.3926863527735675
 40
0.3926863527735675
 40
0.3926863527735675
 10
44.12505687336282
 20
42.00005400731794
 30
0.0
 41
1.0
 10
44.12556678118962
 20
42.00005400731727
 30
0.0
 41
1.0
 10
44.01218612943069
 20
42.00005400731727
 30
0.0
 41
1.0
 10
43.87505400729169
 20
42.00005400731727
 30
0.0
 41
1.0
  0
SPLINE
  5
55
330
1F
100
AcDbEntity
  8
BACKS
100
AcDbSpline
210
0.0
220
0.0
230
1.0
 70
    12
 71
     2
 72
     6
 73
     3
 74
     0
 42
0.0000000001
 43
0.0000000001
 40
0.0
 40
0.0
 40
0.0
 40
1.178105736934337
 40
1.178105736934337
 40
1.178105736934337
 10
44.87506262379046
 20
42.75005400731727
 30
0.0
 41
0.9999999999555169
 10
44.87506422944114
 20
42.00004951724767
 30
0.0
 41
0.7071079694678845
 10
44.12505687336282
 20
42.00005400731794
 30
0.0
 41
1.0
  0
SPLINE
  5
56
330
1F
100
AcDbEntity
  8
BACKS
100
AcDbSpline
210
0.0
220
0.0
230
1.0
 70
     8
 71
     2
 72
     6
 73
     3
 74
     0
 42
0.0000000001
 43
0.0000000001
 40
0.0
 40
0.0
 40
0.0
 40
5.249999999999986
 40
5.249999999999986
 40
5.249999999999986
 10
44.87506750911608
 20
48.00005400731725
 30
0.0
 10
44.87505400729289
 20
45.37505400731725
 30
0.0
 10
44.87506262379046
 20
42.75005400731727
 30
0.0
  0
SPLINE
  5
57
330
1F
100
AcDbEntity
  8
BACKS
100
AcDbSpline
210
0.0
220
0.0
230
1.0
 70
    12
 71
     2
 72
     6
 73
     3
 74
     0
 42
0.0000000001
 43
0.0000000001
 40
0.0
 40
0.0
 40
0.0
 40
1.178111453563441
 40
1.178111453563441
 40
1.178111453563441
 10
44.12505779023861
 20
48.75005400731705
 30
0.0
 41
1.0
 10
44.87506882682334
 20
48.75006126111286
 30
0.0
 41
0.7071091052924897
 10
44.87506750911609
 20
48.00005400731725
 30
0.0
 41
0.9999999998788713
  0
SPLINE
  5
58
330
1F
100
AcDbEntity
  8
BACKS
100
AcDbSpline
210
0.0
220
0.0
230
1.0
 70
    24
 71
     2
 72
     6
 73
     3
 74
     0
 42
0.0000000001
 43
0.0000000001
 40
0.0
 40
0.0
 40
0.0
 40
0.2500000000011369
 40
0.2500000000011369
 40
0.2500000000011369
 10
43.87505400729292
 20
48.75005400731727
 30
0.0
 10
44.00005400729349
 20
48.75005400731727
 30
0.0
 10
44.12505779023861
 20
48.75005400731705
 30
0.0
  0
SPLINE
  5
59
330
1F
100
AcDbEntity
  8
BACKS
100
AcDbSpline
210
0.0
220
0.0
230
1.0
 70
    24
 71
     2
 72
     6
 73
     3
 74
     0
 42
0.0000000001
 43
0.0000000001
 40
0.0
 40
0.0
 40
0.0
 40
87.75005400729167
 40
87.75005400729167
 40
87.75005400729167
 10
-43.87499999999875
 20
48.75005400731727
 30
0.0
 10
0.0000270036470837
 20
48.75005400731727
 30
0.0
 10
43.87505400729292
 20
48.75005400731727
 30
0.0
  0
SPLINE
  5
5A
330
1F
100
AcDbEntity
  8
BACKS
100
AcDbSpline
210
0.0
220
0.0
230
1.0
 70
    28
 71
     3
 72
     8
 73
     4
 74
     0
 42
0.0000000001
 43
0.0000000001
 40
0.0
 40
0.0
 40
0.0
 40
0.0
 40
0.3926863527735781
 40
0.3926863527735781
 40
0.3926863527735781
 40
0.3926863527735781
 10
-44.12500286607001
 20
48.7500540073166
 30
0.0
 41
1.0
 10
-44.12551277388742
 20
48.75005400731727
 30
0.0
 41
1.0
 10
-44.01213212213217
 20
48.75005400731727
 30
0.0
 41
1.0
 10
-43.87499999999875
 20
48.75005400731727
 30
0.0
 41
1.0
  0
SPLINE
  5
5B
330
1F
100
AcDbEntity
  8
BACKS
100
AcDbSpline
210
0.0
220
0.0
230
1.0
 70
    12
 71
     2
 72
     6
 73
     3
 74
     0
 42
0.0000000001
 43
0.0000000001
 40
0.0
 40
0.0
 40
0.0
 40
1.178105736934178
 40
1.178105736934178
 40
1.178105736934178
 10
-44.87500861649756
 20
48.00005400731725
 30
0.0
 41
0.9999999999555169
 10
-44.87501022214816
 20
48.75005849738663
 30
0.0
 41
0.7071079694680389
 10
-44.12500286607001
 20
48.7500540073166
 30
0.0
 41
1.0
  0
SPLINE
  5
5C
330
1F
100
AcDbEntity
  8
BACKS
100
AcDbSpline
210
0.0
220
0.0
230
1.0
 70
     8
 71
     2
 72
     6
 73
     3
 74
     0
 42
0.0000000001
 43
0.0000000001
 40
0.0
 40
0.0
 40
0.0
 40
5.249999999999986
 40
5.249999999999986
 40
5.249999999999986
 10
-44.87501350182316
 20
42.75005400731728
 30
0.0
 10
-44.875
 20
45.37505400731725
 30
0.0
 10
-44.87500861649757
 20
48.00005400731725
 30
0.0
  0
SPLINE
  5
5D
330
1F
100
AcDbEntity
  8
SEATS
100
AcDbSpline
210
0.0
220
0.0
230
1.0
 70
    24
 71
     2
 72
     6
 73
     3
 74
     0
 42
0.0000000001
 43
0.0000000001
 40
0.0
 40
0.0
 40
0.0
 40
16.99999999999999
 40
16.99999999999999
 40
16.99999999999999
 10
-44.875
 20
23.00000000002436
 30
0.0
 10
-44.875
 20
31.50000000002435
 30
0.0
 10
-44.875
 20
40.00000000002435
 30
0.0
  0
SPLINE
  5
5E
330
1F
100
AcDbEntity
  8
SEATS
100
AcDbSpline
210
0.0
220
0.0
230
1.0
 70
    12
 71
     2
 72
     6
 73
     3
 74
     0
 42
0.0000000001
 43
0.0000000001
 40
0.0
 40
0.0
 40
0.0
 40
1.570796326794888
 40
1.570796326794888
 40
1.570796326794888
 10
-43.875
 20
22.00000000002436
 30
0.0
 41
1.0
 10
-44.87499999999996
 20
22.00000000002439
 30
0.0
 41
0.7071067811865822
 10
-44.87500000000001
 20
23.00000000002436
 30
0.0
 41
1.0
  0
SPLINE
  5
5F
330
1F
100
AcDbEntity
  8
SEATS
100
AcDbSpline
210
0.0
220
0.0
230
1.0
 70
    24
 71
     2
 72
     6
 73
     3
 74
     0
 42
0.0000000001
 43
0.0000000001
 40
0.0
 40
0.0
 40
0.0
 40
87.74999999999999
 40
87.74999999999999
 40
87.74999999999999
 10
43.87499999999999
 20
22.00000000002438
 30
0.0
 10
-0.0000000000000071
 20
22.00000000002436
 30
0.0
 10
-43.875
 20
22.00000000002436
 30
0.0
  0
SPLINE
  5
60
330
1F
100
AcDbEntity
  8
SEATS
100
AcDbSpline
210
0.0
220
0.0
230
1.0
 70
    12
 71
     2
 72
     6
 73
     3
 74
     0
 42
0.0000000001
 43
0.0000000001
 40
0.0
 40
0.0
 40
0.0
 40
1.570796326794901
 40
1.570796326794901
 40
1.570796326794901
 10
44.87499999999999
 20
23.00000000002436
 30
0.0
 41
1.0
 10
44.87500000000001
 20
22.00000000002432
 30
0.0
 41
0.7071067811865224
 10
43.87499999999999
 20
22.00000000002438
 30
0.0
 41
1.0
  0
SPLINE
  5
61
330
1F
100
AcDbEntity
  8
SEATS
100
AcDbSpline
210
0.0
220
0.0
230
1.0
 70
    24
 71
     2
 72
     6
 73
     3
 74
     0
 42
0.0000000001
 43
0.0000000001
 40
-16.99999999999999
 40
-16.99999999999999
 40
-16.99999999999999
 40
0.0
 40
0.0
 40
0.0
 10
44.87499999999999
 20
40.00000000002435
 30
0.0
 10
44.87499999999999
 20
31.50000000002435
 30
0.0
 10
44.87499999999999
 20
23.00000000002436
 30
0.0
  0
SPLINE
  5
62
330
1F
100
AcDbEntity
  8
SEATS
100
AcDbSpline
210
0.0
220
0.0
230
1.0
 70
    12
 71
     2
 72
     6
 73
     3
 74
     0
 42
0.0000000001
 43
0.0000000001
 40
0.0
 40
0.0
 40
0.0
 40
1.570796326794925
 40
1.570796326794925
 40
1.570796326794925
 10
43.87499999999999
 20
41.00000000002436
 30
0.0
 41
1.0
 10
44.875
 20
41.00000000002438
 30
0.0
 41
0.7071067811865375
 10
44.87499999999999
 20
40.00000000002435
 30
0.0
 41
1.0
  0
SPLINE
  5
63
330
1F
100
AcDbEntity
  8
SEATS
100
AcDbSpline
210
0.0
220
0.0
230
1.0
 70
    24
 71
     2
 72
     6
 73
     3
 74
     0
 42
0.0000000001
 43
0.0000000001
 40
0.0
 40
0.0
 40
0.0
 40
87.74999999999999
 40
87.74999999999999
 40
87.74999999999999
 10
-43.875
 20
41.00000000002436
 30
0.0
 10
-0.0000000000000071
 20
41.00000000002436
 30
0.0
 10
43.87499999999999
 20
41.00000000002436
 30
0.0
  0
ARC
  5
64
330
1F
100
AcDbEntity
  8
SEATS
100
AcDbCircle
 10
-43.875
 20
40.00000000002436
 30
0.0
 40
1.0
100
AcDbArc
 50
90.0
 51
180.0000000000008
  0
SPLINE
  5
66
330
1F
100
AcDbEntity
  8
TABLE
100
AcDbSpline
210
0.0
220
0.0
230
1.0
 70
    12
 71
     2
 72
     6
 73
     3
 74
     0
 42
0.0000000001
 43
0.0000000001
 40
0.0
 40
0.0
 40
0.0
 40
2.748893571939806
 40
2.748893571939806
 40
2.748893571939806
 10
40.24999999997563
 20
21.00000000002436
 30
0.0
 41
1.0
 10
42.00000000002436
 20
21.00000000002435
 30
0.0
 41
0.7071067811767057
 10
41.99999999997563
 20
19.24999999997562
 30
0.0
 41
1.0
  0
SPLINE
  5
67
330
1F
100
AcDbEntity
  8
TABLE
100
AcDbSpline
210
0.0
220
0.0
230
1.0
 70
    24
 71
     2
 72
     6
 73
     3
 74
     0
 42
0.0000000001
 43
0.0000000001
 40
0.0
 40
0.0
 40
0.0
 40
80.49999999995126
 40
80.49999999995126
 40
80.49999999995126
 10
-40.24999999997563
 20
21.00000000002438
 30
0.0
 10
0.0
 20
21.00000000002438
 30
0.0
 10
40.24999999997563
 20
21.00000000002436
 30
0.0
  0
SPLINE
  5
68
330
1F
100
AcDbEntity
  8
TABLE
100
AcDbSpline
210
0.0
220
0.0
230
1.0
 70
    12
 71
     2
 72
     6
 73
     3
 74
     0
 42
0.0000000001
 43
0.0000000001
 40
0.0
 40
0.0
 40
0.0
 40
2.748893571939797
 40
2.748893571939797
 40
2.748893571939797
 10
-42.00000000002436
 20
19.25000000002438
 30
0.0
 41
1.0
 10
-42.00000000002434
 20
21.00000000007312
 30
0.0
 41
0.7071067811767024
 10
-40.24999999997563
 20
21.00000000002438
 30
0.0
 41
1.0
  0
SPLINE
  5
69
330
1F
100
AcDbEntity
  8
TABLE
100
AcDbSpline
210
0.0
220
0.0
230
1.0
 70
    24
 71
     2
 72
     6
 73
     3
 74
     0
 42
0.0000000001
 43
0.0000000001
 40
0.0
 40
0.0
 40
0.0
 40
38.49999999995126
 40
38.49999999995126
 40
38.49999999995126
 10
-42.00000000002437
 20
-19.24999999992687
 30
0.0
 10
-42.00000000002437
 20
0.0000000000487432
 30
0.0
 10
-42.00000000002436
 20
19.25000000002438
 30
0.0
  0
SPLINE
  5
6A
330
1F
100
AcDbEntity
  8
TABLE
100
AcDbSpline
210
0.0
220
0.0
230
1.0
 70
    12
 71
     2
 72
     6
 73
     3
 74
     0
 42
0.0000000001
 43
0.0000000001
 40
0.0
 40
0.0
 40
0.0
 40
2.748893571939813
 40
2.748893571939813
 40
2.748893571939813
 10
-40.25000000002437
 20
-20.99999999997562
 30
0.0
 41
1.0
 10
-42.00000000007311
 20
-20.99999999997561
 30
0.0
 41
0.7071067811767042
 10
-42.00000000002437
 20
-19.24999999992687
 30
0.0
 41
1.0
  0
SPLINE
  5
6B
330
1F
100
AcDbEntity
  8
TABLE
100
AcDbSpline
210
0.0
220
0.0
230
1.0
 70
    24
 71
     2
 72
     6
 73
     3
 74
     0
 42
0.0000000001
 43
0.0000000001
 40
0.0
 40
0.0
 40
0.0
 40
80.5
 40
80.5
 40
80.5
 10
40.24999999997563
 20
-20.99999999997562
 30
0.0
 10
-0.0000000000243645
 20
-20.99999999997562
 30
0.0
 10
-40.25000000002437
 20
-20.99999999997562
 30
0.0
  0
SPLINE
  5
6C
330
1F
100
AcDbEntity
  8
TABLE
100
AcDbSpline
210
0.0
220
0.0
230
1.0
 70
    12
 71
     2
 72
     6
 73
     3
 74
     0
 42
0.0000000001
 43
0.0000000001
 40
0.0
 40
0.0
 40
0.0
 40
2.748893571891054
 40
2.748893571891054
 40
2.748893571891054
 10
41.9999999999756
 20
-19.24999999997562
 30
0.0
 41
1.0
 10
41.99999999997561
 20
-20.99999999997562
 30
0.0
 41
0.707106781186546
 10
40.24999999997563
 20
-20.99999999997562
 30
0.0
 41
1.0
  0
SPLINE
  5
6D
330
1F
100
AcDbEntity
  8
TABLE
100
AcDbSpline
210
0.0
220
0.0
230
1.0
 70
    24
 71
     2
 72
     6
 73
     3
 74
     0
 42
0.0000000001
 43
0.0000000001
 40
0.0
 40
0.0
 40
0.0
 40
38.49999999995125
 40
38.49999999995125
 40
38.49999999995125
 10
41.99999999997563
 20
19.24999999997562
 30
0.0
 10
41.99999999997563
 20
-0.0000000000000071
 30
0.0
 10
41.99999999997563
 20
-19.24999999997562
 30
0.0
  0
POLYLINE
  5
6F
330
1F
100
AcDbEntity
  8
FRAME
100
AcDb2dPolyline
 66
     1
 10
0.0
 20
0.0
 30
0.0
  0
VERTEX
  5
70
330
6F
100
AcDbEntity
  8
FRAME
100
AcDbVertex
100
AcDb2dVertex
 10
-35.82672197659002
 20
42.00005400731725
 30
0.0
  0
VERTEX
  5
71
330
6F
100
AcDbEntity
  8
FRAME
100
AcDbVertex
100
AcDb2dVertex
 10
-35.82672197659001
 20
41.00000000002436
 30
0.0
  0
SEQEND
  5
72
330
6F
100
AcDbEntity
  8
FRAME
  0
SPLINE
  5
73
330
1F
100
AcDbEntity
  8
FRAME
100
AcDbSpline
210
0.0
220
0.0
230
1.0
 70
    28
 71
     3
 72
     8
 73
     4
 74
     0
 42
0.0000000001
 43
0.0000000001
 40
277.7330815999149
 40
277.7330815999149
 40
277.7330815999149
 40
277.7330815999149
 40
278.5204831747179
 40
278.5204831747179
 40
278.5204831747179
 40
278.5204831747179
 10
-35.03932040178705
 20
42.00005400731725
 30
0.0
 41
0.9999999999678375
 10
-35.30178759338804
 20
42.00005400731725
 30
0.0
 41
0.9999999999678375
 10
-35.56425478498903
 20
42.00005400731725
 30
0.0
 41
0.9999999999678375
 10
-35.82672197659003
 20
42.00005400731725
 30
0.0
 41
0.9999999999678375
  0
POLYLINE
  5
74
330
1F
100
AcDbEntity
  8
FRAME
100
AcDb2dPolyline
 66
     1
 10
0.0
 20
0.0
 30
0.0
  0
VERTEX
  5
75
330
74
100
AcDbEntity
  8
FRAME
100
AcDbVertex
100
AcDb2dVertex
 10
-35.03932040178704
 20
41.00000000002436
 30
0.0
  0
VERTEX
  5
76
330
74
100
AcDbEntity
  8
FRAME
100
AcDbVertex
100
AcDb2dVertex
 10
-35.03932040178705
 20
42.00005400731725
 30
0.0
  0
SEQEND
  5
77
330
74
100
AcDbEntity
  8
FRAME
  0
SPLINE
  5
78
330
1F
100
AcDbEntity
  8
FRAME
100
AcDbSpline
210
0.0
220
0.0
230
1.0
 70
    28
 71
     2
 72
     6
 73
     3
 74
     0
 42
0.0000000001
 43
0.0000000001
 40
26.61907435020489
 40
26.61907435020489
 40
26.61907435020489
 40
27.40647592500786
 40
27.40647592500786
 40
27.40647592500786
 10
-35.82672197659001
 20
41.00000000002436
 30
0.0
 41
1.0
 10
-35.43302118918852
 20
41.00000000002436
 30
0.0
 41
1.0
 10
-35.03932040178704
 20
41.00000000002436
 30
0.0
 41
1.0
  0
SPLINE
  5
79
330
1F
100
AcDbEntity
  8
FRAME
100
AcDbSpline
210
0.0
220
0.0
230
1.0
 70
    28
 71
     3
 72
     8
 73
     4
 74
     0
 42
0.0000000001
 43
0.0000000001
 40
206.8669625029486
 40
206.8669625029486
 40
206.8669625029486
 40
206.8669625029486
 40
207.6543640777516
 40
207.6543640777516
 40
207.6543640777516
 40
207.6543640777516
 10
35.82679869517922
 20
42.00005400731727
 30
0.0
 41
0.9999999999678375
 10
35.56433150357823
 20
42.00005400731727
 30
0.0
 41
0.9999999999678375
 10
35.30186431197725
 20
42.00005400731727
 30
0.0
 41
0.9999999999678375
 10
35.03939712037628
 20
42.00005400731727
 30
0.0
 41
0.9999999999678375
  0
POLYLINE
  5
7A
330
1F
100
AcDbEntity
  8
FRAME
100
AcDb2dPolyline
 66
     1
 10
0.0
 20
0.0
 30
0.0
  0
VERTEX
  5
7B
330
7A
100
AcDbEntity
  8
FRAME
100
AcDbVertex
100
AcDb2dVertex
 10
35.82679869517922
 20
41.00000000002436
 30
0.0
  0
VERTEX
  5
7C
330
7A
100
AcDbEntity
  8
FRAME
100
AcDbVertex
100
AcDb2dVertex
 10
35.82679869517922
 20
42.00005400731727
 30
0.0
  0
SEQEND
  5
7D
330
7A
100
AcDbEntity
  8
FRAME
  0
SPLINE
  5
7E
330
1F
100
AcDbEntity
  8
FRAME
100
AcDbSpline
210
0.0
220
0.0
230
1.0
 70
    28
 71
     2
 72
     6
 73
     3
 74
     0
 42
0.0000000001
 43
0.0000000001
 40
97.4851934471712
 40
97.4851934471712
 40
97.4851934471712
 40
98.27259502197413
 40
98.27259502197413
 40
98.27259502197413
 10
35.03939712037628
 20
41.00000000002436
 30
0.0
 41
1.0
 10
35.43309790777776
 20
41.00000000002436
 30
0.0
 41
1.0
 10
35.82679869517922
 20
41.00000000002436
 30
0.0
 41
1.0
  0
POLYLINE
  5
7F
330
1F
100
AcDbEntity
  8
FRAME
100
AcDb2dPolyline
 66
     1
 10
0.0
 20
0.0
 30
0.0
  0
VERTEX
  5
80
330
7F
100
AcDbEntity
  8
FRAME
100
AcDbVertex
100
AcDb2dVertex
 10
35.03939712037628
 20
42.00005400731727
 30
0.0
  0
VERTEX
  5
81
330
7F
100
AcDbEntity
  8
FRAME
100
AcDbVertex
100
AcDb2dVertex
 10
35.03939712037628
 20
41.00000000002436
 30
0.0
  0
SEQEND
  5
82
330
7F
100
AcDbEntity
  8
FRAME
  0
SPLINE
  5
83
330
1F
100
AcDbEntity
  8
FRAME
100
AcDbSpline
210
0.0
220
0.0
230
1.0
 70
    28
 71
     3
 72
     8
 73
     4
 74
     0
 42
0.0000000001
 43
0.0000000001
 40
-207.6543681825652
 40
-207.6543681825652
 40
-207.6543681825652
 40
-207.6543681825652
 40
-206.8669666077623
 40
-206.8669666077623
 40
-206.8669666077623
 40
-206.8669666077623
 10
35.03939712037628
 20
-42.00005400726852
 30
0.0
 41
1.000000000001893
 10
35.30186431197725
 20
-42.00005400726852
 30
0.0
 41
1.000000000001893
 10
35.56433150357823
 20
-42.00005400726852
 30
0.0
 41
1.000000000001893
 10
35.82679869517924
 20
-42.00005400726852
 30
0.0
 41
1.000000000001893
  0
POLYLINE
  5
84
330
1F
100
AcDbEntity
  8
FRAME
100
AcDb2dPolyline
 66
     1
 10
0.0
 20
0.0
 30
0.0
  0
VERTEX
  5
85
330
84
100
AcDbEntity
  8
FRAME
100
AcDbVertex
100
AcDb2dVertex
 10
35.03939712037628
 20
-40.99999999997562
 30
0.0
  0
VERTEX
  5
86
330
84
100
AcDbEntity
  8
FRAME
100
AcDbVertex
100
AcDb2dVertex
 10
35.03939712037628
 20
-42.00005400726852
 30
0.0
  0
SEQEND
  5
87
330
84
100
AcDbEntity
  8
FRAME
  0
SPLINE
  5
88
330
1F
100
AcDbEntity
  8
FRAME
100
AcDbSpline
210
0.0
220
0.0
230
1.0
 70
    28
 71
     2
 72
     6
 73
     3
 74
     0
 42
0.0000000001
 43
0.0000000001
 40
-98.27259502197411
 40
-98.27259502197411
 40
-98.27259502197411
 40
-97.48519344717118
 40
-97.48519344717118
 40
-97.48519344717118
 10
35.82679869517922
 20
-40.99999999997562
 30
0.0
 41
1.0
 10
35.43309790777776
 20
-40.99999999997562
 30
0.0
 41
1.0
 10
35.03939712037628
 20
-40.99999999997562
 30
0.0
 41
1.0
  0
POLYLINE
  5
89
330
1F
100
AcDbEntity
  8
FRAME
100
AcDb2dPolyline
 66
     1
 10
0.0
 20
0.0
 30
0.0
  0
VERTEX
  5
8A
330
89
100
AcDbEntity
  8
FRAME
100
AcDbVertex
100
AcDb2dVertex
 10
35.82679869517924
 20
-42.00005400726852
 30
0.0
  0
VERTEX
  5
8B
330
89
100
AcDbEntity
  8
FRAME
100
AcDbVertex
100
AcDb2dVertex
 10
35.82679869517922
 20
-40.99999999997562
 30
0.0
  0
SEQEND
  5
8C
330
89
100
AcDbEntity
  8
FRAME
  0
POLYLINE
  5
8D
330
1F
100
AcDbEntity
  8
FRAME
100
AcDb2dPolyline
 66
     1
 10
0.0
 20
0.0
 30
0.0
  0
VERTEX
  5
8E
330
8D
100
AcDbEntity
  8
FRAME
100
AcDbVertex
100
AcDb2dVertex
 10
-35.82672197659001
 20
-40.99999999997562
 30
0.0
  0
VERTEX
  5
8F
330
8D
100
AcDbEntity
  8
FRAME
100
AcDbVertex
100
AcDb2dVertex
 10
-35.82672197659002
 20
-42.00005400726852
 30
0.0
  0
SEQEND
  5
90
330
8D
100
AcDbEntity
  8
FRAME
  0
SPLINE
  5
91
330
1F
100
AcDbEntity
  8
FRAME
100
AcDbSpline
210
0.0
220
0.0
230
1.0
 70
    28
 71
     2
 72
     6
 73
     3
 74
     0
 42
0.0000000001
 43
0.0000000001
 40
-27.40647592500785
 40
-27.40647592500785
 40
-27.40647592500785
 40
-26.61907435020489
 40
-26.61907435020489
 40
-26.61907435020489
 10
-35.03932040178704
 20
-40.99999999997562
 30
0.0
 41
1.0
 10
-35.43302118918852
 20
-40.99999999997562
 30
0.0
 41
1.0
 10
-35.82672197659001
 20
-40.99999999997562
 30
0.0
 41
1.0
  0
POLYLINE
  5
92
330
1F
100
AcDbEntity
  8
FRAME
100
AcDb2dPolyline
 66
     1
 10
0.0
 20
0.0
 30
0.0
  0
VERTEX
  5
93
330
92
100
AcDbEntity
  8
FRAME
100
AcDbVertex
100
AcDb2dVertex
 10
-35.03932040178705
 20
-42.00005400726852
 30
0.0
  0
VERTEX
  5
94
330
92
100
AcDbEntity
  8
FRAME
100
AcDbVertex
100
AcDb2dVertex
 10
-35.03932040178704
 20
-40.99999999997562
 30
0.0
  0
SEQEND
  5
95
330
92
100
AcDbEntity
  8
FRAME
  0
SPLINE
  5
96
330
1F
100
AcDbEntity
  8
FRAME
100
AcDbSpline
210
0.0
220
0.0
230
1.0
 70
    28
 71
     3
 72
     8
 73
     4
 74
     0
 42
0.0000000001
 43
0.0000000001
 40
-278.5204872795316
 40
-278.5204872795316
 40
-278.5204872795316
 40
-278.5204872795316
 40
-277.7330857047286
 40
-277.7330857047286
 40
-277.7330857047286
 40
-277.7330857047286
 10
-35.82672197659003
 20
-42.00005400726852
 30
0.0
 41
1.000000000001893
 10
-35.56425478498903
 20
-42.00005400726852
 30
0.0
 41
1.000000000001893
 10
-35.30178759338804
 20
-42.00005400726852
 30
0.0
 41
1.000000000001893
 10
-35.03932040178705
 20
-42.00005400726852
 30
0.0
 41
1.000000000001893
  0
ENDSEC
  0
SECTION
  2
OBJECTS
  0
DICTIONARY
  5
C
330
0
100
AcDbDictionary
281
     1
  3
ACAD_GROUP
350
D
  3
ACAD_LAYOUT
350
1A
  3
ACAD_MLEADERSTYLE
350
98
  3
ACAD_MLINESTYLE
350
17
  3
ACAD_PLOTSETTINGS
350
19
  3
ACAD_PLOTSTYLENAME
350
E
  3
ACAD_TABLESTYLE
350
97
  3
ACAD_VISUALSTYLE
350
2A
  0
DICTIONARY
  5
D
102
{ACAD_REACTORS
330
C
102
}
330
C
100
AcDbDictionary
281
     1
  0
DICTIONARY
  5
1A
102
{ACAD_REACTORS
330
C
102
}
330
C
100
AcDbDictionary
281
     1
  3
Layout1
350
1E
  3
Layout2
350
26
  3
Model
350
22
  0
DICTIONARY
  5
98
102
{ACAD_REACTORS
330
C
102
}
330
C
100
AcDbDictionary
281
     1
  0
DICTIONARY
  5
17
102
{ACAD_REACTORS
330
C
102
}
330
C
100
AcDbDictionary
281
     1
  3
Standard
350
18
  0
DICTIONARY
  5
19
102
{ACAD_REACTORS
330
C
102
}
330
C
100
AcDbDictionary
281
     1
  0
ACDBDICTIONARYWDFLT
  5
E
102
{ACAD_REACTORS
330
C
102
}
330
C
100
AcDbDictionary
281
     1
  3
Normal
350
F
100
AcDbDictionaryWithDefault
340
F
  0
DICTIONARY
  5
97
102
{ACAD_REACTORS
330
C
102
}
330
C
100
AcDbDictionary
281
     1
  0
DICTIONARY
  5
2A
102
{ACAD_REACTORS
330
C
102
}
330
C
100
AcDbDictionary
281
     1
  3
2dWireframe
350
2F
  3
3D Hidden
350
31
  3
3dWireframe
350
30
  3
Basic
350
32
  3
Brighten
350
36
  3
ColorChange
350
3A
  3
Conceptual
350
34
  3
Dim
350
35
  3
Facepattern
350
39
  3
Flat
350
2B
  3
FlatWithEdges
350
2C
  3
Gouraud
350
2D
  3
GouraudWithEdges
350
2E
  3
Linepattern
350
38
  3
Realistic
350
33
  3
Thicken
350
37
  0
LAYOUT
  5
1E
102
{ACAD_REACTORS
330
1A
102
}
330
1A
100
AcDbPlotSettings
  1

  2
none_device
  4

  6

 40
0.0
 41
0.0
 42
0.0
 43
0.0
 44
0.0
 45
0.0
 46
0.0
 47
0.0
 48
0.0
 49
0.0
140
0.0
141
0.0
142
1.0
143
1.0
 70
   688
 72
     0
 73
     0
 74
     5
  7

 75
    16
 76
     0
 77
     2
 78
   300
147
1.0
148
0.0
149
0.0
100
AcDbLayout
  1
Layout1
 70
     1
 71
     1
 10
0.0
 20
0.0
 11
12.0
 21
9.0
 12
0.0
 22
0.0
 32
0.0
 14
1.000000000000000E+20
 24
1.000000000000000E+20
 34
1.000000000000000E+20
 15
-1.000000000000000E+20
 25
-1.000000000000000E+20
 35
-1.000000000000000E+20
146
0.0
 13
0.0
 23
0.0
 33
0.0
 16
1.0
 26
0.0
 36
0.0
 17
0.0
 27
1.0
 37
0.0
 76
     0
330
1B
  0
LAYOUT
  5
26
102
{ACAD_REACTORS
330
1A
102
}
330
1A
100
AcDbPlotSettings
  1

  2
none_device
  4

  6

 40
0.0
 41
0.0
 42
0.0
 43
0.0
 44
0.0
 45
0.0
 46
0.0
 47
0.0
 48
0.0
 49
0.0
140
0.0
141
0.0
142
1.0
143
1.0
 70
   688
 72
     0
 73
     0
 74
     5
  7

 75
    16
 76
     0
 77
     2
 78
   300
147
1.0
148
0.0
149
0.0
100
AcDbLayout
  1
Layout2
 70
     1
 71
     2
 10
0.0
 20
0.0
 11
0.0
 21
0.0
 12
0.0
 22
0.0
 32
0.0
 14
0.0
 24
0.0
 34
0.0
 15
0.0
 25
0.0
 35
0.0
146
0.0
 13
0.0
 23
0.0
 33
0.0
 16
1.0
 26
0.0
 36
0.0
 17
0.0
 27
1.0
 37
0.0
 76
     0
330
23
  0
LAYOUT
  5
22
102
{ACAD_REACTORS
330
1A
102
}
330
1A
100
AcDbPlotSettings
  1

  2
none_device
  4

  6

 40
0.0
 41
0.0
 42
0.0
 43
0.0
 44
0.0
 45
0.0
 46
0.0
 47
0.0
 48
0.0
 49
0.0
140
0.0
141
0.0
142
1.0
143
1.0
 70
  1712
 72
     0
 73
     0
 74
     0
  7

 75
     0
 76
     0
 77
     2
 78
   300
147
1.0
148
0.0
149
0.0
100
AcDbLayout
  1
Model
 70
     1
 71
     0
 10
0.0
 20
0.0
 11
12.0
 21
9.0
 12
0.0
 22
0.0
 32
0.0
 14
-44.87501350182317
 24
-48.75005400726852
 34
0.0
 15
44.87506750911608
 25
48.75005400731727
 35
0.0
146
0.0
 13
0.0
 23
0.0
 33
0.0
 16
1.0
 26
0.0
 36
0.0
 17
0.0
 27
1.0
 37
0.0
 76
     0
330
1F
331
29
  0
MLINESTYLE
  5
18
102
{ACAD_REACTORS
330
17
102
}
330
17
100
AcDbMlineStyle
  2
Standard
 70
     0
  3

 62
   256
 51
90.0
 52
90.0
 71
     2
 49
0.5
 62
   256
  6
BYLAYER
 49
-0.5
 62
   256
  6
BYLAYER
  0
ACDBPLACEHOLDER
  5
F
102
{ACAD_REACTORS
330
E
102
}
330
E
  0
VISUALSTYLE
  5
2F
102
{ACAD_REACTORS
330
2A
102
}
330
2A
100
AcDbVisualStyle
  2
2dWireframe
 70
     4
 71
     0
 72
     2
 73
     0
 90
        0
 40
-0.6
 41
-30.0
 62
     5
 63
     7
421
 16777215
 74
     1
 91
        4
 64
     7
 65
   257
 75
     1
175
     1
 42
1.0
 92
        0
 66
   257
 43
1.0
 76
     1
 77
     6
 78
     2
 67
     7
 79
     5
170
     0
171
     0
290
     0
174
     0
 93
        1
 44
0.0
173
     0
291
     0
 45
0.0
1001
ACAD
1000
AcDbSavedByObjectVersion
1070
     0
  0
VISUALSTYLE
  5
31
102
{ACAD_REACTORS
330
2A
102
}
330
2A
100
AcDbVisualStyle
  2
3D Hidden
 70
     6
 71
     1
 72
     2
 73
     2
 90
        0
 40
-0.6
 41
-30.0
 62
     5
 63
     7
421
 16777215
 74
     2
 91
        2
 64
     7
 65
   257
 75
     2
175
     1
 42
40.0
 92
        0
 66
   257
 43
1.0
 76
     1
 77
     6
 78
     2
 67
     7
 79
     3
170
     0
171
     0
290
     0
174
     0
 93
        1
 44
0.0
173
     0
291
     0
 45
0.0
1001
ACAD
1000
AcDbSavedByObjectVersion
1070
     0
  0
VISUALSTYLE
  5
30
102
{ACAD_REACTORS
330
2A
102
}
330
2A
100
AcDbVisualStyle
  2
3dWireframe
 70
     5
 71
     0
 72
     2
 73
     0
 90
        0
 40
-0.6
 41
-30.0
 62
     5
 63
     7
421
 16777215
 74
     1
 91
        4
 64
     7
 65
   257
 75
     1
175
     1
 42
1.0
 92
        0
 66
   257
 43
1.0
 76
     1
 77
     6
 78
     2
 67
     7
 79
     5
170
     0
171
     0
290
     0
174
     0
 93
        1
 44
0.0
173
     0
291
     0
 45
0.0
1001
ACAD
1000
AcDbSavedByObjectVersion
1070
     0
  0
VISUALSTYLE
  5
32
102
{ACAD_REACTORS
330
2A
102
}
330
2A
100
AcDbVisualStyle
  2
Basic
 70
     7
 71
     1
 72
     0
 73
     1
 90
        0
 40
-0.6
 41
-30.0
 62
     5
 63
     7
421
 16777215
 74
     0
 91
        4
 64
     7
 65
   257
 75
     1
175
     1
 42
1.0
 92
        8
 66
     7
 43
1.0
 76
     1
 77
     6
 78
     2
 67
     7
 79
     5
170
     0
171
     0
290
     0
174
     0
 93
        1
 44
0.0
173
     0
291
     1
 45
0.0
1001
ACAD
1000
AcDbSavedByObjectVersion
1070
     0
  0
VISUALSTYLE
  5
36
102
{ACAD_REACTORS
330
2A
102
}
330
2A
100
AcDbVisualStyle
  2
Brighten
 70
    12
 71
     2
 72
     2
 73
     0
 90
        0
 40
-0.6
 41
-30.0
 62
     5
 63
     7
421
 16777215
 74
     1
 91
        4
 64
     7
 65
   257
 75
     1
175
     1
 42
1.0
 92
        8
 66
     7
 43
1.0
 76
     1
 77
     6
 78
     2
 67
     7
 79
     5
170
     0
171
     0
290
     0
174
     0
 93
        1
 44
50.0
173
     0
291
     1
 45
0.0
1001
ACAD
1000
AcDbSavedByObjectVersion
1070
     0
  0
VISUALSTYLE
  5
3A
102
{ACAD_REACTORS
330
2A
102
}
330
2A
100
AcDbVisualStyle
  2
ColorChange
 70
    16
 71
     2
 72
     2
 73
     3
 90
        0
 40
-0.6
 41
-30.0
 62
     5
 63
     8
421
  8421504
 74
     1
 91
        4
 64
     7
 65
   257
 75
     1
175
     1
 42
1.0
 92
        8
 66
     8
424
  8421504
 43
1.0
 76
     1
 77
     6
 78
     2
 67
     7
 79
     5
170
     0
171
     0
290
     0
174
     0
 93
        1
 44
0.0
173
     0
291
     1
 45
0.0
1001
ACAD
1000
AcDbSavedByObjectVersion
1070
     0
  0
VISUALSTYLE
  5
34
102
{ACAD_REACTORS
330
2A
102
}
330
2A
100
AcDbVisualStyle
  2
Conceptual
 70
     9
 71
     3
 72
     2
 73
     0
 90
        0
 40
-0.6
 41
-30.0
 62
     5
 63
     7
421
 16777215
 74
     2
 91
        2
 64
     7
 65
   257
 75
     1
175
     1
 42
40.0
 92
        8
 66
     7
 43
1.0
 76
     1
 77
     6
 78
     2
 67
     7
 79
     3
170
     0
171
     0
290
     0
174
     0
 93
        1
 44
0.0
173
     0
291
     0
 45
0.0
1001
ACAD
1000
AcDbSavedByObjectVersion
1070
     0
  0
VISUALSTYLE
  5
35
102
{ACAD_REACTORS
330
2A
102
}
330
2A
100
AcDbVisualStyle
  2
Dim
 70
    11
 71
     2
 72
     2
 73
     0
 90
        0
 40
-0.6
 41
-30.0
 62
     5
 63
     7
421
 16777215
 74
     1
 91
        4
 64
     7
 65
   257
 75
     1
175
     1
 42
1.0
 92
        8
 66
     7
 43
1.0
 76
     1
 77
     6
 78
     2
 67
     7
 79
     5
170
     0
171
     0
290
     0
174
     0
 93
        1
 44
-50.0
173
     0
291
     1
 45
0.0
1001
ACAD
1000
AcDbSavedByObjectVersion
1070
     0
  0
VISUALSTYLE
  5
39
102
{ACAD_REACTORS
330
2A
102
}
330
2A
100
AcDbVisualStyle
  2
Facepattern
 70
    15
 71
     2
 72
     2
 73
     0
 90
        0
 40
-0.6
 41
-30.0
 62
     5
 63
     7
421
 16777215
 74
     1
 91
        4
 64
     7
 65
   257
 75
     1
175
     1
 42
1.0
 92
        8
 66
     7
 43
1.0
 76
     1
 77
     6
 78
     2
 67
     7
 79
     5
170
     0
171
     0
290
     0
174
     0
 93
        1
 44
0.0
173
     0
291
     1
 45
0.0
1001
ACAD
1000
AcDbSavedByObjectVersion
1070
     0
  0
VISUALSTYLE
  5
2B
102
{ACAD_REACTORS
330
2A
102
}
330
2A
100
AcDbVisualStyle
  2
Flat
 70
     0
 71
     2
 72
     1
 73
     1
 90
        2
 40
-0.6
 41
30.0
 62
     5
 63
     7
421
 16777215
 74
     0
 91
        4
 64
     7
 65
   257
 75
     1
175
     1
 42
1.0
 92
        8
 66
     7
 43
1.0
 76
     1
 77
     6
 78
     2
 67
     7
 79
     5
170
     0
171
     0
290
     0
174
     0
 93
       13
 44
0.0
173
     0
291
     1
 45
0.0
1001
ACAD
1000
AcDbSavedByObjectVersion
1070
     0
  0
VISUALSTYLE
  5
2C
102
{ACAD_REACTORS
330
2A
102
}
330
2A
100
AcDbVisualStyle
  2
FlatWithEdges
 70
     1
 71
     2
 72
     1
 73
     1
 90
        2
 40
-0.6
 41
30.0
 62
     5
 63
     7
421
 16777215
 74
     1
 91
        4
 64
     7
 65
   257
 75
     1
175
     1
 42
1.0
 92
        0
 66
   257
 43
1.0
 76
     1
 77
     6
 78
     2
 67
     7
 79
     5
170
     0
171
     0
290
     0
174
     0
 93
       13
 44
0.0
173
     0
291
     1
 45
0.0
1001
ACAD
1000
AcDbSavedByObjectVersion
1070
     0
  0
VISUALSTYLE
  5
2D
102
{ACAD_REACTORS
330
2A
102
}
330
2A
100
AcDbVisualStyle
  2
Gouraud
 70
     2
 71
     2
 72
     2
 73
     1
 90
        2
 40
-0.6
 41
30.0
 62
     5
 63
     7
421
 16777215
 74
     0
 91
        4
 64
     7
 65
   257
 75
     1
175
     1
 42
1.0
 92
        0
 66
     7
 43
1.0
 76
     1
 77
     6
 78
     2
 67
     7
 79
     5
170
     0
171
     0
290
     0
174
     0
 93
       13
 44
0.0
173
     0
291
     1
 45
0.0
1001
ACAD
1000
AcDbSavedByObjectVersion
1070
     0
  0
VISUALSTYLE
  5
2E
102
{ACAD_REACTORS
330
2A
102
}
330
2A
100
AcDbVisualStyle
  2
GouraudWithEdges
 70
     3
 71
     2
 72
     2
 73
     1
 90
        2
 40
-0.6
 41
30.0
 62
     5
 63
     7
421
 16777215
 74
     1
 91
        4
 64
     7
 65
   257
 75
     1
175
     1
 42
1.0
 92
        0
 66
   257
 43
1.0
 76
     1
 77
     6
 78
     2
 67
     7
 79
     5
170
     0
171
     0
290
     0
174
     0
 93
       13
 44
0.0
173
     0
291
     1
 45
0.0
1001
ACAD
1000
AcDbSavedByObjectVersion
1070
     0
  0
VISUALSTYLE
  5
38
102
{ACAD_REACTORS
330
2A
102
}
330
2A
100
AcDbVisualStyle
  2
Linepattern
 70
    14
 71
     2
 72
     2
 73
     0
 90
        0
 40
-0.6
 41
-30.0
 62
     5
 63
     7
421
 16777215
 74
     1
 91
        4
 64
     7
 65
   257
 75
     7
175
     7
 42
1.0
 92
        8
 66
     7
 43
1.0
 76
     1
 77
     6
 78
     2
 67
     7
 79
     5
170
     0
171
     0
290
     0
174
     0
 93
        1
 44
0.0
173
     0
291
     1
 45
0.0
1001
ACAD
1000
AcDbSavedByObjectVersion
1070
     0
  0
VISUALSTYLE
  5
33
102
{ACAD_REACTORS
330
2A
102
}
330
2A
100
AcDbVisualStyle
  2
Realistic
 70
     8
 71
     2
 72
     2
 73
     0
 90
        0
 40
-0.6
 41
-30.0
 62
     5
 63
     7
421
 16777215
 74
     1
 91
        0
 64
     7
 65
   257
 75
     1
175
     1
 42
1.0
 92
        8
 66
     8
424
  7895160
 43
1.0
 76
     1
 77
     6
 78
     2
 67
     7
 79
     5
170
     0
171
     0
290
     0
174
     0
 93
       13
 44
0.0
173
     0
291
     0
 45
0.0
1001
ACAD
1000
AcDbSavedByObjectVersion
1070
     0
  0
VISUALSTYLE
  5
37
102
{ACAD_REACTORS
330
2A
102
}
330
2A
100
AcDbVisualStyle
  2
Thicken
 70
    13
 71
     2
 72
     2
 73
     0
 90
        0
 40
-0.6
 41
-30.0
 62
     5
 63
     7
421
 16777215
 74
     1
 91
        4
 64
     7
 65
   257
 75
     1
175
     1
 42
1.0
 92
       12
 66
     7
 43
1.0
 76
     1
 77
     6
 78
     2
 67
     7
 79
     5
170
     0
171
     0
290
     0
174
     0
 93
        1
 44
0.0
173
     0
291
     1
 45
0.0
1001
ACAD
1000
AcDbSavedByObjectVersion
1070
     0
  0
ENDSEC
  0
EOF
