  0
SECTION
  2
HEADER
  9
$ACADVER
  1
AC1018
  9
$ACADMAINTVER
 70
     0
  9
$DWGCODEPAGE
  3
ANSI_1252
  9
$INSBASE
 10
0.0
 20
0.0
 30
0.0
  9
$EXTMIN
 10
-44.62500690131124
 20
-44.87500675092843
 30
0.0
  9
$EXTMAX
 10
44.62500690127754
 20
44.87500675089473
 30
0.0
  9
$LIMMIN
 10
0.0
 20
0.0
  9
$LIMMAX
 10
12.0
 20
9.0
  9
$ORTHOMODE
 70
     0
  9
$REGENMODE
 70
     1
  9
$FILLMODE
 70
     1
  9
$QTEXTMODE
 70
     0
  9
$MIRRTEXT
 70
     1
  9
$LTSCALE
 40
0.0393700787401575
  9
$ATTMODE
 70
     1
  9
$TEXTSIZE
 40
0.2
  9
$TRACEWID
 40
0.05
  9
$TEXTSTYLE
  7
Standard
  9
$CLAYER
  8
SEATS
  9
$CELTYPE
  6
ByLayer
  9
$CECOLOR
 62
   256
  9
$CELTSCALE
 40
1.0
  9
$DISPSILH
 70
     0
  9
$DIMSCALE
 40
1.0
  9
$DIMASZ
 40
0.18
  9
$DIMEXO
 40
0.0625
  9
$DIMDLI
 40
0.38
  9
$DIMRND
 40
0.0
  9
$DIMDLE
 40
0.0
  9
$DIMEXE
 40
0.18
  9
$DIMTP
 40
0.0
  9
$DIMTM
 40
0.0
  9
$DIMTXT
 40
0.18
  9
$DIMCEN
 40
0.09
  9
$DIMTSZ
 40
0.0
  9
$DIMTOL
 70
     0
  9
$DIMLIM
 70
     0
  9
$DIMTIH
 70
     1
  9
$DIMTOH
 70
     1
  9
$DIMSE1
 70
     0
  9
$DIMSE2
 70
     0
  9
$DIMTAD
 70
     0
  9
$DIMZIN
 70
     0
  9
$DIMBLK
  1

  9
$DIMASO
 70
     1
  9
$DIMSHO
 70
     1
  9
$DIMPOST
  1

  9
$DIMAPOST
  1

  9
$DIMALT
 70
     0
  9
$DIMALTD
 70
     2
  9
$DIMALTF
 40
25.4
  9
$DIMLFAC
 40
1.0
  9
$DIMTOFL
 70
     0
  9
$DIMTVP
 40
0.0
  9
$DIMTIX
 70
     0
  9
$DIMSOXD
 70
     0
  9
$DIMSAH
 70
     0
  9
$DIMBLK1
  1

  9
$DIMBLK2
  1

  9
$DIMSTYLE
  2
Standard
  9
$DIMCLRD
 70
     0
  9
$DIMCLRE
 70
     0
  9
$DIMCLRT
 70
     0
  9
$DIMTFAC
 40
1.0
  9
$DIMGAP
 40
0.09
  9
$DIMJUST
 70
     0
  9
$DIMSD1
 70
     0
  9
$DIMSD2
 70
     0
  9
$DIMTOLJ
 70
     1
  9
$DIMTZIN
 70
     0
  9
$DIMALTZ
 70
     0
  9
$DIMALTTZ
 70
     0
  9
$DIMUPT
 70
     0
  9
$DIMDEC
 70
     4
  9
$DIMTDEC
 70
     4
  9
$DIMALTU
 70
     2
  9
$DIMALTTD
 70
     2
  9
$DIMTXSTY
  7
Standard
  9
$DIMAUNIT
 70
     0
  9
$DIMADEC
 70
     0
  9
$DIMALTRND
 40
0.0
  9
$DIMAZIN
 70
     0
  9
$DIMDSEP
 70
    46
  9
$DIMATFIT
 70
     3
  9
$DIMFRAC
 70
     0
  9
$DIMLDRBLK
  1

  9
$DIMLUNIT
 70
     2
  9
$DIMLWD
 70
    -2
  9
$DIMLWE
 70
    -2
  9
$DIMTMOVE
 70
     2
  9
$LUNITS
 70
     2
  9
$LUPREC
 70
     3
  9
$SKETCHINC
 40
0.1
  9
$FILLETRAD
 40
0.5
  9
$AUNITS
 70
     0
  9
$AUPREC
 70
     0
  9
$MENU
  1
.
  9
$ELEVATION
 40
0.0
  9
$PELEVATION
 40
0.0
  9
$THICKNESS
 40
0.0
  9
$LIMCHECK
 70
     0
  9
$CHAMFERA
 40
0.5
  9
$CHAMFERB
 40
0.5
  9
$CHAMFERC
 40
1.0
  9
$CHAMFERD
 40
0.0
  9
$SKPOLY
 70
     0
  9
$TDCREATE
 40
2457539.946226204
  9
$TDUCREATE
 40
2457540.11289287
  9
$TDUPDATE
 40
2457539.946226215
  9
$TDUUPDATE
 40
2457540.112892882
  9
$TDINDWG
 40
0.0000000116
  9
$TDUSRTIMER
 40
0.0000000116
  9
$USRTIMER
 70
     1
  9
$ANGBASE
 50
0.0
  9
$ANGDIR
 70
     0
  9
$PDMODE
 70
     0
  9
$PDSIZE
 40
0.0
  9
$PLINEWID
 40
0.0
  9
$SPLFRAME
 70
     0
  9
$SPLINETYPE
 70
     6
  9
$SPLINESEGS
 70
     8
  9
$HANDSEED
  5
B3
  9
$SURFTAB1
 70
     6
  9
$SURFTAB2
 70
     6
  9
$SURFTYPE
 70
     6
  9
$SURFU
 70
     6
  9
$SURFV
 70
     6
  9
$UCSBASE
  2

  9
$UCSNAME
  2

  9
$UCSORG
 10
0.0
 20
0.0
 30
0.0
  9
$UCSXDIR
 10
1.0
 20
0.0
 30
0.0
  9
$UCSYDIR
 10
0.0
 20
1.0
 30
0.0
  9
$UCSORTHOREF
  2

  9
$UCSORTHOVIEW
 70
     0
  9
$UCSORGTOP
 10
0.0
 20
0.0
 30
0.0
  9
$UCSORGBOTTOM
 10
0.0
 20
0.0
 30
0.0
  9
$UCSORGLEFT
 10
0.0
 20
0.0
 30
0.0
  9
$UCSORGRIGHT
 10
0.0
 20
0.0
 30
0.0
  9
$UCSORGFRONT
 10
0.0
 20
0.0
 30
0.0
  9
$UCSORGBACK
 10
0.0
 20
0.0
 30
0.0
  9
$PUCSBASE
  2

  9
$PUCSNAME
  2

  9
$PUCSORG
 10
0.0
 20
0.0
 30
0.0
  9
$PUCSXDIR
 10
1.0
 20
0.0
 30
0.0
  9
$PUCSYDIR
 10
0.0
 20
1.0
 30
0.0
  9
$PUCSORTHOREF
  2

  9
$PUCSORTHOVIEW
 70
     0
  9
$PUCSORGTOP
 10
0.0
 20
0.0
 30
0.0
  9
$PUCSORGBOTTOM
 10
0.0
 20
0.0
 30
0.0
  9
$PUCSORGLEFT
 10
0.0
 20
0.0
 30
0.0
  9
$PUCSORGRIGHT
 10
0.0
 20
0.0
 30
0.0
  9
$PUCSORGFRONT
 10
0.0
 20
0.0
 30
0.0
  9
$PUCSORGBACK
 10
0.0
 20
0.0
 30
0.0
  9
$USERI1
 70
     0
  9
$USERI2
 70
     0
  9
$USERI3
 70
     0
  9
$USERI4
 70
     0
  9
$USERI5
 70
     0
  9
$USERR1
 40
0.0
  9
$USERR2
 40
0.0
  9
$USERR3
 40
0.0
  9
$USERR4
 40
0.0
  9
$USERR5
 40
0.0
  9
$WORLDVIEW
 70
     1
  9
$SHADEDGE
 70
     3
  9
$SHADEDIF
 70
    70
  9
$TILEMODE
 70
     1
  9
$MAXACTVP
 70
    64
  9
$PINSBASE
 10
0.0
 20
0.0
 30
0.0
  9
$PLIMCHECK
 70
     0
  9
$PEXTMIN
 10
1.000000000000000E+20
 20
1.000000000000000E+20
 30
1.000000000000000E+20
  9
$PEXTMAX
 10
-1.000000000000000E+20
 20
-1.000000000000000E+20
 30
-1.000000000000000E+20
  9
$PLIMMIN
 10
0.0
 20
0.0
  9
$PLIMMAX
 10
12.0
 20
9.0
  9
$UNITMODE
 70
     0
  9
$VISRETAIN
 70
     1
  9
$PLINEGEN
 70
     0
  9
$PSLTSCALE
 70
     1
  9
$TREEDEPTH
 70
  3020
  9
$CMLSTYLE
  2
Standard
  9
$CMLJUST
 70
     0
  9
$CMLSCALE
 40
1.0
  9
$PROXYGRAPHICS
 70
     1
  9
$MEASUREMENT
 70
     0
  9
$CELWEIGHT
370
    -1
  9
$ENDCAPS
280
     0
  9
$JOINSTYLE
280
     0
  9
$LWDISPLAY
290
     0
  9
$INSUNITS
 70
     1
  9
$HYPERLINKBASE
  1

  9
$STYLESHEET
  1

  9
$XEDIT
290
     1
  9
$CEPSNTYPE
380
     0
  9
$PSTYLEMODE
290
     1
  9
$FINGERPRINTGUID
  2
{3B1C27C3-3180-4C8C-BD07-27737CEA5647}
  9
$VERSIONGUID
  2
{FAEB1C32-E019-11D5-929B-00C0DF256EC4}
  9
$EXTNAMES
290
     1
  9
$PSVPSCALE
 40
0.0
  9
$OLESTARTUP
290
     0
  9
$SORTENTS
280
   127
  9
$INDEXCTL
280
     0
  9
$HIDETEXT
280
     1
  9
$XCLIPFRAME
290
     0
  9
$HALOGAP
280
     0
  9
$OBSCOLOR
 70
   257
  9
$OBSLTYPE
280
     0
  9
$INTERSECTIONDISPLAY
280
     0
  9
$INTERSECTIONCOLOR
 70
   257
  9
$DIMASSOC
280
     2
  9
$PROJECTNAME
  1

  0
ENDSEC
  0
SECTION
  2
CLASSES
  0
CLASS
  1
ACDBDICTIONARYWDFLT
  2
AcDbDictionaryWithDefault
  3
ObjectDBX Classes
 90
        0
 91
        4
280
     0
281
     0
  0
CLASS
  1
VISUALSTYLE
  2
AcDbVisualStyle
  3
ObjectDBX Classes
 90
     4095
 91
        4
280
     0
281
     0
  0
ENDSEC
  0
SECTION
  2
TABLES
  0
TABLE
  2
VPORT
  5
8
330
0
100
AcDbSymbolTable
 70
     1
  0
VPORT
  5
29
330
8
100
AcDbSymbolTableRecord
100
AcDbViewportTableRecord
  2
*Active
 70
     0
 10
0.0
 20
0.0
 11
1.0
 21
1.0
 12
0.0
 22
0.0
 13
0.0
 23
0.0
 14
0.5
 24
0.5
 15
0.5
 25
0.5
 16
0.0
 26
0.0
 36
1.0
 17
-0.0000000000168541
 27
-0.0000000000168541
 37
0.0
 40
91.54501377185963
 41
0.9944289735485751
 42
50.0
 43
0.0
 44
0.0
 50
0.0
 51
0.0
 71
     0
 72
   100
 73
     1
 74
     3
 75
     0
 76
     0
 77
     0
 78
     0
281
     0
 65
     1
110
0.0
120
0.0
130
0.0
111
1.0
121
0.0
131
0.0
112
0.0
122
1.0
132
0.0
 79
     0
146
0.0
  0
ENDTAB
  0
TABLE
  2
LTYPE
  5
5
330
0
100
AcDbSymbolTable
 70
     1
  0
LTYPE
  5
14
330
5
100
AcDbSymbolTableRecord
100
AcDbLinetypeTableRecord
  2
ByBlock
 70
     0
  3

 72
    65
 73
     0
 40
0.0
  0
LTYPE
  5
15
330
5
100
AcDbSymbolTableRecord
100
AcDbLinetypeTableRecord
  2
ByLayer
 70
     0
  3

 72
    65
 73
     0
 40
0.0
  0
LTYPE
  5
16
330
5
100
AcDbSymbolTableRecord
100
AcDbLinetypeTableRecord
  2
Continuous
 70
     0
  3
Solid line
 72
    65
 73
     0
 40
0.0
  0
ENDTAB
  0
TABLE
  2
LAYER
  5
2
330
0
100
AcDbSymbolTable
 70
     5
  0
LAYER
  5
10
330
2
100
AcDbSymbolTableRecord
100
AcDbLayerTableRecord
  2
0
 70
     0
 62
     7
  6
Continuous
370
    -3
390
F
  0
LAYER
  5
3B
330
2
100
AcDbSymbolTableRecord
100
AcDbLayerTableRecord
  2
TABLE
 70
     0
 62
     7
  6
Continuous
370
    -3
390
F
  0
LAYER
  5
44
330
2
100
AcDbSymbolTableRecord
100
AcDbLayerTableRecord
  2
BACKS
 70
     0
 62
   253
  6
Continuous
370
    -3
390
F
  0
LAYER
  5
63
330
2
100
AcDbSymbolTableRecord
100
AcDbLayerTableRecord
  2
SEATS
 70
     0
 62
   251
  6
Continuous
370
    -3
390
F
  0
LAYER
  5
74
330
2
100
AcDbSymbolTableRecord
100
AcDbLayerTableRecord
  2
FRAME
 70
     0
 62
    15
  6
Continuous
370
    -3
390
F
  0
ENDTAB
  0
TABLE
  2
STYLE
  5
3
330
0
100
AcDbSymbolTable
 70
     1
  0
STYLE
  5
11
330
3
100
AcDbSymbolTableRecord
100
AcDbTextStyleTableRecord
  2
Standard
 70
     0
 40
0.0
 41
1.0
 50
0.0
 71
     0
 42
0.2
  3
txt
  4

  0
ENDTAB
  0
TABLE
  2
VIEW
  5
6
330
0
100
AcDbSymbolTable
 70
     0
  0
ENDTAB
  0
TABLE
  2
UCS
  5
7
330
0
100
AcDbSymbolTable
 70
     0
  0
ENDTAB
  0
TABLE
  2
APPID
  5
9
330
0
100
AcDbSymbolTable
 70
     1
  0
APPID
  5
12
330
9
100
AcDbSymbolTableRecord
100
AcDbRegAppTableRecord
  2
ACAD
 70
     0
  0
ENDTAB
  0
TABLE
  2
DIMSTYLE
  5
A
330
0
100
AcDbSymbolTable
 70
     1
100
AcDbDimStyleTable
  0
DIMSTYLE
105
27
330
A
100
AcDbSymbolTableRecord
100
AcDbDimStyleTableRecord
  2
Standard
 70
     0
340
11
  0
ENDTAB
  0
TABLE
  2
BLOCK_RECORD
  5
1
330
0
100
AcDbSymbolTable
 70
     1
  0
BLOCK_RECORD
  5
1F
330
1
100
AcDbSymbolTableRecord
100
AcDbBlockTableRecord
  2
*Model_Space
340
22
  0
BLOCK_RECORD
  5
1B
330
1
100
AcDbSymbolTableRecord
100
AcDbBlockTableRecord
  2
*Paper_Space
340
1E
  0
BLOCK_RECORD
  5
23
330
1
100
AcDbSymbolTableRecord
100
AcDbBlockTableRecord
  2
*Paper_Space0
340
26
  0
ENDTAB
  0
ENDSEC
  0
SECTION
  2
BLOCKS
  0
BLOCK
  5
20
330
1F
100
AcDbEntity
  8
0
100
AcDbBlockBegin
  2
*Model_Space
 70
     0
 10
0.0
 20
0.0
 30
0.0
  3
*Model_Space
  1

  0
ENDBLK
  5
21
330
1F
100
AcDbEntity
  8
0
100
AcDbBlockEnd
  0
BLOCK
  5
1C
330
1B
100
AcDbEntity
 67
     1
  8
0
100
AcDbBlockBegin
  2
*Paper_Space
 70
     0
 10
0.0
 20
0.0
 30
0.0
  3
*Paper_Space
  1

  0
ENDBLK
  5
1D
330
1B
100
AcDbEntity
 67
     1
  8
0
100
AcDbBlockEnd
  0
BLOCK
  5
24
330
23
100
AcDbEntity
  8
0
100
AcDbBlockBegin
  2
*Paper_Space0
 70
     0
 10
0.0
 20
0.0
 30
0.0
  3
*Paper_Space0
  1

  0
ENDBLK
  5
25
330
23
100
AcDbEntity
  8
0
100
AcDbBlockEnd
  0
ENDSEC
  0
SECTION
  2
ENTITIES
  0
SPLINE
  5
3C
330
1F
100
AcDbEntity
  8
TABLE
100
AcDbSpline
210
0.0
220
0.0
230
1.0
 70
    24
 71
     2
 72
     6
 73
     3
 74
     0
 42
0.0000000001
 43
0.0000000001
 40
0.0
 40
0.0
 40
0.0
 40
45.0
 40
45.0
 40
45.0
 10
-30.62499324873924
 20
-29.37504725639846
 30
0.0
 10
-30.62499324873924
 20
-6.87504725639846
 30
0.0
 10
-30.62499324873924
 20
15.62495274360154
 30
0.0
  0
SPLINE
  5
3D
330
1F
100
AcDbEntity
  8
TABLE
100
AcDbSpline
210
0.0
220
0.0
230
1.0
 70
    12
 71
     2
 72
     6
 73
     3
 74
     0
 42
0.0000000001
 43
0.0000000001
 40
0.0
 40
0.0
 40
0.0
 40
2.356194490192345
 40
2.356194490192345
 40
2.356194490192345
 10
-29.12499324873924
 20
-30.87504725639846
 30
0.0
 41
1.0
 10
-30.62499324873924
 20
-30.87504725639846
 30
0.0
 41
0.7071067811865455
 10
-30.62499324873924
 20
-29.37504725639846
 30
0.0
 41
1.0
  0
SPLINE
  5
3E
330
1F
100
AcDbEntity
  8
TABLE
100
AcDbSpline
210
0.0
220
0.0
230
1.0
 70
    24
 71
     2
 72
     6
 73
     3
 74
     0
 42
0.0000000001
 43
0.0000000001
 40
0.0
 40
0.0
 40
0.0
 40
45.0
 40
45.0
 40
45.0
 10
15.87500675126076
 20
-30.87504725639847
 30
0.0
 10
-6.624993248739244
 20
-30.87504725639846
 30
0.0
 10
-29.12499324873924
 20
-30.87504725639846
 30
0.0
  0
SPLINE
  5
3F
330
1F
100
AcDbEntity
  8
TABLE
100
AcDbSpline
210
0.0
220
0.0
230
1.0
 70
    12
 71
     2
 72
     6
 73
     3
 74
     0
 42
0.0000000001
 43
0.0000000001
 40
0.0
 40
0.0
 40
0.0
 40
2.356194490192354
 40
2.356194490192354
 40
2.356194490192354
 10
17.37500675126076
 20
-29.37504725639846
 30
0.0
 41
1.0
 10
17.37500675126077
 20
-30.87504725639846
 30
0.0
 41
0.7071067811865455
 10
15.87500675126076
 20
-30.87504725639847
 30
0.0
 41
1.0
  0
SPLINE
  5
40
330
1F
100
AcDbEntity
  8
TABLE
100
AcDbSpline
210
0.0
220
0.0
230
1.0
 70
    24
 71
     2
 72
     6
 73
     3
 74
     0
 42
0.0000000001
 43
0.0000000001
 40
0.0
 40
0.0
 40
0.0
 40
45.0
 40
45.0
 40
45.0
 10
17.37500675126076
 20
15.62495274360154
 30
0.0
 10
17.37500675126076
 20
-6.87504725639846
 30
0.0
 10
17.37500675126076
 20
-29.37504725639846
 30
0.0
  0
SPLINE
  5
41
330
1F
100
AcDbEntity
  8
TABLE
100
AcDbSpline
210
0.0
220
0.0
230
1.0
 70
    12
 71
     2
 72
     6
 73
     3
 74
     0
 42
0.0000000001
 43
0.0000000001
 40
0.0
 40
0.0
 40
0.0
 40
2.356194490192361
 40
2.356194490192361
 40
2.356194490192361
 10
15.87500675126076
 20
17.12495274360154
 30
0.0
 41
1.0
 10
17.37500675126079
 20
17.12495274360156
 30
0.0
 41
0.7071067811865358
 10
17.37500675126077
 20
15.62495274360154
 30
0.0
 41
1.0
  0
SPLINE
  5
42
330
1F
100
AcDbEntity
  8
TABLE
100
AcDbSpline
210
0.0
220
0.0
230
1.0
 70
    24
 71
     2
 72
     6
 73
     3
 74
     0
 42
0.0000000001
 43
0.0000000001
 40
0.0
 40
0.0
 40
0.0
 40
45.0
 40
45.0
 40
45.0
 10
-29.12499324873924
 20
17.12495274360154
 30
0.0
 10
-6.624993248739244
 20
17.12495274360154
 30
0.0
 10
15.87500675126076
 20
17.12495274360154
 30
0.0
  0
SPLINE
  5
43
330
1F
100
AcDbEntity
  8
TABLE
100
AcDbSpline
210
0.0
220
0.0
230
1.0
 70
    12
 71
     2
 72
     6
 73
     3
 74
     0
 42
0.0000000001
 43
0.0000000001
 40
0.0
 40
0.0
 40
0.0
 40
2.356194490192339
 40
2.356194490192339
 40
2.356194490192339
 10
-30.62499324873924
 20
15.62495274360154
 30
0.0
 41
1.0
 10
-30.62499324873924
 20
17.12495274360154
 30
0.0
 41
0.707106781186545
 10
-29.12499324873924
 20
17.12495274360154
 30
0.0
 41
1.0
  0
SPLINE
  5
45
330
1F
100
AcDbEntity
  8
BACKS
100
AcDbSpline
210
0.0
220
0.0
230
1.0
 70
    12
 71
     2
 72
     6
 73
     3
 74
     0
 42
0.0000000001
 43
0.0000000001
 40
0.0
 40
0.0
 40
0.0
 40
1.17811145356363
 40
1.17811145356363
 40
1.17811145356363
 10
17.6250144671676
 20
44.87500675089451
 30
0.0
 41
1.0
 10
18.37502172102735
 20
44.87501400469056
 30
0.0
 41
0.7071091052318048
 10
18.37503390492385
 20
44.12500675089473
 30
0.0
 41
1.0
  0
LINE
  5
46
330
1F
100
AcDbEntity
  8
BACKS
100
AcDbLine
 10
-43.62499339948682
 20
44.87500675089473
 30
0.0
 11
17.6250144671676
 21
44.87500675089451
 31
0.0
  0
SPLINE
  5
47
330
1F
100
AcDbEntity
  8
BACKS
100
AcDbSpline
210
0.0
220
0.0
230
1.0
 70
    28
 71
     3
 72
     8
 73
     4
 74
     0
 42
0.0000000001
 43
0.0000000001
 40
0.0
 40
0.0
 40
0.0
 40
0.0
 40
0.3926863527735771
 40
0.3926863527735771
 40
0.3926863527735771
 40
0.3926863527735771
 10
-43.874996265558
 20
44.87500675089404
 30
0.0
 41
1.0
 10
-43.87550617338616
 20
44.87500675089473
 30
0.0
 41
1.0
 10
-43.76212552163266
 20
44.87500675089473
 30
0.0
 41
1.0
 10
-43.62499339948682
 20
44.87500675089473
 30
0.0
 41
1.0
  0
SPLINE
  5
48
330
1F
100
AcDbEntity
  8
BACKS
100
AcDbSpline
210
0.0
220
0.0
230
1.0
 70
    12
 71
     2
 72
     6
 73
     3
 74
     0
 42
0.0000000001
 43
0.0000000001
 40
0.0
 40
0.0
 40
0.0
 40
1.178105736934315
 40
1.178105736934315
 40
1.178105736934315
 10
-44.62500201598565
 20
44.12500675089472
 30
0.0
 41
0.9999999999555169
 10
-44.62500362163623
 20
44.87501124096424
 30
0.0
 41
0.7071079694679591
 10
-43.874996265558
 20
44.87500675089404
 30
0.0
 41
1.0
  0
SPLINE
  5
49
330
1F
100
AcDbEntity
  8
BACKS
100
AcDbSpline
210
0.0
220
0.0
230
1.0
 70
     8
 71
     2
 72
     6
 73
     3
 74
     0
 42
0.0000000001
 43
0.0000000001
 40
0.0
 40
0.0
 40
0.0
 40
5.25
 40
5.25
 40
5.25
 10
-44.62500690131124
 20
38.87500675089473
 30
0.0
 10
-44.62499339948807
 20
41.50000675089473
 30
0.0
 10
-44.62500201598565
 20
44.12500675089473
 30
0.0
  0
SPLINE
  5
4A
330
1F
100
AcDbEntity
  8
BACKS
100
AcDbSpline
210
0.0
220
0.0
230
1.0
 70
    12
 71
     2
 72
     6
 73
     3
 74
     0
 42
0.0000000001
 43
0.0000000001
 40
0.0
 40
0.0
 40
0.0
 40
1.178111453563537
 40
1.178111453563537
 40
1.178111453563537
 10
-43.87499718243371
 20
38.12500675089495
 30
0.0
 41
1.0
 10
-44.62500821901843
 20
38.12499949709904
 30
0.0
 41
0.7071091052924797
 10
-44.62500690131125
 20
38.87500675089472
 30
0.0
 41
0.9999999998788636
  0
SPLINE
  5
4B
330
1F
100
AcDbEntity
  8
BACKS
100
AcDbSpline
210
0.0
220
0.0
230
1.0
 70
    24
 71
     2
 72
     6
 73
     3
 74
     0
 42
0.0000000001
 43
0.0000000001
 40
0.0
 40
0.0
 40
0.0
 40
0.2500000000019895
 40
0.2500000000019895
 40
0.2500000000019895
 10
-43.62499339948722
 20
38.12500675089473
 30
0.0
 10
-43.74999339948821
 20
38.12500675089473
 30
0.0
 10
-43.87499718243371
 20
38.12500675089495
 30
0.0
  0
LINE
  5
4C
330
1F
100
AcDbEntity
  8
BACKS
100
AcDbLine
 10
17.62501291455315
 20
38.12500675089471
 30
0.0
 11
-43.62499339948722
 21
38.12500675089473
 31
0.0
  0
SPLINE
  5
4D
330
1F
100
AcDbEntity
  8
BACKS
100
AcDbSpline
210
0.0
220
0.0
230
1.0
 70
    12
 71
     2
 72
     6
 73
     3
 74
     0
 42
0.0000000001
 43
0.0000000001
 40
0.0
 40
0.0
 40
0.0
 40
1.170237402004544
 40
1.170237402004544
 40
1.170237402004544
 10
18.37498277751248
 20
38.86713915839738
 30
0.0
 41
1.0
 10
18.36718975607709
 20
38.1250032322194
 30
0.0
 41
0.7108077536466543
 10
17.62501291455315
 20
38.12500675089471
 30
0.0
 41
0.9999998458856987
  0
POLYLINE
  5
4E
330
1F
100
AcDbEntity
  8
BACKS
100
AcDb2dPolyline
 66
     1
 10
0.0
 20
0.0
 30
0.0
  0
VERTEX
  5
4F
330
4E
100
AcDbEntity
  8
BACKS
100
AcDbVertex
100
AcDb2dVertex
 10
18.37503390492385
 20
44.12500675089473
 30
0.0
  0
VERTEX
  5
50
330
4E
100
AcDbEntity
  8
BACKS
100
AcDbVertex
100
AcDb2dVertex
 10
18.37498277751248
 20
38.86713915839738
 30
0.0
  0
SEQEND
  5
51
330
4E
100
AcDbEntity
  8
BACKS
  0
SPLINE
  5
52
330
1F
100
AcDbEntity
  8
BACKS
100
AcDbSpline
210
0.0
220
0.0
230
1.0
 70
    12
 71
     2
 72
     6
 73
     3
 74
     0
 42
0.0000000001
 43
0.0000000001
 40
-1.170241881488595
 40
-1.170241881488595
 40
-1.170241881488595
 40
0.0
 40
0.0
 40
0.0
 10
18.37500198322365
 20
38.86713806013165
 30
0.0
 41
1.0
 10
18.38282029078593
 20
38.12499889632992
 30
0.0
 41
0.7108086242911326
 10
19.12499933538749
 20
38.12500675089495
 30
0.0
 41
1.0
  0
POLYLINE
  5
53
330
1F
100
AcDbEntity
  8
BACKS
100
AcDb2dPolyline
 66
     1
 10
0.0
 20
0.0
 30
0.0
  0
VERTEX
  5
54
330
53
100
AcDbEntity
  8
BACKS
100
AcDbVertex
100
AcDb2dVertex
 10
18.3750160948519
 20
44.12500675089473
 30
0.0
  0
VERTEX
  5
55
330
53
100
AcDbEntity
  8
BACKS
100
AcDbVertex
100
AcDb2dVertex
 10
18.37500198322365
 20
38.86713806013165
 30
0.0
  0
SEQEND
  5
56
330
53
100
AcDbEntity
  8
BACKS
  0
SPLINE
  5
57
330
1F
100
AcDbEntity
  8
BACKS
100
AcDbSpline
210
0.0
220
0.0
230
1.0
 70
    12
 71
     2
 72
     6
 73
     3
 74
     0
 42
0.0000000001
 43
0.0000000001
 40
-1.178105736934381
 40
-1.178105736934381
 40
-1.178105736934381
 40
0.0
 40
0.0
 40
0.0
 10
19.1250011691376
 20
44.87500675089404
 30
0.0
 41
1.0
 10
18.37499667912935
 20
44.87501124096432
 30
0.0
 41
0.7071079694679214
 10
18.3750160948519
 20
44.12500675089472
 30
0.0
 41
0.9999999999555169
  0
LINE
  5
58
330
1F
100
AcDbEntity
  8
BACKS
100
AcDbLine
 10
43.87500690127754
 20
44.87500675089473
 30
0.0
 11
19.1250011691376
 21
44.87500675089404
 31
0.0
  0
SPLINE
  5
59
330
1F
100
AcDbEntity
  8
BACKS
100
AcDbSpline
210
0.0
220
0.0
230
1.0
 70
    12
 71
     2
 72
     6
 73
     3
 74
     0
 42
0.0000000001
 43
0.0000000001
 40
0.0
 40
0.0
 40
0.0
 40
1.17809724509615
 40
1.17809724509615
 40
1.17809724509615
 10
44.62500690127754
 20
44.12500675089473
 30
0.0
 41
1.0
 10
44.62500690127745
 20
44.87500675089466
 30
0.0
 41
0.7071067811866212
 10
43.87500690127754
 20
44.87500675089473
 30
0.0
 41
1.0
  0
SPLINE
  5
5A
330
1F
100
AcDbEntity
  8
BACKS
100
AcDbSpline
210
0.0
220
0.0
230
1.0
 70
    24
 71
     2
 72
     6
 73
     3
 74
     0
 42
0.0000000001
 43
0.0000000001
 40
0.0
 40
0.0
 40
0.0
 40
87.99999999999918
 40
87.99999999999918
 40
87.99999999999918
 10
44.62500690127754
 20
-43.87499324910445
 30
0.0
 10
44.62500690127754
 20
0.125006750895146
 30
0.0
 10
44.62500690127754
 20
44.12500675089473
 30
0.0
  0
SPLINE
  5
5B
330
1F
100
AcDbEntity
  8
BACKS
100
AcDbSpline
210
0.0
220
0.0
230
1.0
 70
    24
 71
     3
 72
     8
 73
     4
 74
     0
 42
0.0000000001
 43
0.0000000001
 40
0.0
 40
0.0
 40
0.0
 40
0.0
 40
0.250000000001954
 40
0.250000000001954
 40
0.250000000001954
 40
0.250000000001954
 10
44.62500690127731
 20
-44.12499703205087
 30
0.0
 10
44.62500690127757
 20
-44.04165991577242
 30
0.0
 10
44.62500690127758
 20
-43.95832658243843
 30
0.0
 10
44.62500690127754
 20
-43.87499324910445
 30
0.0
  0
SPLINE
  5
5C
330
1F
100
AcDbEntity
  8
BACKS
100
AcDbSpline
210
0.0
220
0.0
230
1.0
 70
    12
 71
     2
 72
     6
 73
     3
 74
     0
 42
0.0000000001
 43
0.0000000001
 40
-1.178111453563652
 40
-1.178111453563652
 40
-1.178111453563652
 40
0.0
 40
0.0
 40
0.0
 10
43.87500690127753
 20
-44.87500675092843
 30
0.0
 41
0.9999999998788636
 10
44.62501415507343
 20
-44.87500806863578
 30
0.0
 41
0.7071091052923099
 10
44.62500690127731
 20
-44.12499703205087
 30
0.0
 41
1.0
  0
SPLINE
  5
5D
330
1F
100
AcDbEntity
  8
BACKS
100
AcDbSpline
210
0.0
220
0.0
230
1.0
 70
     8
 71
     2
 72
     6
 73
     3
 74
     0
 42
0.0000000001
 43
0.0000000001
 40
-5.25
 40
-5.25
 40
-5.25
 40
0.0
 40
0.0
 40
0.0
 10
38.62500690127754
 20
-44.87500186560284
 30
0.0
 10
41.25000690127754
 20
-44.87499324910527
 30
0.0
 10
43.87500690127754
 20
-44.87500675092843
 30
0.0
  0
SPLINE
  5
5E
330
1F
100
AcDbEntity
  8
BACKS
100
AcDbSpline
210
0.0
220
0.0
230
1.0
 70
    12
 71
     2
 72
     6
 73
     3
 74
     0
 42
0.0000000001
 43
0.0000000001
 40
-1.178105736934051
 40
-1.178105736934051
 40
-1.178105736934051
 40
0.0
 40
0.0
 40
0.0
 10
37.8750069012782
 20
-44.12499611517535
 30
0.0
 41
1.0
 10
37.87500241120822
 20
-44.87500347125354
 30
0.0
 41
0.7071079694680078
 10
38.62500690127753
 20
-44.87500186560284
 30
0.0
 41
0.9999999999555169
  0
SPLINE
  5
5F
330
1F
100
AcDbEntity
  8
BACKS
100
AcDbSpline
210
0.0
220
0.0
230
1.0
 70
    24
 71
     2
 72
     6
 73
     3
 74
     0
 42
0.0000000001
 43
0.0000000001
 40
0.0
 40
0.0
 40
0.0
 40
0.2500000000011369
 40
0.2500000000011369
 40
0.2500000000011369
 10
37.87500690127754
 20
-43.87499324910413
 30
0.0
 10
37.87500690127754
 20
-43.9999932491047
 30
0.0
 10
37.8750069012782
 20
-44.12499611517535
 30
0.0
  0
SPLINE
  5
60
330
1F
100
AcDbEntity
  8
BACKS
100
AcDbSpline
210
0.0
220
0.0
230
1.0
 70
    24
 71
     2
 72
     6
 73
     3
 74
     0
 42
0.0000000001
 43
0.0000000001
 40
0.0
 40
0.0
 40
0.0
 40
81.74999999999886
 40
81.74999999999886
 40
81.74999999999886
 10
37.87500690127754
 20
37.87500675089473
 30
0.0
 10
37.87500690127754
 20
-2.999993249104705
 30
0.0
 10
37.87500690127754
 20
-43.87499324910413
 30
0.0
  0
SPLINE
  5
61
330
1F
100
AcDbEntity
  8
BACKS
100
AcDbSpline
210
0.0
220
0.0
230
1.0
 70
    12
 71
     3
 72
     8
 73
     4
 74
     0
 42
0.0000000001
 43
0.0000000001
 40
-1.57062634649034
 40
-1.57062634649034
 40
-1.57062634649034
 40
-1.57062634649034
 40
0.0
 40
0.0
 40
0.0
 40
0.0
 10
37.62500690127751
 20
38.12500675089473
 30
0.0
 41
1.0
 10
37.75860262561579
 20
38.12844555137212
 30
0.0
 41
1.0
 10
37.87842161794034
 20
38.00856771975282
 30
0.0
 41
1.0
 10
37.87500690127754
 20
37.87500675089473
 30
0.0
 41
1.0
  0
LINE
  5
62
330
1F
100
AcDbEntity
  8
BACKS
100
AcDbLine
 10
19.12499933538749
 20
38.12500675089495
 30
0.0
 11
37.62500690127751
 21
38.12500675089473
 31
0.0
  0
SPLINE
  5
64
330
1F
100
AcDbEntity
  8
SEATS
100
AcDbSpline
210
0.0
220
0.0
230
1.0
 70
    24
 71
     2
 72
     6
 73
     3
 74
     0
 42
0.0000000001
 43
0.0000000001
 40
-17.0
 40
-17.0
 40
-17.0
 40
0.0
 40
0.0
 40
0.0
 10
36.37500690127754
 20
-44.87499324910528
 30
0.0
 10
27.87500690127754
 20
-44.87499324910527
 30
0.0
 10
19.37500690127754
 20
-44.87499324910527
 30
0.0
  0
ARC
  5
65
330
1F
100
AcDbEntity
  8
SEATS
100
AcDbCircle
 10
36.37500690127754
 20
-43.87499324910527
 30
0.0
 40
1.0
100
AcDbArc
 50
270.0
 51
0.0
  0
SPLINE
  5
66
330
1F
100
AcDbEntity
  8
SEATS
100
AcDbSpline
210
0.0
220
0.0
230
1.0
 70
    24
 71
     2
 72
     6
 73
     3
 74
     0
 42
0.0000000001
 43
0.0000000001
 40
0.0
 40
0.0
 40
0.0
 40
80.0
 40
80.0
 40
80.0
 10
37.37500690127754
 20
36.12500675089473
 30
0.0
 10
37.37500690127754
 20
-3.874993249105273
 30
0.0
 10
37.37500690127754
 20
-43.87499324910527
 30
0.0
  0
SPLINE
  5
67
330
1F
100
AcDbEntity
  8
SEATS
100
AcDbSpline
210
0.0
220
0.0
230
1.0
 70
    12
 71
     2
 72
     6
 73
     3
 74
     0
 42
0.0000000001
 43
0.0000000001
 40
-1.570796326794884
 40
-1.570796326794884
 40
-1.570796326794884
 40
0.0
 40
0.0
 40
0.0
 10
36.37500690127754
 20
37.12500675089473
 30
0.0
 41
1.0
 10
37.37500690127751
 20
37.1250067508947
 30
0.0
 41
0.7071067811865677
 10
37.37500690127754
 20
36.12500675089473
 30
0.0
 41
1.0
  0
SPLINE
  5
68
330
1F
100
AcDbEntity
  8
SEATS
100
AcDbSpline
210
0.0
220
0.0
230
1.0
 70
    24
 71
     2
 72
     6
 73
     3
 74
     0
 42
0.0000000001
 43
0.0000000001
 40
0.0
 40
0.0
 40
0.0
 40
17.0
 40
17.0
 40
17.0
 10
19.37500690127754
 20
37.12500675089473
 30
0.0
 10
27.87500690127754
 20
37.12500675089473
 30
0.0
 10
36.37500690127754
 20
37.12500675089473
 30
0.0
  0
ARC
  5
69
330
1F
100
AcDbEntity
  8
SEATS
100
AcDbCircle
 10
19.37500690127754
 20
36.12500675089473
 30
0.0
 40
1.0
100
AcDbArc
 50
90.0
 51
180.0
  0
SPLINE
  5
6A
330
1F
100
AcDbEntity
  8
SEATS
100
AcDbSpline
210
0.0
220
0.0
230
1.0
 70
    24
 71
     2
 72
     6
 73
     3
 74
     0
 42
0.0000000001
 43
0.0000000001
 40
-80.0
 40
-80.0
 40
-80.0
 40
0.0
 40
0.0
 40
0.0
 10
18.37500690127754
 20
-43.87499324910527
 30
0.0
 10
18.37500690127754
 20
-3.874993249105273
 30
0.0
 10
18.37500690127754
 20
36.12500675089473
 30
0.0
  0
ARC
  5
6B
330
1F
100
AcDbEntity
  8
SEATS
100
AcDbCircle
 10
19.37500690127754
 20
-43.87499324910527
 30
0.0
 40
1.0
100
AcDbArc
 50
180.0
 51
270.0
  0
SPLINE
  5
6C
330
1F
100
AcDbEntity
  8
SEATS
100
AcDbSpline
210
0.0
220
0.0
230
1.0
 70
    24
 71
     2
 72
     6
 73
     3
 74
     0
 42
0.0000000001
 43
0.0000000001
 40
-17.00000030076558
 40
-17.00000030076558
 40
-17.00000030076558
 40
0.0
 40
0.0
 40
0.0
 10
-44.62499324947125
 20
19.12495274360181
 30
0.0
 10
-44.62499324947124
 20
27.62495289398461
 30
0.0
 10
-44.6249932494713
 20
36.1249530443674
 30
0.0
  0
SPLINE
  5
6D
330
1F
100
AcDbEntity
  8
SEATS
100
AcDbSpline
210
0.0
220
0.0
230
1.0
 70
    12
 71
     2
 72
     6
 73
     3
 74
     0
 42
0.0000000001
 43
0.0000000001
 40
0.0
 40
0.0
 40
0.0
 40
1.570796326794867
 40
1.570796326794867
 40
1.570796326794867
 10
-43.62499324947128
 20
18.12495274360181
 30
0.0
 41
1.0
 10
-44.62499324947126
 20
18.12495274360183
 30
0.0
 41
0.7071067811865499
 10
-44.62499324947125
 20
19.12495274360181
 30
0.0
 41
1.0
  0
SPLINE
  5
6E
330
1F
100
AcDbEntity
  8
SEATS
100
AcDbSpline
210
0.0
220
0.0
230
1.0
 70
    24
 71
     2
 72
     6
 73
     3
 74
     0
 42
0.0000000001
 43
0.0000000001
 40
0.0
 40
0.0
 40
0.0
 40
61.00000000073204
 40
61.00000000073204
 40
61.00000000073204
 10
17.37500675126076
 20
18.12495274360181
 30
0.0
 10
-13.12499324910526
 20
18.12495274360181
 30
0.0
 10
-43.62499324947128
 20
18.12495274360181
 30
0.0
  0
SPLINE
  5
6F
330
1F
100
AcDbEntity
  8
SEATS
100
AcDbSpline
210
0.0
220
0.0
230
1.0
 70
    12
 71
     2
 72
     6
 73
     3
 74
     0
 42
0.0000000001
 43
0.0000000001
 40
-1.570796326794867
 40
-1.570796326794867
 40
-1.570796326794867
 40
0.0
 40
0.0
 40
0.0
 10
18.37500675126066
 20
19.12495274360181
 30
0.0
 41
1.0
 10
18.37500675126068
 20
18.12495274360183
 30
0.0
 41
0.7071067811865499
 10
17.37500675126069
 20
18.12495274360181
 30
0.0
 41
1.0
  0
SPLINE
  5
70
330
1F
100
AcDbEntity
  8
SEATS
100
AcDbSpline
210
0.0
220
0.0
230
1.0
 70
    24
 71
     2
 72
     6
 73
     3
 74
     0
 42
0.0000000001
 43
0.0000000001
 40
0.0
 40
0.0
 40
0.0
 40
17.00000030076558
 40
17.00000030076558
 40
17.00000030076558
 10
18.37500675126071
 20
36.1249530443674
 30
0.0
 10
18.37500675126065
 20
27.62495289398461
 30
0.0
 10
18.37500675126066
 20
19.12495274360181
 30
0.0
  0
ARC
  5
71
330
1F
100
AcDbEntity
  8
SEATS
100
AcDbCircle
 10
17.37500675126071
 20
36.1249530443674
 30
0.0
 40
1.0
100
AcDbArc
 50
0.0
 51
90.0
  0
SPLINE
  5
72
330
1F
100
AcDbEntity
  8
SEATS
100
AcDbSpline
210
0.0
220
0.0
230
1.0
 70
    24
 71
     2
 72
     6
 73
     3
 74
     0
 42
0.0000000001
 43
0.0000000001
 40
0.0
 40
0.0
 40
0.0
 40
61.000000000732
 40
61.000000000732
 40
61.000000000732
 10
-43.6249932494713
 20
37.1249530443674
 30
0.0
 10
-13.12499324910529
 20
37.1249530443674
 30
0.0
 10
17.37500675126071
 20
37.1249530443674
 30
0.0
  0
ARC
  5
73
330
1F
100
AcDbEntity
  8
SEATS
100
AcDbCircle
 10
-43.6249932494713
 20
36.1249530443674
 30
0.0
 40
1.0
100
AcDbArc
 50
90.0
 51
180.0
  0
SPLINE
  5
75
330
1F
100
AcDbEntity
  8
FRAME
100
AcDbSpline
210
0.0
220
0.0
230
1.0
 70
    28
 71
     3
 72
     8
 73
     4
 74
     0
 42
0.0000000001
 43
0.0000000001
 40
92.99972241565506
 40
92.99972241565506
 40
92.99972241565506
 40
92.99972241565506
 40
93.78712399045801
 40
93.78712399045801
 40
93.78712399045801
 40
93.78712399045801
 10
37.87500690127754
 20
-35.05408175238004
 30
0.0
 41
1.0
 10
37.87500690127754
 20
-35.31654894398103
 30
0.0
 41
1.0
 10
37.87500690127754
 20
-35.57901613558201
 30
0.0
 41
1.0
 10
37.87500690127754
 20
-35.841483327183
 30
0.0
 41
1.0
  0
POLYLINE
  5
76
330
1F
100
AcDbEntity
  8
FRAME
100
AcDb2dPolyline
 66
     1
 10
0.0
 20
0.0
 30
0.0
  0
VERTEX
  5
77
330
76
100
AcDbEntity
  8
FRAME
100
AcDbVertex
100
AcDb2dVertex
 10
37.37500690127754
 20
-35.05408175238003
 30
0.0
  0
VERTEX
  5
78
330
76
100
AcDbEntity
  8
FRAME
100
AcDbVertex
100
AcDb2dVertex
 10
37.87500690127754
 20
-35.05408175238004
 30
0.0
  0
SEQEND
  5
79
330
76
100
AcDbEntity
  8
FRAME
  0
SPLINE
  5
7A
330
1F
100
AcDbEntity
  8
FRAME
100
AcDbSpline
210
0.0
220
0.0
230
1.0
 70
    28
 71
     2
 72
     6
 73
     3
 74
     0
 42
0.0000000001
 43
0.0000000001
 40
-173.6788790584624
 40
-173.6788790584624
 40
-173.6788790584624
 40
-172.8914774836594
 40
-172.8914774836594
 40
-172.8914774836594
 10
37.37500690127754
 20
-35.84148332718299
 30
0.0
 41
1.0
 10
37.37500690127754
 20
-35.44778253978151
 30
0.0
 41
1.0
 10
37.37500690127754
 20
-35.05408175238003
 30
0.0
 41
1.0
  0
POLYLINE
  5
7B
330
1F
100
AcDbEntity
  8
FRAME
100
AcDb2dPolyline
 66
     1
 10
0.0
 20
0.0
 30
0.0
  0
VERTEX
  5
7C
330
7B
100
AcDbEntity
  8
FRAME
100
AcDbVertex
100
AcDb2dVertex
 10
37.87500690127754
 20
-35.841483327183
 30
0.0
  0
VERTEX
  5
7D
330
7B
100
AcDbEntity
  8
FRAME
100
AcDbVertex
100
AcDb2dVertex
 10
37.37500690127754
 20
-35.84148332718299
 30
0.0
  0
SEQEND
  5
7E
330
7B
100
AcDbEntity
  8
FRAME
  0
SPLINE
  5
7F
330
1F
100
AcDbEntity
  8
FRAME
100
AcDbSpline
210
0.0
220
0.0
230
1.0
 70
    28
 71
     2
 72
     6
 73
     3
 74
     0
 42
0.0000000001
 43
0.0000000001
 40
-102.8127599614962
 40
-102.8127599614962
 40
-102.8127599614962
 40
-102.0253583866932
 40
-102.0253583866932
 40
-102.0253583866932
 10
37.37500690127754
 20
35.0246357697832
 30
0.0
 41
1.0
 10
37.37500690127754
 20
35.41833655718467
 30
0.0
 41
1.0
 10
37.37500690127754
 20
35.81203734458614
 30
0.0
 41
1.0
  0
POLYLINE
  5
80
330
1F
100
AcDbEntity
  8
FRAME
100
AcDb2dPolyline
 66
     1
 10
0.0
 20
0.0
 30
0.0
  0
VERTEX
  5
81
330
80
100
AcDbEntity
  8
FRAME
100
AcDbVertex
100
AcDb2dVertex
 10
37.87500690127754
 20
35.0246357697832
 30
0.0
  0
VERTEX
  5
82
330
80
100
AcDbEntity
  8
FRAME
100
AcDbVertex
100
AcDb2dVertex
 10
37.37500690127754
 20
35.0246357697832
 30
0.0
  0
SEQEND
  5
83
330
80
100
AcDbEntity
  8
FRAME
  0
SPLINE
  5
84
330
1F
100
AcDbEntity
  8
FRAME
100
AcDbSpline
210
0.0
220
0.0
230
1.0
 70
    28
 71
     3
 72
     8
 73
     4
 74
     0
 42
0.0000000001
 43
0.0000000001
 40
22.13360331868887
 40
22.13360331868887
 40
22.13360331868887
 40
22.13360331868887
 40
22.92100489349182
 40
22.92100489349182
 40
22.92100489349182
 40
22.92100489349182
 10
37.87500690127754
 20
35.81203734458614
 30
0.0
 41
1.0
 10
37.87500690127754
 20
35.54957015298515
 30
0.0
 41
1.0
 10
37.87500690127754
 20
35.28710296138418
 30
0.0
 41
1.0
 10
37.87500690127754
 20
35.0246357697832
 30
0.0
 41
1.0
  0
POLYLINE
  5
85
330
1F
100
AcDbEntity
  8
FRAME
100
AcDb2dPolyline
 66
     1
 10
0.0
 20
0.0
 30
0.0
  0
VERTEX
  5
86
330
85
100
AcDbEntity
  8
FRAME
100
AcDbVertex
100
AcDb2dVertex
 10
37.37500690127754
 20
35.81203734458614
 30
0.0
  0
VERTEX
  5
87
330
85
100
AcDbEntity
  8
FRAME
100
AcDbVertex
100
AcDb2dVertex
 10
37.87500690127754
 20
35.81203734458614
 30
0.0
  0
SEQEND
  5
88
330
85
100
AcDbEntity
  8
FRAME
  0
SPLINE
  5
89
330
1F
100
AcDbEntity
  8
FRAME
100
AcDbSpline
210
0.0
220
0.0
230
1.0
 70
    28
 71
     2
 72
     6
 73
     3
 74
     0
 42
0.0000000001
 43
0.0000000001
 40
-99.95656189138258
 40
-99.95656189138258
 40
-99.95656189138258
 40
-99.16916031652711
 40
-99.16916031652711
 40
-99.16916031652711
 10
36.18997613907035
 20
37.12500675089473
 30
0.0
 41
1.0
 10
35.79627535164261
 20
37.12500675089473
 30
0.0
 41
1.0
 10
35.40257456421485
 20
37.12500675089473
 30
0.0
 41
1.0
  0
POLYLINE
  5
8A
330
1F
100
AcDbEntity
  8
FRAME
100
AcDb2dPolyline
 66
     1
 10
0.0
 20
0.0
 30
0.0
  0
VERTEX
  5
8B
330
8A
100
AcDbEntity
  8
FRAME
100
AcDbVertex
100
AcDb2dVertex
 10
36.18997613947516
 20
38.12500675089473
 30
0.0
  0
VERTEX
  5
8C
330
8A
100
AcDbEntity
  8
FRAME
100
AcDbVertex
100
AcDb2dVertex
 10
36.18997613907035
 20
37.12500675089473
 30
0.0
  0
SEQEND
  5
8D
330
8A
100
AcDbEntity
  8
FRAME
  0
SPLINE
  5
8E
330
1F
100
AcDbEntity
  8
FRAME
100
AcDbSpline
210
0.0
220
0.0
230
1.0
 70
    28
 71
     3
 72
     8
 73
     4
 74
     0
 42
0.0000000001
 43
0.0000000001
 40
16.27757522909719
 40
16.27757522909719
 40
16.27757522909719
 40
16.27757522909719
 40
17.0649768040876
 40
17.0649768040876
 40
17.0649768040876
 40
17.0649768040876
 10
35.40257456448474
 20
38.12500675089476
 30
0.0
 41
1.0
 10
35.66504175614822
 20
38.12500675089473
 30
0.0
 41
1.0
 10
35.9275089478117
 20
38.12500675089473
 30
0.0
 41
1.0
 10
36.18997613947516
 20
38.12500675089473
 30
0.0
 41
1.0
  0
POLYLINE
  5
8F
330
1F
100
AcDbEntity
  8
FRAME
100
AcDb2dPolyline
 66
     1
 10
0.0
 20
0.0
 30
0.0
  0
VERTEX
  5
90
330
8F
100
AcDbEntity
  8
FRAME
100
AcDbVertex
100
AcDb2dVertex
 10
35.40257456421485
 20
37.12500675089473
 30
0.0
  0
VERTEX
  5
91
330
8F
100
AcDbEntity
  8
FRAME
100
AcDbVertex
100
AcDb2dVertex
 10
35.40257456448474
 20
38.12500675089476
 30
0.0
  0
SEQEND
  5
92
330
8F
100
AcDbEntity
  8
FRAME
  0
SPLINE
  5
93
330
1F
100
AcDbEntity
  8
FRAME
100
AcDbSpline
210
0.0
220
0.0
230
1.0
 70
    28
 71
     2
 72
     6
 73
     3
 74
     0
 42
0.0000000001
 43
0.0000000001
 40
-88.14553827016306
 40
-88.14553827016306
 40
-88.14553827016306
 40
-87.35813669585052
 40
-87.35813669585052
 40
-87.35813669585052
 10
24.37895251785081
 20
37.12500675089473
 30
0.0
 41
1.0
 10
23.98525173069455
 20
37.12500675089473
 30
0.0
 41
1.0
 10
23.59155094353829
 20
37.12500675089473
 30
0.0
 41
1.0
  0
POLYLINE
  5
94
330
1F
100
AcDbEntity
  8
FRAME
100
AcDb2dPolyline
 66
     1
 10
0.0
 20
0.0
 30
0.0
  0
VERTEX
  5
95
330
94
100
AcDbEntity
  8
FRAME
100
AcDbVertex
100
AcDb2dVertex
 10
24.37895251798576
 20
38.12500675089481
 30
0.0
  0
VERTEX
  5
96
330
94
100
AcDbEntity
  8
FRAME
100
AcDbVertex
100
AcDb2dVertex
 10
24.37895251785081
 20
37.12500675089473
 30
0.0
  0
SEQEND
  5
97
330
94
100
AcDbEntity
  8
FRAME
  0
SPLINE
  5
98
330
1F
100
AcDbEntity
  8
FRAME
100
AcDbSpline
210
0.0
220
0.0
230
1.0
 70
    28
 71
     3
 72
     8
 73
     4
 74
     0
 42
0.0000000001
 43
0.0000000001
 40
4.466551608685676
 40
4.466551608685676
 40
4.466551608685676
 40
4.466551608685676
 40
5.253953182598248
 40
5.253953182598248
 40
5.253953182598248
 40
5.253953182598248
 10
23.59155094407318
 20
38.12500675089481
 30
0.0
 41
1.0
 10
23.85401813537735
 20
38.1250067508949
 30
0.0
 41
1.0
 10
24.11648532668155
 20
38.1250067508949
 30
0.0
 41
1.0
 10
24.37895251798576
 20
38.12500675089481
 30
0.0
 41
1.0
  0
POLYLINE
  5
99
330
1F
100
AcDbEntity
  8
FRAME
100
AcDb2dPolyline
 66
     1
 10
0.0
 20
0.0
 30
0.0
  0
VERTEX
  5
9A
330
99
100
AcDbEntity
  8
FRAME
100
AcDbVertex
100
AcDb2dVertex
 10
23.59155094353829
 20
37.12500675089473
 30
0.0
  0
VERTEX
  5
9B
330
99
100
AcDbEntity
  8
FRAME
100
AcDbVertex
100
AcDb2dVertex
 10
23.59155094407318
 20
38.12500675089481
 30
0.0
  0
SEQEND
  5
9C
330
99
100
AcDbEntity
  8
FRAME
  0
SPLINE
  5
9D
330
1F
100
AcDbEntity
  8
FRAME
100
AcDbSpline
210
0.0
220
0.0
230
1.0
 70
    28
 71
     3
 72
     8
 73
     4
 74
     0
 42
0.0000000001
 43
0.0000000001
 40
-15.52452949218375
 40
-15.52452949218375
 40
-15.52452949218375
 40
-15.52452949218375
 40
-14.73712791738077
 40
-14.73712791738077
 40
-14.73712791738077
 40
-14.73712791738077
 10
8.52858841711991
 20
38.12500675089473
 30
0.0
 41
0.9999998458856987
 10
8.791055608720892
 20
38.12500675089471
 30
0.0
 41
0.9999998458856987
 10
9.053522800321883
 20
38.12500675089471
 30
0.0
 41
0.9999998458856987
 10
9.315989991922873
 20
38.12500675089473
 30
0.0
 41
0.9999998458856987
  0
POLYLINE
  5
9E
330
1F
100
AcDbEntity
  8
FRAME
100
AcDb2dPolyline
 66
     1
 10
0.0
 20
0.0
 30
0.0
  0
VERTEX
  5
9F
330
9E
100
AcDbEntity
  8
FRAME
100
AcDbVertex
100
AcDb2dVertex
 10
8.528588417119906
 20
37.1249530443674
 30
0.0
  0
VERTEX
  5
A0
330
9E
100
AcDbEntity
  8
FRAME
100
AcDbVertex
100
AcDb2dVertex
 10
8.528588417119906
 20
38.12500675089473
 30
0.0
  0
SEQEND
  5
A1
330
9E
100
AcDbEntity
  8
FRAME
  0
SPLINE
  5
A2
330
1F
100
AcDbEntity
  8
FRAME
100
AcDbSpline
210
0.0
220
0.0
230
1.0
 70
    28
 71
     2
 72
     6
 73
     3
 74
     0
 42
0.0000000001
 43
0.0000000001
 40
-134.0825761964815
 40
-134.0825761964815
 40
-134.0825761964815
 40
-133.2951746216786
 40
-133.2951746216786
 40
-133.2951746216786
 10
9.315989991922876
 20
37.1249530443674
 30
0.0
 41
1.0
 10
8.922289204521398
 20
37.1249530443674
 30
0.0
 41
1.0
 10
8.528588417119906
 20
37.1249530443674
 30
0.0
 41
1.0
  0
POLYLINE
  5
A3
330
1F
100
AcDbEntity
  8
FRAME
100
AcDb2dPolyline
 66
     1
 10
0.0
 20
0.0
 30
0.0
  0
VERTEX
  5
A4
330
A3
100
AcDbEntity
  8
FRAME
100
AcDbVertex
100
AcDb2dVertex
 10
9.315989991922876
 20
38.12500675089473
 30
0.0
  0
VERTEX
  5
A5
330
A3
100
AcDbEntity
  8
FRAME
100
AcDbVertex
100
AcDb2dVertex
 10
9.315989991922876
 20
37.1249530443674
 30
0.0
  0
SEQEND
  5
A6
330
A3
100
AcDbEntity
  8
FRAME
  0
POLYLINE
  5
A7
330
1F
100
AcDbEntity
  8
FRAME
100
AcDb2dPolyline
 66
     1
 10
0.0
 20
0.0
 30
0.0
  0
VERTEX
  5
A8
330
A7
100
AcDbEntity
  8
FRAME
100
AcDbVertex
100
AcDb2dVertex
 10
-34.77849819674129
 20
38.12500675089473
 30
0.0
  0
VERTEX
  5
A9
330
A7
100
AcDbEntity
  8
FRAME
100
AcDbVertex
100
AcDb2dVertex
 10
-34.77849819674128
 20
37.1249530443674
 30
0.0
  0
SEQEND
  5
AA
330
A7
100
AcDbEntity
  8
FRAME
  0
SPLINE
  5
AB
330
1F
100
AcDbEntity
  8
FRAME
100
AcDbSpline
210
0.0
220
0.0
230
1.0
 70
    28
 71
     3
 72
     8
 73
     4
 74
     0
 42
0.0000000001
 43
0.0000000001
 40
-59.61901768084804
 40
-59.61901768084804
 40
-59.61901768084804
 40
-59.61901768084804
 40
-58.83161610604508
 40
-58.83161610604508
 40
-58.83161610604508
 40
-58.83161610604508
 10
-35.56589977154425
 20
38.12500675089473
 30
0.0
 41
0.9999998458856987
 10
-35.30343257994325
 20
38.12500675089473
 30
0.0
 41
0.9999998458856987
 10
-35.04096538834226
 20
38.12500675089473
 30
0.0
 41
0.9999998458856987
 10
-34.77849819674128
 20
38.12500675089473
 30
0.0
 41
0.9999998458856987
  0
POLYLINE
  5
AC
330
1F
100
AcDbEntity
  8
FRAME
100
AcDb2dPolyline
 66
     1
 10
0.0
 20
0.0
 30
0.0
  0
VERTEX
  5
AD
330
AC
100
AcDbEntity
  8
FRAME
100
AcDbVertex
100
AcDb2dVertex
 10
-35.56589977154424
 20
37.1249530443674
 30
0.0
  0
VERTEX
  5
AE
330
AC
100
AcDbEntity
  8
FRAME
100
AcDbVertex
100
AcDb2dVertex
 10
-35.56589977154424
 20
38.12500675089473
 30
0.0
  0
SEQEND
  5
AF
330
AC
100
AcDbEntity
  8
FRAME
  0
SPLINE
  5
B0
330
1F
100
AcDbEntity
  8
FRAME
100
AcDbSpline
210
0.0
220
0.0
230
1.0
 70
    28
 71
     2
 72
     6
 73
     3
 74
     0
 42
0.0000000001
 43
0.0000000001
 40
-89.98808800781738
 40
-89.98808800781738
 40
-89.98808800781738
 40
-89.20068643301443
 40
-89.20068643301443
 40
-89.20068643301443
 10
-34.77849819674128
 20
37.1249530443674
 30
0.0
 41
1.0
 10
-35.17219898414277
 20
37.1249530443674
 30
0.0
 41
1.0
 10
-35.56589977154424
 20
37.1249530443674
 30
0.0
 41
1.0
  0
ENDSEC
  0
SECTION
  2
OBJECTS
  0
DICTIONARY
  5
C
330
0
100
AcDbDictionary
281
     1
  3
ACAD_GROUP
350
D
  3
ACAD_LAYOUT
350
1A
  3
ACAD_MLEADERSTYLE
350
B2
  3
ACAD_MLINESTYLE
350
17
  3
ACAD_PLOTSETTINGS
350
19
  3
ACAD_PLOTSTYLENAME
350
E
  3
ACAD_TABLESTYLE
350
B1
  3
ACAD_VISUALSTYLE
350
2A
  0
DICTIONARY
  5
D
102
{ACAD_REACTORS
330
C
102
}
330
C
100
AcDbDictionary
281
     1
  0
DICTIONARY
  5
1A
102
{ACAD_REACTORS
330
C
102
}
330
C
100
AcDbDictionary
281
     1
  3
Layout1
350
1E
  3
Layout2
350
26
  3
Model
350
22
  0
DICTIONARY
  5
B2
102
{ACAD_REACTORS
330
C
102
}
330
C
100
AcDbDictionary
281
     1
  0
DICTIONARY
  5
17
102
{ACAD_REACTORS
330
C
102
}
330
C
100
AcDbDictionary
281
     1
  3
Standard
350
18
  0
DICTIONARY
  5
19
102
{ACAD_REACTORS
330
C
102
}
330
C
100
AcDbDictionary
281
     1
  0
ACDBDICTIONARYWDFLT
  5
E
102
{ACAD_REACTORS
330
C
102
}
330
C
100
AcDbDictionary
281
     1
  3
Normal
350
F
100
AcDbDictionaryWithDefault
340
F
  0
DICTIONARY
  5
B1
102
{ACAD_REACTORS
330
C
102
}
330
C
100
AcDbDictionary
281
     1
  0
DICTIONARY
  5
2A
102
{ACAD_REACTORS
330
C
102
}
330
C
100
AcDbDictionary
281
     1
  3
2dWireframe
350
2F
  3
3D Hidden
350
31
  3
3dWireframe
350
30
  3
Basic
350
32
  3
Brighten
350
36
  3
ColorChange
350
3A
  3
Conceptual
350
34
  3
Dim
350
35
  3
Facepattern
350
39
  3
Flat
350
2B
  3
FlatWithEdges
350
2C
  3
Gouraud
350
2D
  3
GouraudWithEdges
350
2E
  3
Linepattern
350
38
  3
Realistic
350
33
  3
Thicken
350
37
  0
LAYOUT
  5
1E
102
{ACAD_REACTORS
330
1A
102
}
330
1A
100
AcDbPlotSettings
  1

  2
none_device
  4

  6

 40
0.0
 41
0.0
 42
0.0
 43
0.0
 44
0.0
 45
0.0
 46
0.0
 47
0.0
 48
0.0
 49
0.0
140
0.0
141
0.0
142
1.0
143
1.0
 70
   688
 72
     0
 73
     0
 74
     5
  7

 75
    16
 76
     0
 77
     2
 78
   300
147
1.0
148
0.0
149
0.0
100
AcDbLayout
  1
Layout1
 70
     1
 71
     1
 10
0.0
 20
0.0
 11
12.0
 21
9.0
 12
0.0
 22
0.0
 32
0.0
 14
1.000000000000000E+20
 24
1.000000000000000E+20
 34
1.000000000000000E+20
 15
-1.000000000000000E+20
 25
-1.000000000000000E+20
 35
-1.000000000000000E+20
146
0.0
 13
0.0
 23
0.0
 33
0.0
 16
1.0
 26
0.0
 36
0.0
 17
0.0
 27
1.0
 37
0.0
 76
     0
330
1B
  0
LAYOUT
  5
26
102
{ACAD_REACTORS
330
1A
102
}
330
1A
100
AcDbPlotSettings
  1

  2
none_device
  4

  6

 40
0.0
 41
0.0
 42
0.0
 43
0.0
 44
0.0
 45
0.0
 46
0.0
 47
0.0
 48
0.0
 49
0.0
140
0.0
141
0.0
142
1.0
143
1.0
 70
   688
 72
     0
 73
     0
 74
     5
  7

 75
    16
 76
     0
 77
     2
 78
   300
147
1.0
148
0.0
149
0.0
100
AcDbLayout
  1
Layout2
 70
     1
 71
     2
 10
0.0
 20
0.0
 11
0.0
 21
0.0
 12
0.0
 22
0.0
 32
0.0
 14
0.0
 24
0.0
 34
0.0
 15
0.0
 25
0.0
 35
0.0
146
0.0
 13
0.0
 23
0.0
 33
0.0
 16
1.0
 26
0.0
 36
0.0
 17
0.0
 27
1.0
 37
0.0
 76
     0
330
23
  0
LAYOUT
  5
22
102
{ACAD_REACTORS
330
1A
102
}
330
1A
100
AcDbPlotSettings
  1

  2
none_device
  4

  6

 40
0.0
 41
0.0
 42
0.0
 43
0.0
 44
0.0
 45
0.0
 46
0.0
 47
0.0
 48
0.0
 49
0.0
140
0.0
141
0.0
142
1.0
143
1.0
 70
  1712
 72
     0
 73
     0
 74
     0
  7

 75
     0
 76
     0
 77
     2
 78
   300
147
1.0
148
0.0
149
0.0
100
AcDbLayout
  1
Model
 70
     1
 71
     0
 10
0.0
 20
0.0
 11
12.0
 21
9.0
 12
0.0
 22
0.0
 32
0.0
 14
-44.62500690131124
 24
-44.87500675092843
 34
0.0
 15
44.62500690127754
 25
44.87500675089473
 35
0.0
146
0.0
 13
0.0
 23
0.0
 33
0.0
 16
1.0
 26
0.0
 36
0.0
 17
0.0
 27
1.0
 37
0.0
 76
     0
330
1F
331
29
  0
MLINESTYLE
  5
18
102
{ACAD_REACTORS
330
17
102
}
330
17
100
AcDbMlineStyle
  2
Standard
 70
     0
  3

 62
   256
 51
90.0
 52
90.0
 71
     2
 49
0.5
 62
   256
  6
BYLAYER
 49
-0.5
 62
   256
  6
BYLAYER
  0
ACDBPLACEHOLDER
  5
F
102
{ACAD_REACTORS
330
E
102
}
330
E
  0
VISUALSTYLE
  5
2F
102
{ACAD_REACTORS
330
2A
102
}
330
2A
100
AcDbVisualStyle
  2
2dWireframe
 70
     4
 71
     0
 72
     2
 73
     0
 90
        0
 40
-0.6
 41
-30.0
 62
     5
 63
     7
421
 16777215
 74
     1
 91
        4
 64
     7
 65
   257
 75
     1
175
     1
 42
1.0
 92
        0
 66
   257
 43
1.0
 76
     1
 77
     6
 78
     2
 67
     7
 79
     5
170
     0
171
     0
290
     0
174
     0
 93
        1
 44
0.0
173
     0
291
     0
 45
0.0
1001
ACAD
1000
AcDbSavedByObjectVersion
1070
     0
  0
VISUALSTYLE
  5
31
102
{ACAD_REACTORS
330
2A
102
}
330
2A
100
AcDbVisualStyle
  2
3D Hidden
 70
     6
 71
     1
 72
     2
 73
     2
 90
        0
 40
-0.6
 41
-30.0
 62
     5
 63
     7
421
 16777215
 74
     2
 91
        2
 64
     7
 65
   257
 75
     2
175
     1
 42
40.0
 92
        0
 66
   257
 43
1.0
 76
     1
 77
     6
 78
     2
 67
     7
 79
     3
170
     0
171
     0
290
     0
174
     0
 93
        1
 44
0.0
173
     0
291
     0
 45
0.0
1001
ACAD
1000
AcDbSavedByObjectVersion
1070
     0
  0
VISUALSTYLE
  5
30
102
{ACAD_REACTORS
330
2A
102
}
330
2A
100
AcDbVisualStyle
  2
3dWireframe
 70
     5
 71
     0
 72
     2
 73
     0
 90
        0
 40
-0.6
 41
-30.0
 62
     5
 63
     7
421
 16777215
 74
     1
 91
        4
 64
     7
 65
   257
 75
     1
175
     1
 42
1.0
 92
        0
 66
   257
 43
1.0
 76
     1
 77
     6
 78
     2
 67
     7
 79
     5
170
     0
171
     0
290
     0
174
     0
 93
        1
 44
0.0
173
     0
291
     0
 45
0.0
1001
ACAD
1000
AcDbSavedByObjectVersion
1070
     0
  0
VISUALSTYLE
  5
32
102
{ACAD_REACTORS
330
2A
102
}
330
2A
100
AcDbVisualStyle
  2
Basic
 70
     7
 71
     1
 72
     0
 73
     1
 90
        0
 40
-0.6
 41
-30.0
 62
     5
 63
     7
421
 16777215
 74
     0
 91
        4
 64
     7
 65
   257
 75
     1
175
     1
 42
1.0
 92
        8
 66
     7
 43
1.0
 76
     1
 77
     6
 78
     2
 67
     7
 79
     5
170
     0
171
     0
290
     0
174
     0
 93
        1
 44
0.0
173
     0
291
     1
 45
0.0
1001
ACAD
1000
AcDbSavedByObjectVersion
1070
     0
  0
VISUALSTYLE
  5
36
102
{ACAD_REACTORS
330
2A
102
}
330
2A
100
AcDbVisualStyle
  2
Brighten
 70
    12
 71
     2
 72
     2
 73
     0
 90
        0
 40
-0.6
 41
-30.0
 62
     5
 63
     7
421
 16777215
 74
     1
 91
        4
 64
     7
 65
   257
 75
     1
175
     1
 42
1.0
 92
        8
 66
     7
 43
1.0
 76
     1
 77
     6
 78
     2
 67
     7
 79
     5
170
     0
171
     0
290
     0
174
     0
 93
        1
 44
50.0
173
     0
291
     1
 45
0.0
1001
ACAD
1000
AcDbSavedByObjectVersion
1070
     0
  0
VISUALSTYLE
  5
3A
102
{ACAD_REACTORS
330
2A
102
}
330
2A
100
AcDbVisualStyle
  2
ColorChange
 70
    16
 71
     2
 72
     2
 73
     3
 90
        0
 40
-0.6
 41
-30.0
 62
     5
 63
     8
421
  8421504
 74
     1
 91
        4
 64
     7
 65
   257
 75
     1
175
     1
 42
1.0
 92
        8
 66
     8
424
  8421504
 43
1.0
 76
     1
 77
     6
 78
     2
 67
     7
 79
     5
170
     0
171
     0
290
     0
174
     0
 93
        1
 44
0.0
173
     0
291
     1
 45
0.0
1001
ACAD
1000
AcDbSavedByObjectVersion
1070
     0
  0
VISUALSTYLE
  5
34
102
{ACAD_REACTORS
330
2A
102
}
330
2A
100
AcDbVisualStyle
  2
Conceptual
 70
     9
 71
     3
 72
     2
 73
     0
 90
        0
 40
-0.6
 41
-30.0
 62
     5
 63
     7
421
 16777215
 74
     2
 91
        2
 64
     7
 65
   257
 75
     1
175
     1
 42
40.0
 92
        8
 66
     7
 43
1.0
 76
     1
 77
     6
 78
     2
 67
     7
 79
     3
170
     0
171
     0
290
     0
174
     0
 93
        1
 44
0.0
173
     0
291
     0
 45
0.0
1001
ACAD
1000
AcDbSavedByObjectVersion
1070
     0
  0
VISUALSTYLE
  5
35
102
{ACAD_REACTORS
330
2A
102
}
330
2A
100
AcDbVisualStyle
  2
Dim
 70
    11
 71
     2
 72
     2
 73
     0
 90
        0
 40
-0.6
 41
-30.0
 62
     5
 63
     7
421
 16777215
 74
     1
 91
        4
 64
     7
 65
   257
 75
     1
175
     1
 42
1.0
 92
        8
 66
     7
 43
1.0
 76
     1
 77
     6
 78
     2
 67
     7
 79
     5
170
     0
171
     0
290
     0
174
     0
 93
        1
 44
-50.0
173
     0
291
     1
 45
0.0
1001
ACAD
1000
AcDbSavedByObjectVersion
1070
     0
  0
VISUALSTYLE
  5
39
102
{ACAD_REACTORS
330
2A
102
}
330
2A
100
AcDbVisualStyle
  2
Facepattern
 70
    15
 71
     2
 72
     2
 73
     0
 90
        0
 40
-0.6
 41
-30.0
 62
     5
 63
     7
421
 16777215
 74
     1
 91
        4
 64
     7
 65
   257
 75
     1
175
     1
 42
1.0
 92
        8
 66
     7
 43
1.0
 76
     1
 77
     6
 78
     2
 67
     7
 79
     5
170
     0
171
     0
290
     0
174
     0
 93
        1
 44
0.0
173
     0
291
     1
 45
0.0
1001
ACAD
1000
AcDbSavedByObjectVersion
1070
     0
  0
VISUALSTYLE
  5
2B
102
{ACAD_REACTORS
330
2A
102
}
330
2A
100
AcDbVisualStyle
  2
Flat
 70
     0
 71
     2
 72
     1
 73
     1
 90
        2
 40
-0.6
 41
30.0
 62
     5
 63
     7
421
 16777215
 74
     0
 91
        4
 64
     7
 65
   257
 75
     1
175
     1
 42
1.0
 92
        8
 66
     7
 43
1.0
 76
     1
 77
     6
 78
     2
 67
     7
 79
     5
170
     0
171
     0
290
     0
174
     0
 93
       13
 44
0.0
173
     0
291
     1
 45
0.0
1001
ACAD
1000
AcDbSavedByObjectVersion
1070
     0
  0
VISUALSTYLE
  5
2C
102
{ACAD_REACTORS
330
2A
102
}
330
2A
100
AcDbVisualStyle
  2
FlatWithEdges
 70
     1
 71
     2
 72
     1
 73
     1
 90
        2
 40
-0.6
 41
30.0
 62
     5
 63
     7
421
 16777215
 74
     1
 91
        4
 64
     7
 65
   257
 75
     1
175
     1
 42
1.0
 92
        0
 66
   257
 43
1.0
 76
     1
 77
     6
 78
     2
 67
     7
 79
     5
170
     0
171
     0
290
     0
174
     0
 93
       13
 44
0.0
173
     0
291
     1
 45
0.0
1001
ACAD
1000
AcDbSavedByObjectVersion
1070
     0
  0
VISUALSTYLE
  5
2D
102
{ACAD_REACTORS
330
2A
102
}
330
2A
100
AcDbVisualStyle
  2
Gouraud
 70
     2
 71
     2
 72
     2
 73
     1
 90
        2
 40
-0.6
 41
30.0
 62
     5
 63
     7
421
 16777215
 74
     0
 91
        4
 64
     7
 65
   257
 75
     1
175
     1
 42
1.0
 92
        0
 66
     7
 43
1.0
 76
     1
 77
     6
 78
     2
 67
     7
 79
     5
170
     0
171
     0
290
     0
174
     0
 93
       13
 44
0.0
173
     0
291
     1
 45
0.0
1001
ACAD
1000
AcDbSavedByObjectVersion
1070
     0
  0
VISUALSTYLE
  5
2E
102
{ACAD_REACTORS
330
2A
102
}
330
2A
100
AcDbVisualStyle
  2
GouraudWithEdges
 70
     3
 71
     2
 72
     2
 73
     1
 90
        2
 40
-0.6
 41
30.0
 62
     5
 63
     7
421
 16777215
 74
     1
 91
        4
 64
     7
 65
   257
 75
     1
175
     1
 42
1.0
 92
        0
 66
   257
 43
1.0
 76
     1
 77
     6
 78
     2
 67
     7
 79
     5
170
     0
171
     0
290
     0
174
     0
 93
       13
 44
0.0
173
     0
291
     1
 45
0.0
1001
ACAD
1000
AcDbSavedByObjectVersion
1070
     0
  0
VISUALSTYLE
  5
38
102
{ACAD_REACTORS
330
2A
102
}
330
2A
100
AcDbVisualStyle
  2
Linepattern
 70
    14
 71
     2
 72
     2
 73
     0
 90
        0
 40
-0.6
 41
-30.0
 62
     5
 63
     7
421
 16777215
 74
     1
 91
        4
 64
     7
 65
   257
 75
     7
175
     7
 42
1.0
 92
        8
 66
     7
 43
1.0
 76
     1
 77
     6
 78
     2
 67
     7
 79
     5
170
     0
171
     0
290
     0
174
     0
 93
        1
 44
0.0
173
     0
291
     1
 45
0.0
1001
ACAD
1000
AcDbSavedByObjectVersion
1070
     0
  0
VISUALSTYLE
  5
33
102
{ACAD_REACTORS
330
2A
102
}
330
2A
100
AcDbVisualStyle
  2
Realistic
 70
     8
 71
     2
 72
     2
 73
     0
 90
        0
 40
-0.6
 41
-30.0
 62
     5
 63
     7
421
 16777215
 74
     1
 91
        0
 64
     7
 65
   257
 75
     1
175
     1
 42
1.0
 92
        8
 66
     8
424
  7895160
 43
1.0
 76
     1
 77
     6
 78
     2
 67
     7
 79
     5
170
     0
171
     0
290
     0
174
     0
 93
       13
 44
0.0
173
     0
291
     0
 45
0.0
1001
ACAD
1000
AcDbSavedByObjectVersion
1070
     0
  0
VISUALSTYLE
  5
37
102
{ACAD_REACTORS
330
2A
102
}
330
2A
100
AcDbVisualStyle
  2
Thicken
 70
    13
 71
     2
 72
     2
 73
     0
 90
        0
 40
-0.6
 41
-30.0
 62
     5
 63
     7
421
 16777215
 74
     1
 91
        4
 64
     7
 65
   257
 75
     1
175
     1
 42
1.0
 92
       12
 66
     7
 43
1.0
 76
     1
 77
     6
 78
     2
 67
     7
 79
     5
170
     0
171
     0
290
     0
174
     0
 93
        1
 44
0.0
173
     0
291
     1
 45
0.0
1001
ACAD
1000
AcDbSavedByObjectVersion
1070
     0
  0
ENDSEC
  0
EOF
