  0
SECTION
  2
HEADER
  9
$ACADVER
  1
AC1018
  9
$ACADMAINTVER
 70
     0
  9
$DWGCODEPAGE
  3
ANSI_1252
  9
$INSBASE
 10
0.0
 20
0.0
 30
0.0
  9
$EXTMIN
 10
-84.44833465211282
 20
-28.09018170929133
 30
0.0
  9
$EXTMAX
 10
84.44833465211282
 20
28.09018170929132
 30
0.0
  9
$LIMMIN
 10
0.0
 20
0.0
  9
$LIMMAX
 10
12.0
 20
9.0
  9
$ORTHOMODE
 70
     0
  9
$REGENMODE
 70
     1
  9
$FILLMODE
 70
     1
  9
$QTEXTMODE
 70
     0
  9
$MIRRTEXT
 70
     1
  9
$LTSCALE
 40
0.0393700787401575
  9
$ATTMODE
 70
     1
  9
$TEXTSIZE
 40
0.2
  9
$TRACEWID
 40
0.05
  9
$TEXTSTYLE
  7
Standard
  9
$CLAYER
  8
SEATS
  9
$CELTYPE
  6
ByLayer
  9
$CECOLOR
 62
   256
  9
$CELTSCALE
 40
1.0
  9
$DISPSILH
 70
     0
  9
$DIMSCALE
 40
1.0
  9
$DIMASZ
 40
0.18
  9
$DIMEXO
 40
0.0625
  9
$DIMDLI
 40
0.38
  9
$DIMRND
 40
0.0
  9
$DIMDLE
 40
0.0
  9
$DIMEXE
 40
0.18
  9
$DIMTP
 40
0.0
  9
$DIMTM
 40
0.0
  9
$DIMTXT
 40
0.18
  9
$DIMCEN
 40
0.09
  9
$DIMTSZ
 40
0.0
  9
$DIMTOL
 70
     0
  9
$DIMLIM
 70
     0
  9
$DIMTIH
 70
     1
  9
$DIMTOH
 70
     1
  9
$DIMSE1
 70
     0
  9
$DIMSE2
 70
     0
  9
$DIMTAD
 70
     0
  9
$DIMZIN
 70
     0
  9
$DIMBLK
  1

  9
$DIMASO
 70
     1
  9
$DIMSHO
 70
     1
  9
$DIMPOST
  1

  9
$DIMAPOST
  1

  9
$DIMALT
 70
     0
  9
$DIMALTD
 70
     2
  9
$DIMALTF
 40
25.4
  9
$DIMLFAC
 40
1.0
  9
$DIMTOFL
 70
     0
  9
$DIMTVP
 40
0.0
  9
$DIMTIX
 70
     0
  9
$DIMSOXD
 70
     0
  9
$DIMSAH
 70
     0
  9
$DIMBLK1
  1

  9
$DIMBLK2
  1

  9
$DIMSTYLE
  2
Standard
  9
$DIMCLRD
 70
     0
  9
$DIMCLRE
 70
     0
  9
$DIMCLRT
 70
     0
  9
$DIMTFAC
 40
1.0
  9
$DIMGAP
 40
0.09
  9
$DIMJUST
 70
     0
  9
$DIMSD1
 70
     0
  9
$DIMSD2
 70
     0
  9
$DIMTOLJ
 70
     1
  9
$DIMTZIN
 70
     0
  9
$DIMALTZ
 70
     0
  9
$DIMALTTZ
 70
     0
  9
$DIMUPT
 70
     0
  9
$DIMDEC
 70
     4
  9
$DIMTDEC
 70
     4
  9
$DIMALTU
 70
     2
  9
$DIMALTTD
 70
     2
  9
$DIMTXSTY
  7
Standard
  9
$DIMAUNIT
 70
     0
  9
$DIMADEC
 70
     0
  9
$DIMALTRND
 40
0.0
  9
$DIMAZIN
 70
     0
  9
$DIMDSEP
 70
    46
  9
$DIMATFIT
 70
     3
  9
$DIMFRAC
 70
     0
  9
$DIMLDRBLK
  1

  9
$DIMLUNIT
 70
     2
  9
$DIMLWD
 70
    -2
  9
$DIMLWE
 70
    -2
  9
$DIMTMOVE
 70
     2
  9
$LUNITS
 70
     2
  9
$LUPREC
 70
     3
  9
$SKETCHINC
 40
0.1
  9
$FILLETRAD
 40
0.5
  9
$AUNITS
 70
     0
  9
$AUPREC
 70
     0
  9
$MENU
  1
.
  9
$ELEVATION
 40
0.0
  9
$PELEVATION
 40
0.0
  9
$THICKNESS
 40
0.0
  9
$LIMCHECK
 70
     0
  9
$CHAMFERA
 40
0.5
  9
$CHAMFERB
 40
0.5
  9
$CHAMFERC
 40
1.0
  9
$CHAMFERD
 40
0.0
  9
$SKPOLY
 70
     0
  9
$TDCREATE
 40
2457539.947342674
  9
$TDUCREATE
 40
2457540.11400934
  9
$TDUPDATE
 40
2457539.947342685
  9
$TDUUPDATE
 40
2457540.114009352
  9
$TDINDWG
 40
0.0000000116
  9
$TDUSRTIMER
 40
0.0000000116
  9
$USRTIMER
 70
     1
  9
$ANGBASE
 50
0.0
  9
$ANGDIR
 70
     0
  9
$PDMODE
 70
     0
  9
$PDSIZE
 40
0.0
  9
$PLINEWID
 40
0.0
  9
$SPLFRAME
 70
     0
  9
$SPLINETYPE
 70
     6
  9
$SPLINESEGS
 70
     8
  9
$HANDSEED
  5
110
  9
$SURFTAB1
 70
     6
  9
$SURFTAB2
 70
     6
  9
$SURFTYPE
 70
     6
  9
$SURFU
 70
     6
  9
$SURFV
 70
     6
  9
$UCSBASE
  2

  9
$UCSNAME
  2

  9
$UCSORG
 10
0.0
 20
0.0
 30
0.0
  9
$UCSXDIR
 10
1.0
 20
0.0
 30
0.0
  9
$UCSYDIR
 10
0.0
 20
1.0
 30
0.0
  9
$UCSORTHOREF
  2

  9
$UCSORTHOVIEW
 70
     0
  9
$UCSORGTOP
 10
0.0
 20
0.0
 30
0.0
  9
$UCSORGBOTTOM
 10
0.0
 20
0.0
 30
0.0
  9
$UCSORGLEFT
 10
0.0
 20
0.0
 30
0.0
  9
$UCSORGRIGHT
 10
0.0
 20
0.0
 30
0.0
  9
$UCSORGFRONT
 10
0.0
 20
0.0
 30
0.0
  9
$UCSORGBACK
 10
0.0
 20
0.0
 30
0.0
  9
$PUCSBASE
  2

  9
$PUCSNAME
  2

  9
$PUCSORG
 10
0.0
 20
0.0
 30
0.0
  9
$PUCSXDIR
 10
1.0
 20
0.0
 30
0.0
  9
$PUCSYDIR
 10
0.0
 20
1.0
 30
0.0
  9
$PUCSORTHOREF
  2

  9
$PUCSORTHOVIEW
 70
     0
  9
$PUCSORGTOP
 10
0.0
 20
0.0
 30
0.0
  9
$PUCSORGBOTTOM
 10
0.0
 20
0.0
 30
0.0
  9
$PUCSORGLEFT
 10
0.0
 20
0.0
 30
0.0
  9
$PUCSORGRIGHT
 10
0.0
 20
0.0
 30
0.0
  9
$PUCSORGFRONT
 10
0.0
 20
0.0
 30
0.0
  9
$PUCSORGBACK
 10
0.0
 20
0.0
 30
0.0
  9
$USERI1
 70
     0
  9
$USERI2
 70
     0
  9
$USERI3
 70
     0
  9
$USERI4
 70
     0
  9
$USERI5
 70
     0
  9
$USERR1
 40
0.0
  9
$USERR2
 40
0.0
  9
$USERR3
 40
0.0
  9
$USERR4
 40
0.0
  9
$USERR5
 40
0.0
  9
$WORLDVIEW
 70
     1
  9
$SHADEDGE
 70
     3
  9
$SHADEDIF
 70
    70
  9
$TILEMODE
 70
     1
  9
$MAXACTVP
 70
    64
  9
$PINSBASE
 10
0.0
 20
0.0
 30
0.0
  9
$PLIMCHECK
 70
     0
  9
$PEXTMIN
 10
1.000000000000000E+20
 20
1.000000000000000E+20
 30
1.000000000000000E+20
  9
$PEXTMAX
 10
-1.000000000000000E+20
 20
-1.000000000000000E+20
 30
-1.000000000000000E+20
  9
$PLIMMIN
 10
0.0
 20
0.0
  9
$PLIMMAX
 10
12.0
 20
9.0
  9
$UNITMODE
 70
     0
  9
$VISRETAIN
 70
     1
  9
$PLINEGEN
 70
     0
  9
$PSLTSCALE
 70
     1
  9
$TREEDEPTH
 70
  3020
  9
$CMLSTYLE
  2
Standard
  9
$CMLJUST
 70
     0
  9
$CMLSCALE
 40
1.0
  9
$PROXYGRAPHICS
 70
     1
  9
$MEASUREMENT
 70
     0
  9
$CELWEIGHT
370
    -1
  9
$ENDCAPS
280
     0
  9
$JOINSTYLE
280
     0
  9
$LWDISPLAY
290
     0
  9
$INSUNITS
 70
     1
  9
$HYPERLINKBASE
  1

  9
$STYLESHEET
  1

  9
$XEDIT
290
     1
  9
$CEPSNTYPE
380
     0
  9
$PSTYLEMODE
290
     1
  9
$FINGERPRINTGUID
  2
{1EBCE871-E6A3-492B-810D-903D28E04B54}
  9
$VERSIONGUID
  2
{FAEB1C32-E019-11D5-929B-00C0DF256EC4}
  9
$EXTNAMES
290
     1
  9
$PSVPSCALE
 40
0.0
  9
$OLESTARTUP
290
     0
  9
$SORTENTS
280
   127
  9
$INDEXCTL
280
     0
  9
$HIDETEXT
280
     1
  9
$XCLIPFRAME
290
     0
  9
$HALOGAP
280
     0
  9
$OBSCOLOR
 70
   257
  9
$OBSLTYPE
280
     0
  9
$INTERSECTIONDISPLAY
280
     0
  9
$INTERSECTIONCOLOR
 70
   257
  9
$DIMASSOC
280
     2
  9
$PROJECTNAME
  1

  0
ENDSEC
  0
SECTION
  2
CLASSES
  0
CLASS
  1
ACDBDICTIONARYWDFLT
  2
AcDbDictionaryWithDefault
  3
ObjectDBX Classes
 90
        0
 91
        4
280
     0
281
     0
  0
CLASS
  1
VISUALSTYLE
  2
AcDbVisualStyle
  3
ObjectDBX Classes
 90
     4095
 91
        4
280
     0
281
     0
  0
ENDSEC
  0
SECTION
  2
TABLES
  0
TABLE
  2
VPORT
  5
8
330
0
100
AcDbSymbolTable
 70
     1
  0
VPORT
  5
29
330
8
100
AcDbSymbolTableRecord
100
AcDbViewportTableRecord
  2
*Active
 70
     0
 10
0.0
 20
0.0
 11
1.0
 21
1.0
 12
0.0
 22
0.0
 13
0.0
 23
0.0
 14
0.5
 24
0.5
 15
0.5
 25
0.5
 16
0.0
 26
0.0
 36
1.0
 17
0.0
 27
-0.0000000000000071
 37
0.0
 40
57.30397068695431
 41
3.006329240803025
 42
50.0
 43
0.0
 44
0.0
 50
0.0
 51
0.0
 71
     0
 72
   100
 73
     1
 74
     3
 75
     0
 76
     0
 77
     0
 78
     0
281
     0
 65
     1
110
0.0
120
0.0
130
0.0
111
1.0
121
0.0
131
0.0
112
0.0
122
1.0
132
0.0
 79
     0
146
0.0
  0
ENDTAB
  0
TABLE
  2
LTYPE
  5
5
330
0
100
AcDbSymbolTable
 70
     1
  0
LTYPE
  5
14
330
5
100
AcDbSymbolTableRecord
100
AcDbLinetypeTableRecord
  2
ByBlock
 70
     0
  3

 72
    65
 73
     0
 40
0.0
  0
LTYPE
  5
15
330
5
100
AcDbSymbolTableRecord
100
AcDbLinetypeTableRecord
  2
ByLayer
 70
     0
  3

 72
    65
 73
     0
 40
0.0
  0
LTYPE
  5
16
330
5
100
AcDbSymbolTableRecord
100
AcDbLinetypeTableRecord
  2
Continuous
 70
     0
  3
Solid line
 72
    65
 73
     0
 40
0.0
  0
ENDTAB
  0
TABLE
  2
LAYER
  5
2
330
0
100
AcDbSymbolTable
 70
     6
  0
LAYER
  5
10
330
2
100
AcDbSymbolTableRecord
100
AcDbLayerTableRecord
  2
0
 70
     0
 62
     7
  6
Continuous
370
    -3
390
F
  0
LAYER
  5
3B
330
2
100
AcDbSymbolTableRecord
100
AcDbLayerTableRecord
  2
TABLE
 70
     0
 62
     7
  6
Continuous
370
    -3
390
F
  0
LAYER
  5
44
330
2
100
AcDbSymbolTableRecord
100
AcDbLayerTableRecord
  2
BACKS
 70
     0
 62
   253
  6
Continuous
370
    -3
390
F
  0
LAYER
  5
59
330
2
100
AcDbSymbolTableRecord
100
AcDbLayerTableRecord
  2
SEATS
 70
     0
 62
   251
  6
Continuous
370
    -3
390
F
  0
LAYER
  5
7E
330
2
100
AcDbSymbolTableRecord
100
AcDbLayerTableRecord
  2
STOOL
 70
     0
 62
    33
  6
Continuous
370
    -3
390
F
  0
LAYER
  5
95
330
2
100
AcDbSymbolTableRecord
100
AcDbLayerTableRecord
  2
FRAME
 70
     0
 62
    15
  6
Continuous
370
    -3
390
F
  0
ENDTAB
  0
TABLE
  2
STYLE
  5
3
330
0
100
AcDbSymbolTable
 70
     1
  0
STYLE
  5
11
330
3
100
AcDbSymbolTableRecord
100
AcDbTextStyleTableRecord
  2
Standard
 70
     0
 40
0.0
 41
1.0
 50
0.0
 71
     0
 42
0.2
  3
txt
  4

  0
ENDTAB
  0
TABLE
  2
VIEW
  5
6
330
0
100
AcDbSymbolTable
 70
     0
  0
ENDTAB
  0
TABLE
  2
UCS
  5
7
330
0
100
AcDbSymbolTable
 70
     0
  0
ENDTAB
  0
TABLE
  2
APPID
  5
9
330
0
100
AcDbSymbolTable
 70
     1
  0
APPID
  5
12
330
9
100
AcDbSymbolTableRecord
100
AcDbRegAppTableRecord
  2
ACAD
 70
     0
  0
ENDTAB
  0
TABLE
  2
DIMSTYLE
  5
A
330
0
100
AcDbSymbolTable
 70
     1
100
AcDbDimStyleTable
  0
DIMSTYLE
105
27
330
A
100
AcDbSymbolTableRecord
100
AcDbDimStyleTableRecord
  2
Standard
 70
     0
340
11
  0
ENDTAB
  0
TABLE
  2
BLOCK_RECORD
  5
1
330
0
100
AcDbSymbolTable
 70
     1
  0
BLOCK_RECORD
  5
1F
330
1
100
AcDbSymbolTableRecord
100
AcDbBlockTableRecord
  2
*Model_Space
340
22
  0
BLOCK_RECORD
  5
1B
330
1
100
AcDbSymbolTableRecord
100
AcDbBlockTableRecord
  2
*Paper_Space
340
1E
  0
BLOCK_RECORD
  5
23
330
1
100
AcDbSymbolTableRecord
100
AcDbBlockTableRecord
  2
*Paper_Space0
340
26
  0
ENDTAB
  0
ENDSEC
  0
SECTION
  2
BLOCKS
  0
BLOCK
  5
20
330
1F
100
AcDbEntity
  8
0
100
AcDbBlockBegin
  2
*Model_Space
 70
     0
 10
0.0
 20
0.0
 30
0.0
  3
*Model_Space
  1

  0
ENDBLK
  5
21
330
1F
100
AcDbEntity
  8
0
100
AcDbBlockEnd
  0
BLOCK
  5
1C
330
1B
100
AcDbEntity
 67
     1
  8
0
100
AcDbBlockBegin
  2
*Paper_Space
 70
     0
 10
0.0
 20
0.0
 30
0.0
  3
*Paper_Space
  1

  0
ENDBLK
  5
1D
330
1B
100
AcDbEntity
 67
     1
  8
0
100
AcDbBlockEnd
  0
BLOCK
  5
24
330
23
100
AcDbEntity
  8
0
100
AcDbBlockBegin
  2
*Paper_Space0
 70
     0
 10
0.0
 20
0.0
 30
0.0
  3
*Paper_Space0
  1

  0
ENDBLK
  5
25
330
23
100
AcDbEntity
  8
0
100
AcDbBlockEnd
  0
ENDSEC
  0
SECTION
  2
ENTITIES
  0
SPLINE
  5
3C
330
1F
100
AcDbEntity
  8
TABLE
100
AcDbSpline
210
0.0
220
0.0
230
1.0
 70
    12
 71
     2
 72
     6
 73
     3
 74
     0
 42
0.0000000001
 43
0.0000000001
 40
0.0
 40
0.0
 40
0.0
 40
0.7853981633974483
 40
0.7853981633974483
 40
0.7853981633974483
 10
22.54283614747412
 20
9.103757800460343
 30
0.0
 41
1.0
 10
22.04283614747411
 20
9.103757800460341
 30
0.0
 41
0.7071067811865476
 10
22.04283614747412
 20
8.603757800460343
 30
0.0
 41
1.0
  0
SPLINE
  5
3D
330
1F
100
AcDbEntity
  8
TABLE
100
AcDbSpline
210
0.0
220
0.0
230
1.0
 70
    24
 71
     2
 72
     6
 73
     3
 74
     0
 42
0.0000000001
 43
0.0000000001
 40
0.0
 40
0.0
 40
0.0
 40
60.8110236291533
 40
60.8110236291533
 40
60.8110236291533
 10
83.35385977662743
 20
9.103757800460343
 30
0.0
 10
52.94834796205082
 20
9.103757800460343
 30
0.0
 10
22.54283614747412
 20
9.103757800460343
 30
0.0
  0
SPLINE
  5
3E
330
1F
100
AcDbEntity
  8
TABLE
100
AcDbSpline
210
0.0
220
0.0
230
1.0
 70
    12
 71
     2
 72
     6
 73
     3
 74
     0
 42
0.0000000001
 43
0.0000000001
 40
0.0
 40
0.0
 40
0.0
 40
0.7853981633974412
 40
0.7853981633974412
 40
0.7853981633974412
 10
83.85385977662743
 20
8.603757800460343
 30
0.0
 41
1.0
 10
83.85385977662743
 20
9.103757800460329
 30
0.0
 41
0.7071067811865526
 10
83.35385977662743
 20
9.103757800460329
 30
0.0
 41
1.0
  0
SPLINE
  5
3F
330
1F
100
AcDbEntity
  8
TABLE
100
AcDbSpline
210
0.0
220
0.0
230
1.0
 70
    24
 71
     2
 72
     6
 73
     3
 74
     0
 42
0.0000000001
 43
0.0000000001
 40
0.0
 40
0.0
 40
0.0
 40
8.842526007215113
 40
8.842526007215113
 40
8.842526007215113
 10
83.85385977662743
 20
-0.2387682067547807
 30
0.0
 10
83.85385977662743
 20
4.182494796852779
 30
0.0
 10
83.85385977662743
 20
8.603757800460343
 30
0.0
  0
SPLINE
  5
40
330
1F
100
AcDbEntity
  8
TABLE
100
AcDbSpline
210
0.0
220
0.0
230
1.0
 70
    12
 71
     2
 72
     6
 73
     3
 74
     0
 42
0.0000000001
 43
0.0000000001
 40
0.0
 40
0.0
 40
0.0
 40
0.7853981633974229
 40
0.7853981633974229
 40
0.7853981633974229
 10
83.35385977662743
 20
-0.7387682067547701
 30
0.0
 41
1.0
 10
83.85385977662742
 20
-0.7387682067547365
 30
0.0
 41
0.7071067811865852
 10
83.85385977662743
 20
-0.2387682067547807
 30
0.0
 41
1.0
  0
SPLINE
  5
41
330
1F
100
AcDbEntity
  8
TABLE
100
AcDbSpline
210
0.0
220
0.0
230
1.0
 70
    24
 71
     2
 72
     6
 73
     3
 74
     0
 42
0.0000000001
 43
0.0000000001
 40
0.0
 40
0.0
 40
0.0
 40
60.8110236291533
 40
60.8110236291533
 40
60.8110236291533
 10
22.54283614747412
 20
-0.7387682067547701
 30
0.0
 10
52.94834796205082
 20
-0.7387682067547701
 30
0.0
 10
83.35385977662743
 20
-0.7387682067547701
 30
0.0
  0
SPLINE
  5
42
330
1F
100
AcDbEntity
  8
TABLE
100
AcDbSpline
210
0.0
220
0.0
230
1.0
 70
    12
 71
     2
 72
     6
 73
     3
 74
     0
 42
0.0000000001
 43
0.0000000001
 40
0.0
 40
0.0
 40
0.0
 40
0.7853981633974508
 40
0.7853981633974508
 40
0.7853981633974508
 10
22.04283614747412
 20
-0.2387682067547701
 30
0.0
 41
1.0
 10
22.04283614747412
 20
-0.7387682067547885
 30
0.0
 41
0.7071067811865299
 10
22.54283614747412
 20
-0.7387682067547701
 30
0.0
 41
1.0
  0
SPLINE
  5
43
330
1F
100
AcDbEntity
  8
TABLE
100
AcDbSpline
210
0.0
220
0.0
230
1.0
 70
    24
 71
     2
 72
     6
 73
     3
 74
     0
 42
0.0000000001
 43
0.0000000001
 40
-8.842526007215106
 40
-8.842526007215106
 40
-8.842526007215106
 40
0.0
 40
0.0
 40
0.0
 10
22.04283614747412
 20
8.603757800460343
 30
0.0
 10
22.04283614747412
 20
4.182494796852779
 30
0.0
 10
22.04283614747412
 20
-0.2387682067547701
 30
0.0
  0
SPLINE
  5
45
330
1F
100
AcDbEntity
  8
BACKS
100
AcDbSpline
210
0.0
220
0.0
230
1.0
 70
    12
 71
     2
 72
     6
 73
     3
 74
     0
 42
0.0000000001
 43
0.0000000001
 40
0.0
 40
0.0
 40
0.0
 40
1.178111453563654
 40
1.178111453563654
 40
1.178111453563654
 10
-83.69832493323526
 20
-8.090127701998199
 30
0.0
 41
1.0
 10
-84.44833596982015
 20
-8.09013495579427
 30
0.0
 41
0.7071091052923353
 10
-84.44833465211282
 20
-7.340127701998409
 30
0.0
 41
0.9999999998788636
  0
SPLINE
  5
46
330
1F
100
AcDbEntity
  8
BACKS
100
AcDbSpline
210
0.0
220
0.0
230
1.0
 70
    24
 71
     2
 72
     6
 73
     3
 74
     0
 42
0.0000000001
 43
0.0000000001
 40
0.0
 40
0.0
 40
0.0
 40
0.2500000000011084
 40
0.2500000000011084
 40
0.2500000000011084
 10
-83.44832115028966
 20
-8.09012770199842
 30
0.0
 10
-83.57332115029021
 20
-8.09012770199842
 30
0.0
 10
-83.69832493323526
 20
-8.090127701998199
 30
0.0
  0
SPLINE
  5
47
330
1F
100
AcDbEntity
  8
BACKS
100
AcDbSpline
210
0.0
220
0.0
230
1.0
 70
    24
 71
     2
 72
     6
 73
     3
 74
     0
 42
0.0000000001
 43
0.0000000001
 40
0.0
 40
0.0
 40
0.0
 40
87.75005400729172
 40
87.75005400729172
 40
87.75005400729172
 10
4.301732857002065
 20
-8.09012770199842
 30
0.0
 10
-39.57329414664379
 20
-8.09012770199842
 30
0.0
 10
-83.44832115028966
 20
-8.09012770199842
 30
0.0
  0
SPLINE
  5
48
330
1F
100
AcDbEntity
  8
BACKS
100
AcDbSpline
210
0.0
220
0.0
230
1.0
 70
    28
 71
     3
 72
     8
 73
     4
 74
     0
 42
0.0000000001
 43
0.0000000001
 40
0.0
 40
0.0
 40
0.0
 40
0.0
 40
0.3926863527735675
 40
0.3926863527735675
 40
0.3926863527735675
 40
0.3926863527735675
 10
4.551735723073293
 20
-8.09012770199774
 30
0.0
 41
1.0
 10
4.552245630203572
 20
-8.09012770199842
 30
0.0
 41
1.0
 10
4.438864929582635
 20
-8.09012770199842
 30
0.0
 41
1.0
 10
4.301732857002065
 20
-8.09012770199842
 30
0.0
 41
1.0
  0
SPLINE
  5
49
330
1F
100
AcDbEntity
  8
BACKS
100
AcDbSpline
210
0.0
220
0.0
230
1.0
 70
    12
 71
     2
 72
     6
 73
     3
 74
     0
 42
0.0000000001
 43
0.0000000001
 40
0.0
 40
0.0
 40
0.0
 40
1.178105736934026
 40
1.178105736934026
 40
1.178105736934026
 10
5.301741473500798
 20
-7.34012770199841
 30
0.0
 41
0.9999999999555149
 10
5.301743079151464
 20
-8.090132192067689
 30
0.0
 41
0.707107969468053
 10
4.551735723073293
 20
-8.09012770199774
 30
0.0
 41
1.0
  0
SPLINE
  5
4A
330
1F
100
AcDbEntity
  8
BACKS
100
AcDbSpline
210
0.0
220
0.0
230
1.0
 70
     8
 71
     2
 72
     6
 73
     3
 74
     0
 42
0.0000000001
 43
0.0000000001
 40
0.0
 40
0.0
 40
0.0
 40
5.25
 40
5.25
 40
5.25
 10
5.301746358826378
 20
-2.09012770199843
 30
0.0
 10
5.301732857003216
 20
-4.715127701998419
 30
0.0
 10
5.301741473500797
 20
-7.340127701998409
 30
0.0
  0
SPLINE
  5
4B
330
1F
100
AcDbEntity
  8
BACKS
100
AcDbSpline
210
0.0
220
0.0
230
1.0
 70
    12
 71
     2
 72
     6
 73
     3
 74
     0
 42
0.0000000001
 43
0.0000000001
 40
0.0
 40
0.0
 40
0.0
 40
1.178111453563732
 40
1.178111453563732
 40
1.178111453563732
 10
4.5517366399488
 20
-1.34012770199864
 30
0.0
 41
1.0
 10
5.301747676533678
 20
-1.340120448202487
 30
0.0
 41
0.7071091052923204
 10
5.301746358826379
 20
-2.090127701998429
 30
0.0
 41
0.9999999998788616
  0
SPLINE
  5
4C
330
1F
100
AcDbEntity
  8
BACKS
100
AcDbSpline
210
0.0
220
0.0
230
1.0
 70
    24
 71
     2
 72
     6
 73
     3
 74
     0
 42
0.0000000001
 43
0.0000000001
 40
0.0
 40
0.0
 40
0.0
 40
0.2500000000011369
 40
0.2500000000011369
 40
0.2500000000011369
 10
4.301732857003259
 20
-1.340127701998419
 30
0.0
 10
4.426732857003827
 20
-1.340127701998419
 30
0.0
 10
4.5517366399488
 20
-1.34012770199864
 30
0.0
  0
SPLINE
  5
4D
330
1F
100
AcDbEntity
  8
BACKS
100
AcDbSpline
210
0.0
220
0.0
230
1.0
 70
    24
 71
     2
 72
     6
 73
     3
 74
     0
 42
0.0000000001
 43
0.0000000001
 40
0.0
 40
0.0
 40
0.0
 40
87.75005400729167
 40
87.75005400729167
 40
87.75005400729167
 10
-83.44832115028841
 20
-1.340127701998419
 30
0.0
 10
-39.57329414664257
 20
-1.340127701998419
 30
0.0
 10
4.301732857003259
 20
-1.340127701998419
 30
0.0
  0
SPLINE
  5
4E
330
1F
100
AcDbEntity
  8
BACKS
100
AcDbSpline
210
0.0
220
0.0
230
1.0
 70
    28
 71
     3
 72
     8
 73
     4
 74
     0
 42
0.0000000001
 43
0.0000000001
 40
0.0
 40
0.0
 40
0.0
 40
0.0
 40
0.3926863527735781
 40
0.3926863527735781
 40
0.3926863527735781
 40
0.3926863527735781
 10
-83.69832401635941
 20
-1.340127701999098
 30
0.0
 41
1.0
 10
-83.69883392354033
 20
-1.340127701998419
 30
0.0
 41
1.0
 10
-83.58545322289967
 20
-1.340127701998419
 30
0.0
 41
1.0
 10
-83.44832115028841
 20
-1.340127701998419
 30
0.0
 41
1.0
  0
SPLINE
  5
4F
330
1F
100
AcDbEntity
  8
BACKS
100
AcDbSpline
210
0.0
220
0.0
230
1.0
 70
    12
 71
     2
 72
     6
 73
     3
 74
     0
 42
0.0000000001
 43
0.0000000001
 40
0.0
 40
0.0
 40
0.0
 40
1.178105736934677
 40
1.178105736934677
 40
1.178105736934677
 10
-84.44832976678723
 20
-2.090127701998429
 30
0.0
 41
0.9999999999555149
 10
-84.44833137243785
 20
-1.340123211928509
 30
0.0
 41
0.7071079694677612
 10
-83.69832401635941
 20
-1.340127701999098
 30
0.0
 41
1.0
  0
SPLINE
  5
50
330
1F
100
AcDbEntity
  8
BACKS
100
AcDbSpline
210
0.0
220
0.0
230
1.0
 70
     8
 71
     2
 72
     6
 73
     3
 74
     0
 42
0.0000000001
 43
0.0000000001
 40
0.0
 40
0.0
 40
0.0
 40
5.249999999999993
 40
5.249999999999993
 40
5.249999999999993
 10
-84.44833465211282
 20
-7.340127701998409
 30
0.0
 10
-84.44832115028966
 20
-4.715127701998419
 30
0.0
 10
-84.44832976678723
 20
-2.09012770199843
 30
0.0
  0
SPLINE
  5
51
330
1F
100
AcDbEntity
  8
TABLE
100
AcDbSpline
210
0.0
220
0.0
230
1.0
 70
    12
 71
     2
 72
     6
 73
     3
 74
     0
 42
0.0000000001
 43
0.0000000001
 40
-0.87458325554374
 40
-0.87458325554374
 40
-0.87458325554374
 40
0.0
 40
0.0
 40
0.0
 10
5.505446011178734
 20
-2.47664751556324
 30
0.0
 41
1.0
 10
5.505446011180081
 20
-1.919870522503068
 30
0.0
 41
0.7071067811875335
 10
6.06222300424028
 20
-1.919870522502858
 30
0.0
 41
1.0
  0
SPLINE
  5
52
330
1F
100
AcDbEntity
  8
TABLE
100
AcDbSpline
210
0.0
220
0.0
230
1.0
 70
    24
 71
     2
 72
     6
 73
     3
 74
     0
 42
0.0000000001
 43
0.0000000001
 40
0.0
 40
0.0
 40
0.0
 40
24.47699719498267
 40
24.47699719498267
 40
24.47699719498267
 10
5.505446011179416
 20
-26.95364471054592
 30
0.0
 10
5.505446011179075
 20
-14.71514611305458
 30
0.0
 10
5.505446011178734
 20
-2.47664751556324
 30
0.0
  0
SPLINE
  5
53
330
1F
100
AcDbEntity
  8
TABLE
100
AcDbSpline
210
0.0
220
0.0
230
1.0
 70
    12
 71
     2
 72
     6
 73
     3
 74
     0
 42
0.0000000001
 43
0.0000000001
 40
-0.8745831131616391
 40
-0.8745831131616391
 40
-0.8745831131616391
 40
0.0
 40
0.0
 40
0.0
 10
6.062223004237737
 20
-27.51042170360556
 30
0.0
 41
1.0
 10
5.505446342907757
 20
-27.51042137187591
 30
0.0
 41
0.7071072024824808
 10
5.505446011179416
 20
-26.95364471054592
 30
0.0
 41
1.0
  0
SPLINE
  5
54
330
1F
100
AcDbEntity
  8
TABLE
100
AcDbSpline
210
0.0
220
0.0
230
1.0
 70
    24
 71
     2
 72
     6
 73
     3
 74
     0
 42
0.0000000001
 43
0.0000000001
 40
0.0
 40
0.0
 40
0.0
 40
14.63644601387982
 40
14.63644601387982
 40
14.63644601387982
 10
20.69866901811751
 20
-27.5104217036052
 30
0.0
 10
13.38044601117765
 20
-27.51042170360537
 30
0.0
 10
6.062223004237737
 20
-27.51042170360554
 30
0.0
  0
SPLINE
  5
55
330
1F
100
AcDbEntity
  8
TABLE
100
AcDbSpline
210
0.0
220
0.0
230
1.0
 70
    12
 71
     2
 72
     6
 73
     3
 74
     0
 42
0.0000000001
 43
0.0000000001
 40
0.0
 40
0.0
 40
0.0
 40
0.8745832555422419
 40
0.8745832555422419
 40
0.8745832555422419
 10
21.25544601117662
 20
-26.95364471054538
 30
0.0
 41
1.0
 10
21.25544601117831
 20
-27.51042170360616
 30
0.0
 41
0.7071067811848453
 10
20.69866901811751
 20
-27.5104217036052
 30
0.0
 41
1.0
  0
SPLINE
  5
56
330
1F
100
AcDbEntity
  8
TABLE
100
AcDbSpline
210
0.0
220
0.0
230
1.0
 70
    24
 71
     2
 72
     6
 73
     3
 74
     0
 42
0.0000000001
 43
0.0000000001
 40
-24.47699719498202
 40
-24.47699719498202
 40
-24.47699719498202
 40
0.0
 40
0.0
 40
0.0
 10
21.25544601117912
 20
-2.476647515563361
 30
0.0
 10
21.25544601117792
 20
-14.71514611305437
 30
0.0
 10
21.25544601117662
 20
-26.95364471054538
 30
0.0
  0
SPLINE
  5
57
330
1F
100
AcDbEntity
  8
TABLE
100
AcDbSpline
210
0.0
220
0.0
230
1.0
 70
    12
 71
     2
 72
     6
 73
     3
 74
     0
 42
0.0000000001
 43
0.0000000001
 40
0.0
 40
0.0
 40
0.0
 40
0.8745832555472293
 40
0.8745832555472293
 40
0.8745832555472293
 10
20.69866901811262
 20
-1.91987052250278
 30
0.0
 41
1.0
 10
21.25544601117402
 20
-1.919870522501897
 30
0.0
 41
0.7071067811892051
 10
21.25544601117912
 20
-2.476647515563361
 30
0.0
 41
1.0
  0
SPLINE
  5
58
330
1F
100
AcDbEntity
  8
TABLE
100
AcDbSpline
210
0.0
220
0.0
230
1.0
 70
    24
 71
     2
 72
     6
 73
     3
 74
     0
 42
0.0000000001
 43
0.0000000001
 40
0.0
 40
0.0
 40
0.0
 40
14.63644601387233
 40
14.63644601387233
 40
14.63644601387233
 10
6.06222300424028
 20
-1.919870522502858
 30
0.0
 10
13.38044601117645
 20
-1.919870522502819
 30
0.0
 10
20.69866901811262
 20
-1.91987052250278
 30
0.0
  0
SPLINE
  5
5A
330
1F
100
AcDbEntity
  8
SEATS
100
AcDbSpline
210
0.0
220
0.0
230
1.0
 70
    24
 71
     2
 72
     6
 73
     3
 74
     0
 42
0.0000000001
 43
0.0000000001
 40
-17.00000000000001
 40
-17.00000000000001
 40
-17.00000000000001
 40
0.0
 40
0.0
 40
0.0
 10
-84.44832115028966
 20
-10.09018170929132
 30
0.0
 10
-84.44832115028966
 20
-18.59018170929133
 30
0.0
 10
-84.44832115028966
 20
-27.09018170929133
 30
0.0
  0
ARC
  5
5B
330
1F
100
AcDbEntity
  8
SEATS
100
AcDbCircle
 10
-83.44832115028966
 20
-10.09018170929132
 30
0.0
 40
1.0
100
AcDbArc
 50
90.0
 51
180.0
  0
SPLINE
  5
5C
330
1F
100
AcDbEntity
  8
SEATS
100
AcDbSpline
210
0.0
220
0.0
230
1.0
 70
    24
 71
     2
 72
     6
 73
     3
 74
     0
 42
0.0000000001
 43
0.0000000001
 40
-87.75
 40
-87.75
 40
-87.75
 40
0.0
 40
0.0
 40
0.0
 10
4.301678849710342
 20
-9.090181709291318
 30
0.0
 10
-39.57332115028966
 20
-9.090181709291318
 30
0.0
 10
-83.44832115028966
 20
-9.090181709291318
 30
0.0
  0
ARC
  5
5D
330
1F
100
AcDbEntity
  8
SEATS
100
AcDbCircle
 10
4.301678849710342
 20
-10.09018170929132
 30
0.0
 40
1.0
100
AcDbArc
 50
0.0
 51
90.0
  0
SPLINE
  5
5E
330
1F
100
AcDbEntity
  8
SEATS
100
AcDbSpline
210
0.0
220
0.0
230
1.0
 70
    24
 71
     2
 72
     6
 73
     3
 74
     0
 42
0.0000000001
 43
0.0000000001
 40
0.0
 40
0.0
 40
0.0
 40
16.99999999999999
 40
16.99999999999999
 40
16.99999999999999
 10
5.301678849710342
 20
-27.09018170929132
 30
0.0
 10
5.301678849710342
 20
-18.59018170929132
 30
0.0
 10
5.301678849710342
 20
-10.09018170929132
 30
0.0
  0
SPLINE
  5
5F
330
1F
100
AcDbEntity
  8
SEATS
100
AcDbSpline
210
0.0
220
0.0
230
1.0
 70
    12
 71
     2
 72
     6
 73
     3
 74
     0
 42
0.0000000001
 43
0.0000000001
 40
-1.570796326794901
 40
-1.570796326794901
 40
-1.570796326794901
 40
0.0
 40
0.0
 40
0.0
 10
4.301678849710342
 20
-28.09018170929131
 30
0.0
 41
1.0
 10
5.301678849710354
 20
-28.09018170929133
 30
0.0
 41
0.7071067811865381
 10
5.301678849710342
 20
-27.09018170929132
 30
0.0
 41
1.0
  0
SPLINE
  5
60
330
1F
100
AcDbEntity
  8
SEATS
100
AcDbSpline
210
0.0
220
0.0
230
1.0
 70
    24
 71
     2
 72
     6
 73
     3
 74
     0
 42
0.0000000001
 43
0.0000000001
 40
-87.75
 40
-87.75
 40
-87.75
 40
0.0
 40
0.0
 40
0.0
 10
-83.44832115028966
 20
-28.09018170929133
 30
0.0
 10
-39.57332115028966
 20
-28.09018170929133
 30
0.0
 10
4.301678849710342
 20
-28.09018170929133
 30
0.0
  0
ARC
  5
61
330
1F
100
AcDbEntity
  8
SEATS
100
AcDbCircle
 10
-83.44832115028966
 20
-27.09018170929133
 30
0.0
 40
1.0
100
AcDbArc
 50
180.0
 51
270.0
  0
SPLINE
  5
62
330
1F
100
AcDbEntity
  8
SEATS
100
AcDbSpline
210
0.0
220
0.0
230
1.0
 70
    24
 71
     2
 72
     6
 73
     3
 74
     0
 42
0.0000000001
 43
0.0000000001
 40
0.0
 40
0.0
 40
0.0
 40
87.75
 40
87.75
 40
87.75
 10
-83.44832115028966
 20
18.14807845953161
 30
0.0
 10
-39.57332115028966
 20
18.14807845953161
 30
0.0
 10
4.301678849710342
 20
18.14807845953161
 30
0.0
  0
ARC
  5
63
330
1F
100
AcDbEntity
  8
SEATS
100
AcDbCircle
 10
-83.44832115028966
 20
17.14807845953161
 30
0.0
 40
1.0
100
AcDbArc
 50
90.0
 51
180.0
  0
SPLINE
  5
64
330
1F
100
AcDbEntity
  8
SEATS
100
AcDbSpline
210
0.0
220
0.0
230
1.0
 70
    24
 71
     2
 72
     6
 73
     3
 74
     0
 42
0.0000000001
 43
0.0000000001
 40
0.0
 40
0.0
 40
0.0
 40
17.0
 40
17.0
 40
17.0
 10
-84.44832115028966
 20
0.1480784595316109
 30
0.0
 10
-84.44832115028966
 20
8.648078459531611
 30
0.0
 10
-84.44832115028966
 20
17.14807845953161
 30
0.0
  0
ARC
  5
65
330
1F
100
AcDbEntity
  8
SEATS
100
AcDbCircle
 10
-83.44832115028966
 20
0.1480784595316109
 30
0.0
 40
1.0
100
AcDbArc
 50
180.0
 51
270.0
  0
SPLINE
  5
66
330
1F
100
AcDbEntity
  8
SEATS
100
AcDbSpline
210
0.0
220
0.0
230
1.0
 70
    24
 71
     2
 72
     6
 73
     3
 74
     0
 42
0.0000000001
 43
0.0000000001
 40
0.0
 40
0.0
 40
0.0
 40
87.75
 40
87.75
 40
87.75
 10
4.301678849710342
 20
-0.8519215404683891
 30
0.0
 10
-39.57332115028966
 20
-0.8519215404683891
 30
0.0
 10
-83.44832115028966
 20
-0.8519215404683891
 30
0.0
  0
SPLINE
  5
67
330
1F
100
AcDbEntity
  8
SEATS
100
AcDbSpline
210
0.0
220
0.0
230
1.0
 70
    12
 71
     2
 72
     6
 73
     3
 74
     0
 42
0.0000000001
 43
0.0000000001
 40
0.0
 40
0.0
 40
0.0
 40
1.570796326794923
 40
1.570796326794923
 40
1.570796326794923
 10
5.301678849710342
 20
0.1480784595316216
 30
0.0
 41
1.0
 10
5.301678849710366
 20
-0.8519215404684285
 30
0.0
 41
0.7071067811865224
 10
4.301678849710342
 20
-0.8519215404683997
 30
0.0
 41
1.0
  0
SPLINE
  5
68
330
1F
100
AcDbEntity
  8
SEATS
100
AcDbSpline
210
0.0
220
0.0
230
1.0
 70
    24
 71
     2
 72
     6
 73
     3
 74
     0
 42
0.0000000001
 43
0.0000000001
 40
-16.99999999999999
 40
-16.99999999999999
 40
-16.99999999999999
 40
0.0
 40
0.0
 40
0.0
 10
5.301678849710342
 20
17.14807845953161
 30
0.0
 10
5.301678849710342
 20
8.648078459531618
 30
0.0
 10
5.301678849710342
 20
0.1480784595316216
 30
0.0
  0
ARC
  5
69
330
1F
100
AcDbEntity
  8
SEATS
100
AcDbCircle
 10
4.301678849710342
 20
17.14807845953161
 30
0.0
 40
1.0
100
AcDbArc
 50
0.0
 51
90.0
  0
SPLINE
  5
6A
330
1F
100
AcDbEntity
  8
SEATS
100
AcDbSpline
210
0.0
220
0.0
230
1.0
 70
    24
 71
     2
 72
     6
 73
     3
 74
     0
 42
0.0000000001
 43
0.0000000001
 40
-17.00000030076558
 40
-17.00000030076558
 40
-17.00000030076558
 40
0.0
 40
0.0
 40
0.0
 10
21.44832099954081
 20
-27.09018170929133
 30
0.0
 10
21.44832099954081
 20
-18.59018155890854
 30
0.0
 10
21.44832099954081
 20
-10.09018140852575
 30
0.0
  0
ARC
  5
6B
330
1F
100
AcDbEntity
  8
SEATS
100
AcDbCircle
 10
22.44832099954081
 20
-27.09018170929133
 30
0.0
 40
1.0
100
AcDbArc
 50
180.0
 51
269.9999999999998
  0
SPLINE
  5
6C
330
1F
100
AcDbEntity
  8
SEATS
100
AcDbSpline
210
0.0
220
0.0
230
1.0
 70
    24
 71
     2
 72
     6
 73
     3
 74
     0
 42
0.0000000001
 43
0.0000000001
 40
-61.00000000073206
 40
-61.00000000073206
 40
-61.00000000073206
 40
0.0
 40
0.0
 40
0.0
 10
83.44832100027283
 20
-28.09018170929133
 30
0.0
 10
52.94832099990681
 20
-28.09018170929133
 30
0.0
 10
22.44832099954081
 20
-28.09018170929133
 30
0.0
  0
ARC
  5
6D
330
1F
100
AcDbEntity
  8
SEATS
100
AcDbCircle
 10
83.44832100027283
 20
-27.09018170929133
 30
0.0
 40
1.0
100
AcDbArc
 50
270.0
 51
0.0
  0
SPLINE
  5
6E
330
1F
100
AcDbEntity
  8
SEATS
100
AcDbSpline
210
0.0
220
0.0
230
1.0
 70
    24
 71
     2
 72
     6
 73
     3
 74
     0
 42
0.0000000001
 43
0.0000000001
 40
-17.00000030076558
 40
-17.00000030076558
 40
-17.00000030076558
 40
0.0
 40
0.0
 40
0.0
 10
84.44832100027283
 20
-10.09018140852575
 30
0.0
 10
84.44832100027283
 20
-18.59018155890854
 30
0.0
 10
84.44832100027283
 20
-27.09018170929133
 30
0.0
  0
ARC
  5
6F
330
1F
100
AcDbEntity
  8
SEATS
100
AcDbCircle
 10
83.44832100027283
 20
-10.09018140852575
 30
0.0
 40
1.0
100
AcDbArc
 50
0.0
 51
90.0
  0
SPLINE
  5
70
330
1F
100
AcDbEntity
  8
SEATS
100
AcDbSpline
210
0.0
220
0.0
230
1.0
 70
    24
 71
     2
 72
     6
 73
     3
 74
     0
 42
0.0000000001
 43
0.0000000001
 40
-61.00000000073203
 40
-61.00000000073203
 40
-61.00000000073203
 40
0.0
 40
0.0
 40
0.0
 10
22.44832099954081
 20
-9.090181408525748
 30
0.0
 10
52.94832099990681
 20
-9.090181408525748
 30
0.0
 10
83.44832100027283
 20
-9.090181408525748
 30
0.0
  0
ARC
  5
71
330
1F
100
AcDbEntity
  8
SEATS
100
AcDbCircle
 10
22.44832099954081
 20
-10.09018140852575
 30
0.0
 40
1.0
100
AcDbArc
 50
90.0
 51
180.0
  0
SPLINE
  5
72
330
1F
100
AcDbEntity
  8
BACKS
100
AcDbSpline
210
0.0
220
0.0
230
1.0
 70
    24
 71
     2
 72
     6
 73
     3
 74
     0
 42
0.0000000001
 43
0.0000000001
 40
0.0
 40
0.0
 40
0.0
 40
61.00000030076359
 40
61.00000030076359
 40
61.00000030076359
 10
83.44832115028841
 20
-8.09012770199671
 30
0.0
 10
52.94832099990661
 20
-8.09012770199671
 30
0.0
 10
22.44832084952482
 20
-8.09012770199671
 30
0.0
  0
SPLINE
  5
73
330
1F
100
AcDbEntity
  8
BACKS
100
AcDbSpline
210
0.0
220
0.0
230
1.0
 70
    28
 71
     3
 72
     8
 73
     4
 74
     0
 42
0.0000000001
 43
0.0000000001
 40
0.0
 40
0.0
 40
0.0
 40
0.0
 40
0.3926863527735757
 40
0.3926863527735757
 40
0.3926863527735757
 40
0.3926863527735757
 10
83.69832401635931
 20
-8.090127701996028
 30
0.0
 41
1.0
 10
83.69883392422842
 20
-8.09012770199671
 30
0.0
 41
1.0
 10
83.58545327245291
 20
-8.09012770199671
 30
0.0
 41
1.0
 10
83.44832115028841
 20
-8.09012770199671
 30
0.0
 41
1.0
  0
SPLINE
  5
74
330
1F
100
AcDbEntity
  8
BACKS
100
AcDbSpline
210
0.0
220
0.0
230
1.0
 70
    12
 71
     2
 72
     6
 73
     3
 74
     0
 42
0.0000000001
 43
0.0000000001
 40
0.0
 40
0.0
 40
0.0
 40
1.178105736934773
 40
1.178105736934773
 40
1.178105736934773
 10
84.44832976678721
 20
-7.34012770199671
 30
0.0
 41
0.9999999999555169
 10
84.44833137243779
 20
-8.09013219206675
 30
0.0
 41
0.7071079694676685
 10
83.69832401635931
 20
-8.090127701996028
 30
0.0
 41
1.0
  0
SPLINE
  5
75
330
1F
100
AcDbEntity
  8
BACKS
100
AcDbSpline
210
0.0
220
0.0
230
1.0
 70
     8
 71
     2
 72
     6
 73
     3
 74
     0
 42
0.0000000001
 43
0.0000000001
 40
0.0
 40
0.0
 40
0.0
 40
5.25
 40
5.25
 40
5.25
 10
84.44833465211282
 20
-2.09012770199671
 30
0.0
 10
84.44832115028963
 20
-4.71512770199671
 30
0.0
 10
84.44832976678721
 20
-7.34012770199671
 30
0.0
  0
SPLINE
  5
76
330
1F
100
AcDbEntity
  8
BACKS
100
AcDbSpline
210
0.0
220
0.0
230
1.0
 70
    12
 71
     2
 72
     6
 73
     3
 74
     0
 42
0.0000000001
 43
0.0000000001
 40
0.0
 40
0.0
 40
0.0
 40
1.178111453563461
 40
1.178111453563461
 40
1.178111453563461
 10
83.69832493323533
 20
-1.340127701996938
 30
0.0
 41
1.0
 10
84.4483359698201
 20
-1.340120448201069
 30
0.0
 41
0.7071091052924735
 10
84.44833465211282
 20
-2.090127701996712
 30
0.0
 41
0.9999999998788636
  0
SPLINE
  5
77
330
1F
100
AcDbEntity
  8
BACKS
100
AcDbSpline
210
0.0
220
0.0
230
1.0
 70
    24
 71
     2
 72
     6
 73
     3
 74
     0
 42
0.0000000001
 43
0.0000000001
 40
0.0
 40
0.0
 40
0.0
 40
0.2500000000019611
 40
0.2500000000019611
 40
0.2500000000019611
 10
83.4483211502888
 20
-1.34012770199671
 30
0.0
 10
83.57332115028983
 20
-1.34012770199671
 30
0.0
 10
83.69832493323533
 20
-1.340127701996938
 30
0.0
  0
SPLINE
  5
78
330
1F
100
AcDbEntity
  8
BACKS
100
AcDbSpline
210
0.0
220
0.0
230
1.0
 70
    24
 71
     2
 72
     6
 73
     3
 74
     0
 42
0.0000000001
 43
0.0000000001
 40
0.0
 40
0.0
 40
0.0
 40
61.00000030076357
 40
61.00000030076357
 40
61.00000030076357
 10
22.44832084952522
 20
-1.34012770199671
 30
0.0
 10
52.94832099990701
 20
-1.34012770199671
 30
0.0
 10
83.4483211502888
 20
-1.34012770199671
 30
0.0
  0
SPLINE
  5
79
330
1F
100
AcDbEntity
  8
BACKS
100
AcDbSpline
210
0.0
220
0.0
230
1.0
 70
    28
 71
     3
 72
     8
 73
     4
 74
     0
 42
0.0000000001
 43
0.0000000001
 40
0.0
 40
0.0
 40
0.0
 40
0.0
 40
0.3926863527735771
 40
0.3926863527735771
 40
0.3926863527735771
 40
0.3926863527735771
 10
22.19831798345412
 20
-1.340127701997389
 30
0.0
 41
1.0
 10
22.19780807562331
 20
-1.34012770199671
 30
0.0
 41
1.0
 10
22.31118872738402
 20
-1.34012770199671
 30
0.0
 41
1.0
 10
22.44832084952522
 20
-1.34012770199671
 30
0.0
 41
1.0
  0
SPLINE
  5
7A
330
1F
100
AcDbEntity
  8
BACKS
100
AcDbSpline
210
0.0
220
0.0
230
1.0
 70
    12
 71
     2
 72
     6
 73
     3
 74
     0
 42
0.0000000001
 43
0.0000000001
 40
0.0
 40
0.0
 40
0.0
 40
1.178105736934321
 40
1.178105736934321
 40
1.178105736934321
 10
21.44831223302651
 20
-2.090127701996709
 30
0.0
 41
0.9999999999555169
 10
21.44831062737583
 20
-1.340123211927151
 30
0.0
 41
0.707107969467913
 10
22.19831798345412
 20
-1.340127701997389
 30
0.0
 41
1.0
  0
SPLINE
  5
7B
330
1F
100
AcDbEntity
  8
BACKS
100
AcDbSpline
210
0.0
220
0.0
230
1.0
 70
     8
 71
     2
 72
     6
 73
     3
 74
     0
 42
0.0000000001
 43
0.0000000001
 40
0.0
 40
0.0
 40
0.0
 40
5.250000000000007
 40
5.250000000000007
 40
5.250000000000007
 10
21.44830734770082
 20
-7.34012770199671
 30
0.0
 10
21.44832084952402
 20
-4.71512770199671
 30
0.0
 10
21.44831223302651
 20
-2.09012770199671
 30
0.0
  0
SPLINE
  5
7C
330
1F
100
AcDbEntity
  8
BACKS
100
AcDbSpline
210
0.0
220
0.0
230
1.0
 70
    12
 71
     2
 72
     6
 73
     3
 74
     0
 42
0.0000000001
 43
0.0000000001
 40
0.0
 40
0.0
 40
0.0
 40
1.178111453563472
 40
1.178111453563472
 40
1.178111453563472
 10
22.19831706657831
 20
-8.09012770199649
 30
0.0
 41
1.0
 10
21.44830602999351
 20
-8.090134955792388
 30
0.0
 41
0.7071091052924366
 10
21.44830734770082
 20
-7.34012770199671
 30
0.0
 41
0.9999999998788636
  0
SPLINE
  5
7D
330
1F
100
AcDbEntity
  8
BACKS
100
AcDbSpline
210
0.0
220
0.0
230
1.0
 70
    24
 71
     2
 72
     6
 73
     3
 74
     0
 42
0.0000000001
 43
0.0000000001
 40
0.0
 40
0.0
 40
0.0
 40
0.2500000000019895
 40
0.2500000000019895
 40
0.2500000000019895
 10
22.44832084952482
 20
-8.09012770199671
 30
0.0
 10
22.32332084952382
 20
-8.09012770199671
 30
0.0
 10
22.19831706657831
 20
-8.09012770199649
 30
0.0
  0
SPLINE
  5
7F
330
1F
100
AcDbEntity
  8
STOOL
100
AcDbSpline
210
0.0
220
0.0
230
1.0
 70
    12
 71
     2
 72
     8
 73
     5
 74
     0
 42
0.0000000001
 43
0.0000000001
 40
0.0
 40
0.0
 40
0.0
 40
12.56637061436554
 40
12.56637061436554
 40
25.13274122872576
 40
25.13274122872576
 40
25.13274122872576
 10
31.47089764837372
 20
14.43332745979746
 30
0.0
 41
1.0
 10
25.81404339888562
 20
20.09018170929767
 30
0.0
 41
0.707106781186731
 10
31.47089764838282
 20
25.74703595878876
 30
0.0
 41
1.0
 10
37.12775189788172
 20
31.40389020828145
 30
0.0
 41
0.7071067811860391
 10
42.78460614736632
 20
25.7470359587744
 30
0.0
 41
1.0
  0
SPLINE
  5
80
330
1F
100
AcDbEntity
  8
STOOL
100
AcDbSpline
210
0.0
220
0.0
230
1.0
 70
    12
 71
     2
 72
     8
 73
     5
 74
     0
 42
0.0000000001
 43
0.0000000001
 40
0.0
 40
0.0
 40
0.0
 40
12.56637061436551
 40
12.56637061436551
 40
25.13274122872573
 40
25.13274122872573
 40
25.13274122872573
 10
42.78460614736632
 20
25.7470359587744
 30
0.0
 41
1.0
 10
48.44146039685443
 20
20.09018170927419
 30
0.0
 41
0.7071067811867341
 10
42.78460614735722
 20
14.43332745978311
 30
0.0
 41
1.0
 10
37.12775189785832
 20
8.776473210290398
 30
0.0
 41
0.7071067811860386
 10
31.47089764837372
 20
14.43332745979746
 30
0.0
 41
1.0
  0
SPLINE
  5
81
330
1F
100
AcDbEntity
  8
STOOL
100
AcDbSpline
210
0.0
220
0.0
230
1.0
 70
    12
 71
     2
 72
     8
 73
     5
 74
     0
 42
0.0000000001
 43
0.0000000001
 40
0.0
 40
0.0
 40
0.0
 40
12.56637061436556
 40
12.56637061436556
 40
25.13274122872576
 40
25.13274122872576
 40
25.13274122872576
 10
74.42582107002913
 20
14.43332745979746
 30
0.0
 41
1.0
 10
80.08267531951742
 20
20.09018170929769
 30
0.0
 41
0.7071067811867264
 10
74.42582107002
 20
25.74703595878875
 30
0.0
 41
1.0
 10
68.76896682052113
 20
31.40389020828143
 30
0.0
 41
0.7071067811860391
 10
63.11211257103652
 20
25.7470359587744
 30
0.0
 41
1.0
  0
SPLINE
  5
82
330
1F
100
AcDbEntity
  8
STOOL
100
AcDbSpline
210
0.0
220
0.0
230
1.0
 70
    12
 71
     2
 72
     8
 73
     5
 74
     0
 42
0.0000000001
 43
0.0000000001
 40
0.0
 40
0.0
 40
0.0
 40
12.56637061436552
 40
12.56637061436552
 40
25.13274122872574
 40
25.13274122872574
 40
25.13274122872574
 10
63.11211257103652
 20
25.7470359587744
 30
0.0
 41
1.0
 10
57.45525832154841
 20
20.0901817092742
 30
0.0
 41
0.7071067811867314
 10
63.11211257104561
 20
14.43332745978312
 30
0.0
 41
1.0
 10
68.76896682054459
 20
8.776473210290439
 30
0.0
 41
0.7071067811860413
 10
74.42582107002913
 20
14.43332745979745
 30
0.0
 41
1.0
  0
SPLINE
  5
83
330
1F
100
AcDbEntity
  8
STOOL
100
AcDbSpline
210
0.0
220
0.0
230
1.0
 70
     8
 71
     3
 72
    19
 73
    15
 74
     0
 42
0.0000000001
 43
0.0000000001
 40
0.0
 40
0.0
 40
0.0
 40
0.0
 40
0.1561093611231681
 40
0.3157928697440869
 40
0.6276046595482195
 40
0.9402628561665383
 40
1.255153859543102
 40
1.255153859543102
 40
1.255153859543102
 40
1.4102589578963
 40
1.567068035641803
 40
1.880720996835197
 40
2.19401283260114
 40
2.510307389908566
 40
2.510307389908566
 40
2.510307389908566
 40
2.510307389908566
 10
63.82253228428623
 20
13.80267143232709
 30
0.0
 10
63.77609821446011
 20
13.77918772260433
 30
0.0
 10
63.67852650017052
 20
13.73885983178568
 30
0.0
 10
63.47458403430521
 20
13.68948972054809
 30
0.0
 10
63.21001191830122
 20
13.68846501127311
 30
0.0
 10
62.90804600287653
 20
13.78501795080362
 30
0.0
 10
62.73636652661851
 20
13.9091428038185
 30
0.0
 10
62.6621715243411
 20
13.98338641309424
 30
0.0
 10
62.6255999200721
 20
14.01993842430333
 30
0.0
 10
62.55789719197681
 20
14.0992516453192
 30
0.0
 10
62.44859833260212
 20
14.27761711858206
 30
0.0
 10
62.36739982480991
 20
14.52937195504566
 30
0.0
 10
62.36822919223751
 20
14.8476632146246
 30
0.0
 10
62.43386906955241
 20
15.04966964266676
 30
0.0
 10
62.48145730601631
 20
15.14374621370462
 30
0.0
  0
SPLINE
  5
84
330
1F
100
AcDbEntity
  8
STOOL
100
AcDbSpline
210
0.0
220
0.0
230
1.0
 70
    12
 71
     2
 72
     8
 73
     5
 74
     0
 42
0.0000000001
 43
0.0000000001
 40
36.66752328802963
 40
36.66752328802963
 40
36.66752328802963
 40
37.69911184309127
 40
37.69911184309127
 40
38.73070169912828
 40
38.73070169912828
 40
38.73070169912828
 10
62.4814573060163
 20
15.14374621370462
 30
0.0
 41
0.9558596784095318
 10
62.7756580366646
 20
14.76978199416375
 30
0.0
 41
0.9759560415926671
 10
63.11211257104561
 20
14.43332745978312
 30
0.0
 41
1.0
 10
63.44856754019575
 20
14.09687249063345
 30
0.0
 41
0.9759560112698545
 10
63.82253228428623
 20
13.80267143232708
 30
0.0
 41
0.955859627720849
  0
SPLINE
  5
85
330
1F
100
AcDbEntity
  8
STOOL
100
AcDbSpline
210
0.0
220
0.0
230
1.0
 70
    12
 71
     2
 72
     8
 73
     5
 74
     0
 42
0.0000000001
 43
0.0000000001
 40
49.23389390239489
 40
49.23389390239489
 40
49.23389390239489
 40
50.2654824574515
 40
50.2654824574515
 40
51.29707231349582
 40
51.29707231349582
 40
51.29707231349582
 10
73.71540231611233
 20
13.80267219477033
 30
0.0
 41
0.9558596784096072
 10
74.08936653565073
 20
14.09687292541773
 30
0.0
 41
0.9759560415927178
 10
74.42582107002913
 20
14.43332745979745
 30
0.0
 41
1.0
 10
74.7622760391811
 20
14.76978242895019
 30
0.0
 41
0.9759560112697505
 10
75.05647709748932
 20
15.14374717304383
 30
0.0
 41
0.9558596277206842
  0
SPLINE
  5
86
330
1F
100
AcDbEntity
  8
STOOL
100
AcDbSpline
210
0.0
220
0.0
230
1.0
 70
     8
 71
     3
 72
    19
 73
    15
 74
     0
 42
0.0000000001
 43
0.0000000001
 40
0.0
 40
0.0
 40
0.0
 40
0.0
 40
0.1561093611284202
 40
0.3157928697493715
 40
0.6276046595535197
 40
0.9402628561718273
 40
1.25515385954817
 40
1.25515385954817
 40
1.25515385954817
 40
1.410258957901688
 40
1.567068035647185
 40
1.880720996840627
 40
2.1940128326065
 40
2.510307389915774
 40
2.510307389915774
 40
2.510307389915774
 40
2.510307389915774
 10
75.05647709748932
 20
15.14374717304383
 30
0.0
 10
75.07996080721303
 20
15.09731310321607
 30
0.0
 10
75.12028869803292
 20
14.99974138892489
 30
0.0
 10
75.16965880927062
 20
14.79579892305807
 30
0.0
 10
75.17068351854583
 20
14.53122680705383
 30
0.0
 10
75.07413057901523
 20
14.22926089162935
 30
0.0
 10
74.95000572600021
 20
14.0575814153716
 30
0.0
 10
74.87576211672452
 20
13.98338641309423
 30
0.0
 10
74.83921010551522
 20
13.94681480882512
 30
0.0
 10
74.75989688449953
 20
13.87911208073015
 30
0.0
 10
74.58153141123641
 20
13.76981322135538
 30
0.0
 10
74.32977657477291
 20
13.68861471356291
 30
0.0
 10
74.01148531519321
 20
13.68944408099064
 30
0.0
 10
73.80947888715052
 20
13.755083958306
 30
0.0
 10
73.71540231611233
 20
13.80267219477032
 30
0.0
  0
SPLINE
  5
87
330
1F
100
AcDbEntity
  8
STOOL
100
AcDbSpline
210
0.0
220
0.0
230
1.0
 70
     8
 71
     3
 72
    19
 73
    15
 74
     0
 42
0.0000000001
 43
0.0000000001
 40
0.0
 40
0.0
 40
0.0
 40
0.0
 40
0.1561093611232082
 40
0.3157928697440679
 40
0.627604659548302
 40
0.9402628561665745
 40
1.255153859543166
 40
1.255153859543166
 40
1.255153859543166
 40
1.410258957896387
 40
1.567068035641875
 40
1.880720996835292
 40
2.194012832601235
 40
2.510307389908641
 40
2.510307389908641
 40
2.510307389908641
 40
2.510307389908641
 10
73.71540135677942
 20
26.37769198624475
 30
0.0
 10
73.76183542660571
 20
26.40117569596753
 30
0.0
 10
73.85940714089541
 20
26.44150358678594
 30
0.0
 10
74.06334960676021
 20
26.490873698024
 30
0.0
 10
74.32792172276483
 20
26.49189840729874
 30
0.0
 10
74.62988763818971
 20
26.39534546776839
 30
0.0
 10
74.80156711444683
 20
26.2712206147534
 30
0.0
 10
74.87576211672452
 20
26.19697700547762
 30
0.0
 10
74.91233372099363
 20
26.16042499426857
 30
0.0
 10
74.98003644908873
 20
26.08111177325264
 30
0.0
 10
75.0893353084633
 20
25.9027462999897
 30
0.0
 10
75.17053381625563
 20
25.6509914635262
 30
0.0
 10
75.16970444882831
 20
25.3327002039471
 30
0.0
 10
75.104064571513
 20
25.1306937759051
 30
0.0
 10
75.05647633504931
 20
25.03661720486724
 30
0.0
  0
SPLINE
  5
88
330
1F
100
AcDbEntity
  8
STOOL
100
AcDbSpline
210
0.0
220
0.0
230
1.0
 70
    12
 71
     2
 72
     8
 73
     5
 74
     0
 42
0.0000000001
 43
0.0000000001
 40
61.80026451675538
 40
61.80026451675538
 40
61.80026451675538
 40
62.83185307181706
 40
62.83185307181706
 40
63.86344292785402
 40
63.86344292785402
 40
63.86344292785402
 10
75.05647633504931
 20
25.03661720486724
 30
0.0
 41
0.9558596784095301
 10
74.76227560440103
 20
25.41058142440812
 30
0.0
 41
0.9759560415926661
 10
74.42582107002
 20
25.74703595878874
 30
0.0
 41
1.0
 10
74.08936610087
 20
26.08349092793841
 30
0.0
 41
0.9759560112698555
 10
73.71540135677942
 20
26.37769198624475
 30
0.0
 41
0.9558596277208506
  0
SPLINE
  5
89
330
1F
100
AcDbEntity
  8
STOOL
100
AcDbSpline
210
0.0
220
0.0
230
1.0
 70
    12
 71
     2
 72
     6
 73
     3
 74
     0
 42
0.0000000001
 43
0.0000000001
 40
25.13274122872576
 40
25.13274122872576
 40
25.13274122872576
 40
26.16433108477003
 40
26.16433108477003
 40
26.16433108477003
 10
63.11211257103652
 20
25.7470359587744
 30
0.0
 41
1.0
 10
62.77565760188453
 20
25.41058098962167
 30
0.0
 41
0.9759560112697521
 10
62.48145654357644
 20
25.03661624552804
 30
0.0
 41
0.955859627720687
  0
SPLINE
  5
8A
330
1F
100
AcDbEntity
  8
STOOL
100
AcDbSpline
210
0.0
220
0.0
230
1.0
 70
    12
 71
     2
 72
     6
 73
     3
 74
     0
 42
0.0000000001
 43
0.0000000001
 40
74.36663513112065
 40
74.36663513112065
 40
74.36663513112065
 40
75.39822368617726
 40
75.39822368617726
 40
75.39822368617726
 10
63.82253132495332
 20
26.37769122380154
 30
0.0
 41
0.9558596784096065
 10
63.44856710541491
 20
26.08349049315413
 30
0.0
 41
0.9759560415927174
 10
63.11211257103652
 20
25.7470359587744
 30
0.0
 41
1.0
  0
SPLINE
  5
8B
330
1F
100
AcDbEntity
  8
STOOL
100
AcDbSpline
210
0.0
220
0.0
230
1.0
 70
     8
 71
     3
 72
    19
 73
    15
 74
     0
 42
0.0000000001
 43
0.0000000001
 40
0.0
 40
0.0
 40
0.0
 40
0.0
 40
0.1561093611281887
 40
0.3157928697490839
 40
0.6276046595532856
 40
0.9402628561716138
 40
1.255153859548187
 40
1.255153859548187
 40
1.255153859548187
 40
1.410258957901348
 40
1.567068035646851
 40
1.880720996840261
 40
2.194012832606195
 40
2.510307389915753
 40
2.510307389915753
 40
2.510307389915753
 40
2.510307389915753
 10
62.48145654357641
 20
25.03661624552804
 30
0.0
 10
62.45797283385251
 20
25.08305031535579
 30
0.0
 10
62.41764494303293
 20
25.1806220296469
 30
0.0
 10
62.36827483179512
 20
25.3845644955135
 30
0.0
 10
62.36725012252022
 20
25.64913661151772
 30
0.0
 10
62.46380306205053
 20
25.95110252694231
 30
0.0
 10
62.5879279150658
 20
26.12278200320011
 30
0.0
 10
62.6621715243411
 20
26.19697700547763
 30
0.0
 10
62.69872353555031
 20
26.23354860974665
 30
0.0
 10
62.77803675656601
 20
26.30125133784157
 30
0.0
 10
62.95640222982892
 20
26.41055019721637
 30
0.0
 10
63.20815706629283
 20
26.49174870500897
 30
0.0
 10
63.52644832587221
 20
26.49091933758144
 30
0.0
 10
63.72845475391513
 20
26.42527946026583
 30
0.0
 10
63.82253132495332
 20
26.37769122380155
 30
0.0
  0
SPLINE
  5
8C
330
1F
100
AcDbEntity
  8
STOOL
100
AcDbSpline
210
0.0
220
0.0
230
1.0
 70
    12
 71
     2
 72
     6
 73
     3
 74
     0
 42
0.0000000001
 43
0.0000000001
 40
-75.39822368617725
 40
-75.39822368617725
 40
-75.39822368617725
 40
-74.36663383012151
 40
-74.36663383012151
 40
-74.36663383012151
 10
42.78460614736632
 20
25.7470359587744
 30
0.0
 41
1.0
 10
42.44815117821082
 20
26.08349092793121
 30
0.0
 41
0.975956011269418
 10
42.07418643411341
 20
26.37769198624312
 30
0.0
 41
0.9558596277201192
  0
SPLINE
  5
8D
330
1F
100
AcDbEntity
  8
STOOL
100
AcDbSpline
210
0.0
220
0.0
230
1.0
 70
    12
 71
     2
 72
     6
 73
     3
 74
     0
 42
0.0000000001
 43
0.0000000001
 40
-26.16432978377098
 40
-26.16432978377098
 40
-26.16432978377098
 40
-25.13274122872576
 40
-25.13274122872576
 40
-25.13274122872576
 10
43.41526141238492
 20
25.03661720486406
 30
0.0
 41
0.9558596784101719
 10
43.12106068174131
 20
25.41058142439873
 30
0.0
 41
0.97595604159305
 10
42.78460614736632
 20
25.7470359587744
 30
0.0
 41
1.0
  0
SPLINE
  5
8E
330
1F
100
AcDbEntity
  8
STOOL
100
AcDbSpline
210
0.0
220
0.0
230
1.0
 70
     8
 71
     3
 72
    19
 73
    15
 74
     0
 42
0.0000000001
 43
0.0000000001
 40
0.0
 40
0.0
 40
0.0
 40
0.0
 40
0.1561093611267708
 40
0.3157928697476607
 40
0.6276046595518443
 40
0.9402628561701216
 40
1.255153859546712
 40
1.255153859546712
 40
1.255153859546712
 40
1.410258957899903
 40
1.567068035645397
 40
1.880720996838811
 40
2.194012832604749
 40
2.510307389915745
 40
2.510307389915745
 40
2.510307389915745
 40
2.510307389915745
 10
42.07418643411341
 20
26.37769198624314
 30
0.0
 10
42.12062050394071
 20
26.40117569596661
 30
0.0
 10
42.21819221823182
 20
26.44150358678598
 30
0.0
 10
42.42213468409761
 20
26.4908736980238
 30
0.0
 10
42.68670680010172
 20
26.49189840729874
 30
0.0
 10
42.98867271552632
 20
26.39534546776815
 30
0.0
 10
43.16035219178421
 20
26.2712206147534
 30
0.0
 10
43.23454719406172
 20
26.19697700547763
 30
0.0
 10
43.27111879833062
 20
26.1604249942686
 30
0.0
 10
43.33882152642552
 20
26.08111177325267
 30
0.0
 10
43.44812038580022
 20
25.90274629998984
 30
0.0
 10
43.52931889359301
 20
25.65099146352623
 30
0.0
 10
43.52848952616561
 20
25.33270020394607
 30
0.0
 10
43.46284964884971
 20
25.13069377590285
 30
0.0
 10
43.41526141238492
 20
25.03661720486406
 30
0.0
  0
SPLINE
  5
8F
330
1F
100
AcDbEntity
  8
STOOL
100
AcDbSpline
210
0.0
220
0.0
230
1.0
 70
    12
 71
     2
 72
     8
 73
     5
 74
     0
 42
0.0000000001
 43
0.0000000001
 40
-38.73070039812909
 40
-38.73070039812909
 40
-38.73070039812909
 40
-37.69911184309127
 40
-37.69911184309127
 40
-36.66752198703046
 40
-36.66752198703046
 40
-36.66752198703046
 10
42.07418739345272
 20
13.80267219476872
 30
0.0
 41
0.955859678410339
 10
42.44815161298422
 20
14.09687292541051
 30
0.0
 41
0.9759560415931556
 10
42.78460614735722
 20
14.43332745978311
 30
0.0
 41
1.0
 10
43.12106111651532
 20
14.76978242894082
 30
0.0
 41
0.9759560112693668
 10
43.41526217482811
 20
15.14374717304069
 30
0.0
 41
0.955859627720043
  0
SPLINE
  5
90
330
1F
100
AcDbEntity
  8
STOOL
100
AcDbSpline
210
0.0
220
0.0
230
1.0
 70
     8
 71
     3
 72
    19
 73
    15
 74
     0
 42
0.0000000001
 43
0.0000000001
 40
0.0
 40
0.0
 40
0.0
 40
0.0
 40
0.1561093611246712
 40
0.3157928697456077
 40
0.6276046595497522
 40
0.9402628561680457
 40
1.255153859544627
 40
1.255153859544627
 40
1.255153859544627
 40
1.410258957897794
 40
1.567068035643293
 40
1.880720996836693
 40
2.194012832602635
 40
2.510307389908656
 40
2.510307389908656
 40
2.510307389908656
 40
2.510307389908656
 10
43.41526217482811
 20
15.14374717304069
 30
0.0
 10
43.43874588455122
 20
15.09731310321397
 30
0.0
 10
43.47907377537003
 20
14.99974138892384
 30
0.0
 10
43.52844388660802
 20
14.79579892305837
 30
0.0
 10
43.52946859588262
 20
14.53122680705406
 30
0.0
 10
43.43291565635222
 20
14.22926089162951
 30
0.0
 10
43.30879080333752
 20
14.05758141537175
 30
0.0
 10
43.23454719406172
 20
13.98338641309424
 30
0.0
 10
43.19799518285252
 20
13.94681480882514
 30
0.0
 10
43.11868196183671
 20
13.87911208073024
 30
0.0
 10
42.94031648857381
 20
13.76981322135542
 30
0.0
 10
42.68856165211042
 20
13.68861471356299
 30
0.0
 10
42.37027039253172
 20
13.68944408099045
 30
0.0
 10
42.16826396449022
 20
13.75508395830532
 30
0.0
 10
42.07418739345272
 20
13.80267219476872
 30
0.0
  0
SPLINE
  5
91
330
1F
100
AcDbEntity
  8
STOOL
100
AcDbSpline
210
0.0
220
0.0
230
1.0
 70
     8
 71
     3
 72
    19
 73
    15
 74
     0
 42
0.0000000001
 43
0.0000000001
 40
0.0
 40
0.0
 40
0.0
 40
0.0
 40
0.1561093611264039
 40
0.3157928697473263
 40
0.6276046595514777
 40
0.940262856169789
 40
1.255153859546702
 40
1.255153859546702
 40
1.255153859546702
 40
1.410258957899666
 40
1.567068035645148
 40
1.880720996838544
 40
2.194012832604484
 40
2.510307389915774
 40
2.510307389915774
 40
2.510307389915774
 40
2.510307389915774
 10
32.18131736162663
 20
13.80267143232872
 30
0.0
 10
32.13488329179953
 20
13.77918772260533
 30
0.0
 10
32.03731157750882
 20
13.73885983178604
 30
0.0
 10
31.83336911164263
 20
13.68948972054807
 30
0.0
 10
31.56879699563862
 20
13.68846501127309
 30
0.0
 10
31.26683108021382
 20
13.78501795080352
 30
0.0
 10
31.09515160395591
 20
13.90914280381842
 30
0.0
 10
31.02095660167832
 20
13.98338641309424
 30
0.0
 10
30.98438499740932
 20
14.01993842430325
 30
0.0
 10
30.91668226931452
 20
14.09925164531916
 30
0.0
 10
30.80738340993972
 20
14.27761711858181
 30
0.0
 10
30.72618490214712
 20
14.52937195504544
 30
0.0
 10
30.72701426957462
 20
14.8476632146257
 30
0.0
 10
30.79265414689041
 20
15.04966964266898
 30
0.0
 10
30.84024238335512
 20
15.14374621370785
 30
0.0
  0
SPLINE
  5
92
330
1F
100
AcDbEntity
  8
STOOL
100
AcDbSpline
210
0.0
220
0.0
230
1.0
 70
    12
 71
     2
 72
     8
 73
     5
 74
     0
 42
0.0000000001
 43
0.0000000001
 40
-51.29707101249676
 40
-51.29707101249676
 40
-51.29707101249676
 40
-50.26548245745149
 40
-50.26548245745149
 40
-49.23389260139575
 40
-49.23389260139575
 40
-49.23389260139575
 10
30.84024238335511
 20
15.14374621370785
 30
0.0
 41
0.95585967841017
 10
31.13444311399872
 20
14.76978199417316
 30
0.0
 41
0.9759560415930489
 10
31.47089764837372
 20
14.43332745979747
 30
0.0
 41
1.0
 10
31.80735261752922
 20
14.09687249064067
 30
0.0
 41
0.9759560112694178
 10
32.18131736162663
 20
13.80267143232872
 30
0.0
 41
0.9558596277201189
  0
SPLINE
  5
93
330
1F
100
AcDbEntity
  8
STOOL
100
AcDbSpline
210
0.0
220
0.0
230
1.0
 70
    12
 71
     2
 72
     8
 73
     5
 74
     0
 42
0.0000000001
 43
0.0000000001
 40
-63.86344162685488
 40
-63.86344162685488
 40
-63.86344162685488
 40
-62.83185307181703
 40
-62.83185307181703
 40
-61.80026321575623
 40
-61.80026321575623
 40
-61.80026321575623
 10
32.18131640228732
 20
26.37769122380317
 30
0.0
 41
0.9558596784103377
 10
31.80735218275572
 20
26.08349049316137
 30
0.0
 41
0.9759560415931549
 10
31.47089764838282
 20
25.74703595878877
 30
0.0
 41
1.0
 10
31.13444267922472
 20
25.41058098963106
 30
0.0
 41
0.9759560112693669
 10
30.84024162091193
 20
25.03661624553121
 30
0.0
 41
0.9558596277200432
  0
SPLINE
  5
94
330
1F
100
AcDbEntity
  8
STOOL
100
AcDbSpline
210
0.0
220
0.0
230
1.0
 70
     8
 71
     3
 72
    19
 73
    15
 74
     0
 42
0.0000000001
 43
0.0000000001
 40
0.0
 40
0.0
 40
0.0
 40
0.0
 40
0.1561093611245761
 40
0.3157928697454493
 40
0.6276046595496491
 40
0.9402628561679828
 40
1.255153859544571
 40
1.255153859544571
 40
1.255153859544571
 40
1.410258957897759
 40
1.567068035643244
 40
1.880720996836644
 40
2.194012832602594
 40
2.510307389908614
 40
2.510307389908614
 40
2.510307389908614
 40
2.510307389908614
 10
30.84024162091193
 20
25.03661624553121
 30
0.0
 10
30.81675791118872
 20
25.08305031535793
 30
0.0
 10
30.77643002036982
 20
25.18062202964797
 30
0.0
 10
30.72705990913222
 20
25.38456449551348
 30
0.0
 10
30.72603519985712
 20
25.64913661151772
 30
0.0
 10
30.82258813938772
 20
25.95110252694225
 30
0.0
 10
30.94671299240262
 20
26.12278200320011
 30
0.0
 10
31.02095660167832
 20
26.19697700547764
 30
0.0
 10
31.05750861288742
 20
26.23354860974664
 30
0.0
 10
31.13682183390311
 20
26.30125133784162
 30
0.0
 10
31.31518730716601
 20
26.41055019721636
 30
0.0
 10
31.56694214362972
 20
26.49174870500889
 30
0.0
 10
31.88523340320802
 20
26.49091933758124
 30
0.0
 10
32.08723983124992
 20
26.42527946026673
 30
0.0
 10
32.18131640228732
 20
26.37769122380317
 30
0.0
  0
POLYLINE
  5
96
330
1F
100
AcDbEntity
  8
FRAME
100
AcDb2dPolyline
 66
     1
 10
0.0
 20
0.0
 30
0.0
  0
VERTEX
  5
97
330
96
100
AcDbEntity
  8
FRAME
100
AcDbVertex
100
AcDb2dVertex
 10
30.50741447746792
 20
-0.7387682067547701
 30
0.0
  0
VERTEX
  5
98
330
96
100
AcDbEntity
  8
FRAME
100
AcDbVertex
100
AcDb2dVertex
 10
30.50741447746792
 20
-1.34012770199671
 30
0.0
  0
SEQEND
  5
99
330
96
100
AcDbEntity
  8
FRAME
  0
SPLINE
  5
9A
330
1F
100
AcDbEntity
  8
FRAME
100
AcDbSpline
210
0.0
220
0.0
230
1.0
 70
    28
 71
     2
 72
     6
 73
     3
 74
     0
 42
0.0000000001
 43
0.0000000001
 40
-79.9763258679599
 40
-79.9763258679599
 40
-79.9763258679599
 40
-79.1889242931571
 40
-79.1889242931571
 40
-79.1889242931571
 10
31.29481605227072
 20
-0.7387682067547701
 30
0.0
 41
1.0
 10
30.90111526486932
 20
-0.7387682067547701
 30
0.0
 41
1.0
 10
30.50741447746792
 20
-0.7387682067547701
 30
0.0
 41
1.0
  0
POLYLINE
  5
9B
330
1F
100
AcDbEntity
  8
FRAME
100
AcDb2dPolyline
 66
     1
 10
0.0
 20
0.0
 30
0.0
  0
VERTEX
  5
9C
330
9B
100
AcDbEntity
  8
FRAME
100
AcDbVertex
100
AcDb2dVertex
 10
31.29481605227072
 20
-1.34012770199671
 30
0.0
  0
VERTEX
  5
9D
330
9B
100
AcDbEntity
  8
FRAME
100
AcDbVertex
100
AcDb2dVertex
 10
31.29481605227072
 20
-0.7387682067547701
 30
0.0
  0
SEQEND
  5
9E
330
9B
100
AcDbEntity
  8
FRAME
  0
SPLINE
  5
9F
330
1F
100
AcDbEntity
  8
FRAME
100
AcDbSpline
210
0.0
220
0.0
230
1.0
 70
    28
 71
     3
 72
     8
 73
     4
 74
     0
 42
0.0000000001
 43
0.0000000001
 40
153.3776934057249
 40
153.3776934057249
 40
153.3776934057249
 40
153.3776934057249
 40
154.1650949805277
 40
154.1650949805277
 40
154.1650949805277
 40
154.1650949805277
 10
30.50741447746793
 20
-1.34012770199671
 30
0.0
 41
0.9999999999233466
 10
30.76988166906883
 20
-1.34012770199671
 30
0.0
 41
0.9999999999233466
 10
31.03234886066981
 20
-1.34012770199671
 30
0.0
 41
0.9999999999233466
 10
31.29481605227071
 20
-1.34012770199671
 30
0.0
 41
0.9999999999233466
  0
POLYLINE
  5
A0
330
1F
100
AcDbEntity
  8
FRAME
100
AcDb2dPolyline
 66
     1
 10
0.0
 20
0.0
 30
0.0
  0
VERTEX
  5
A1
330
A0
100
AcDbEntity
  8
FRAME
100
AcDbVertex
100
AcDb2dVertex
 10
75.38930424093492
 20
-1.34012770199671
 30
0.0
  0
VERTEX
  5
A2
330
A0
100
AcDbEntity
  8
FRAME
100
AcDbVertex
100
AcDb2dVertex
 10
75.38930424093492
 20
-0.7387682067547701
 30
0.0
  0
SEQEND
  5
A3
330
A0
100
AcDbEntity
  8
FRAME
  0
SPLINE
  5
A4
330
1F
100
AcDbEntity
  8
FRAME
100
AcDbSpline
210
0.0
220
0.0
230
1.0
 70
    28
 71
     3
 72
     8
 73
     4
 74
     0
 42
0.0000000001
 43
0.0000000001
 40
197.4721815943891
 40
197.4721815943891
 40
197.4721815943891
 40
197.4721815943891
 40
198.2595831691919
 40
198.2595831691919
 40
198.2595831691919
 40
198.2595831691919
 10
74.6019026661321
 20
-1.34012770199671
 30
0.0
 41
0.9999999999233466
 10
74.86436985773302
 20
-1.34012770199671
 30
0.0
 41
0.9999999999233466
 10
75.12683704933401
 20
-1.34012770199671
 30
0.0
 41
0.9999999999233466
 10
75.38930424093492
 20
-1.34012770199671
 30
0.0
 41
0.9999999999233466
  0
POLYLINE
  5
A5
330
1F
100
AcDbEntity
  8
FRAME
100
AcDb2dPolyline
 66
     1
 10
0.0
 20
0.0
 30
0.0
  0
VERTEX
  5
A6
330
A5
100
AcDbEntity
  8
FRAME
100
AcDbVertex
100
AcDb2dVertex
 10
74.60190266613212
 20
-0.7387682067547701
 30
0.0
  0
VERTEX
  5
A7
330
A5
100
AcDbEntity
  8
FRAME
100
AcDbVertex
100
AcDb2dVertex
 10
74.60190266613212
 20
-1.34012770199671
 30
0.0
  0
SEQEND
  5
A8
330
A5
100
AcDbEntity
  8
FRAME
  0
SPLINE
  5
A9
330
1F
100
AcDbEntity
  8
FRAME
100
AcDbSpline
210
0.0
220
0.0
230
1.0
 70
    28
 71
     2
 72
     6
 73
     3
 74
     0
 42
0.0000000001
 43
0.0000000001
 40
-124.0708140566241
 40
-124.0708140566241
 40
-124.0708140566241
 40
-123.2834124818213
 40
-123.2834124818213
 40
-123.2834124818213
 10
75.38930424093492
 20
-0.7387682067547701
 30
0.0
 41
1.0
 10
74.99560345353352
 20
-0.7387682067547701
 30
0.0
 41
1.0
 10
74.60190266613212
 20
-0.7387682067547701
 30
0.0
 41
1.0
  0
SPLINE
  5
AA
330
1F
100
AcDbEntity
  8
FRAME
100
AcDbSpline
210
0.0
220
0.0
230
1.0
 70
    28
 71
     3
 72
     8
 73
     4
 74
     0
 42
0.0000000001
 43
0.0000000001
 40
222.626520531173
 40
222.626520531173
 40
222.626520531173
 40
222.626520531173
 40
223.4139221059758
 40
223.4139221059758
 40
223.4139221059758
 40
223.4139221059758
 10
75.38930424093493
 20
-8.090127701996709
 30
0.0
 41
0.9999999998466933
 10
75.126837049334
 20
-8.090127701996709
 30
0.0
 41
0.9999999998466933
 10
74.86436985773302
 20
-8.090127701996709
 30
0.0
 41
0.9999999998466933
 10
74.60190266613212
 20
-8.090127701996709
 30
0.0
 41
0.9999999998466933
  0
POLYLINE
  5
AB
330
1F
100
AcDbEntity
  8
FRAME
100
AcDb2dPolyline
 66
     1
 10
0.0
 20
0.0
 30
0.0
  0
VERTEX
  5
AC
330
AB
100
AcDbEntity
  8
FRAME
100
AcDbVertex
100
AcDb2dVertex
 10
75.38930424093492
 20
-9.090181408525748
 30
0.0
  0
VERTEX
  5
AD
330
AB
100
AcDbEntity
  8
FRAME
100
AcDbVertex
100
AcDb2dVertex
 10
75.38930424093492
 20
-8.09012770199671
 30
0.0
  0
SEQEND
  5
AE
330
AB
100
AcDbEntity
  8
FRAME
  0
SPLINE
  5
AF
330
1F
100
AcDbEntity
  8
FRAME
100
AcDbSpline
210
0.0
220
0.0
230
1.0
 70
    28
 71
     2
 72
     6
 73
     3
 74
     0
 42
0.0000000001
 43
0.0000000001
 40
72.29517462094668
 40
72.29517462094668
 40
72.29517462094668
 40
73.08257619574948
 40
73.08257619574948
 40
73.08257619574948
 10
74.60190266613212
 20
-9.090181408525748
 30
0.0
 41
1.0
 10
74.99560345353352
 20
-9.090181408525748
 30
0.0
 41
1.0
 10
75.38930424093492
 20
-9.090181408525748
 30
0.0
 41
1.0
  0
POLYLINE
  5
B0
330
1F
100
AcDbEntity
  8
FRAME
100
AcDb2dPolyline
 66
     1
 10
0.0
 20
0.0
 30
0.0
  0
VERTEX
  5
B1
330
B0
100
AcDbEntity
  8
FRAME
100
AcDbVertex
100
AcDb2dVertex
 10
74.60190266613212
 20
-8.09012770199671
 30
0.0
  0
VERTEX
  5
B2
330
B0
100
AcDbEntity
  8
FRAME
100
AcDbVertex
100
AcDb2dVertex
 10
74.60190266613212
 20
-9.090181408525748
 30
0.0
  0
SEQEND
  5
B3
330
B0
100
AcDbEntity
  8
FRAME
  0
SPLINE
  5
B4
330
1F
100
AcDbEntity
  8
FRAME
100
AcDbSpline
210
0.0
220
0.0
230
1.0
 70
    28
 71
     2
 72
     6
 73
     3
 74
     0
 42
0.0000000001
 43
0.0000000001
 40
28.2006864322825
 40
28.2006864322825
 40
28.2006864322825
 40
28.98808800708538
 40
28.98808800708538
 40
28.98808800708538
 10
30.50741447746792
 20
-9.090181408525748
 30
0.0
 41
1.0
 10
30.90111526486942
 20
-9.090181408525748
 30
0.0
 41
1.0
 10
31.29481605227082
 20
-9.090181408525748
 30
0.0
 41
1.0
  0
POLYLINE
  5
B5
330
1F
100
AcDbEntity
  8
FRAME
100
AcDb2dPolyline
 66
     1
 10
0.0
 20
0.0
 30
0.0
  0
VERTEX
  5
B6
330
B5
100
AcDbEntity
  8
FRAME
100
AcDbVertex
100
AcDb2dVertex
 10
30.50741447746792
 20
-8.09012770199671
 30
0.0
  0
VERTEX
  5
B7
330
B5
100
AcDbEntity
  8
FRAME
100
AcDbVertex
100
AcDb2dVertex
 10
30.50741447746792
 20
-9.090181408525748
 30
0.0
  0
SEQEND
  5
B8
330
B5
100
AcDbEntity
  8
FRAME
  0
SPLINE
  5
B9
330
1F
100
AcDbEntity
  8
FRAME
100
AcDbSpline
210
0.0
220
0.0
230
1.0
 70
    28
 71
     3
 72
     8
 73
     4
 74
     0
 42
0.0000000001
 43
0.0000000001
 40
266.7210087198371
 40
266.7210087198371
 40
266.7210087198371
 40
266.7210087198371
 40
267.50841029464
 40
267.50841029464
 40
267.50841029464
 40
267.50841029464
 10
31.29481605227082
 20
-8.090127701996709
 30
0.0
 41
0.9999999998466933
 10
31.03234886066991
 20
-8.090127701996709
 30
0.0
 41
0.9999999998466933
 10
30.76988166906893
 20
-8.090127701996709
 30
0.0
 41
0.9999999998466933
 10
30.50741447746791
 20
-8.090127701996709
 30
0.0
 41
0.9999999998466933
  0
POLYLINE
  5
BA
330
1F
100
AcDbEntity
  8
FRAME
100
AcDb2dPolyline
 66
     1
 10
0.0
 20
0.0
 30
0.0
  0
VERTEX
  5
BB
330
BA
100
AcDbEntity
  8
FRAME
100
AcDbVertex
100
AcDb2dVertex
 10
31.29481605227082
 20
-9.090181408525748
 30
0.0
  0
VERTEX
  5
BC
330
BA
100
AcDbEntity
  8
FRAME
100
AcDbVertex
100
AcDb2dVertex
 10
31.29481605227082
 20
-8.09012770199671
 30
0.0
  0
SEQEND
  5
BD
330
BA
100
AcDbEntity
  8
FRAME
  0
POLYLINE
  5
BE
330
1F
100
AcDbEntity
  8
FRAME
100
AcDb2dPolyline
 66
     1
 10
0.0
 20
0.0
 30
0.0
  0
VERTEX
  5
BF
330
BE
100
AcDbEntity
  8
FRAME
100
AcDbVertex
100
AcDb2dVertex
 10
21.44832099954081
 20
-10.28602084737548
 30
0.0
  0
VERTEX
  5
C0
330
BE
100
AcDbEntity
  8
FRAME
100
AcDbVertex
100
AcDb2dVertex
 10
21.25544601117832
 20
-10.28602084737547
 30
0.0
  0
SEQEND
  5
C1
330
BE
100
AcDbEntity
  8
FRAME
  0
SPLINE
  5
C2
330
1F
100
AcDbEntity
  8
FRAME
100
AcDbSpline
210
0.0
220
0.0
230
1.0
 70
    28
 71
     2
 72
     6
 73
     3
 74
     0
 42
0.0000000001
 43
0.0000000001
 40
179.8707415240824
 40
179.8707415240824
 40
179.8707415240824
 40
180.6581430988856
 40
180.6581430988856
 40
180.6581430988856
 10
21.44832099954081
 20
-11.07342242217862
 30
0.0
 41
1.0
 10
21.44832099954081
 20
-10.67972163477705
 30
0.0
 41
1.0
 10
21.44832099954081
 20
-10.28602084737548
 30
0.0
 41
1.0
  0
POLYLINE
  5
C3
330
1F
100
AcDbEntity
  8
FRAME
100
AcDb2dPolyline
 66
     1
 10
0.0
 20
0.0
 30
0.0
  0
VERTEX
  5
C4
330
C3
100
AcDbEntity
  8
FRAME
100
AcDbVertex
100
AcDb2dVertex
 10
21.25544601117822
 20
-11.07342242217862
 30
0.0
  0
VERTEX
  5
C5
330
C3
100
AcDbEntity
  8
FRAME
100
AcDbVertex
100
AcDb2dVertex
 10
21.44832099954081
 20
-11.07342242217862
 30
0.0
  0
SEQEND
  5
C6
330
C3
100
AcDbEntity
  8
FRAME
  0
SPLINE
  5
C7
330
1F
100
AcDbEntity
  8
FRAME
100
AcDbSpline
210
0.0
220
0.0
230
1.0
 70
    28
 71
     2
 72
     6
 73
     3
 74
     0
 42
0.0000000001
 43
0.0000000001
 40
48.67198305175808
 40
48.67198305175808
 40
48.67198305175808
 40
49.45938462656123
 40
49.45938462656123
 40
49.45938462656123
 10
21.25544601117832
 20
-10.28602084737547
 30
0.0
 41
1.0
 10
21.25544601117832
 20
-10.67972163477704
 30
0.0
 41
1.0
 10
21.25544601117822
 20
-11.07342242217862
 30
0.0
 41
1.0
  0
POLYLINE
  5
C8
330
1F
100
AcDbEntity
  8
FRAME
100
AcDb2dPolyline
 66
     1
 10
0.0
 20
0.0
 30
0.0
  0
VERTEX
  5
C9
330
C8
100
AcDbEntity
  8
FRAME
100
AcDbVertex
100
AcDb2dVertex
 10
21.25544601117741
 20
-19.14428856391089
 30
0.0
  0
VERTEX
  5
CA
330
C8
100
AcDbEntity
  8
FRAME
100
AcDbVertex
100
AcDb2dVertex
 10
21.44832099954081
 20
-19.14428856391089
 30
0.0
  0
SEQEND
  5
CB
330
C8
100
AcDbEntity
  8
FRAME
  0
SPLINE
  5
CC
330
1F
100
AcDbEntity
  8
FRAME
100
AcDbSpline
210
0.0
220
0.0
230
1.0
 70
    28
 71
     2
 72
     6
 73
     3
 74
     0
 42
0.0000000001
 43
0.0000000001
 40
56.74284919349036
 40
56.74284919349036
 40
56.74284919349036
 40
57.53025076829351
 40
57.53025076829351
 40
57.53025076829351
 10
21.25544601117751
 20
-18.35688698910775
 30
0.0
 41
1.0
 10
21.25544601117751
 20
-18.75058777650932
 30
0.0
 41
1.0
 10
21.25544601117741
 20
-19.14428856391089
 30
0.0
 41
1.0
  0
POLYLINE
  5
CD
330
1F
100
AcDbEntity
  8
FRAME
100
AcDb2dPolyline
 66
     1
 10
0.0
 20
0.0
 30
0.0
  0
VERTEX
  5
CE
330
CD
100
AcDbEntity
  8
FRAME
100
AcDbVertex
100
AcDb2dVertex
 10
21.44832099954081
 20
-18.35688698910775
 30
0.0
  0
VERTEX
  5
CF
330
CD
100
AcDbEntity
  8
FRAME
100
AcDbVertex
100
AcDb2dVertex
 10
21.25544601117751
 20
-18.35688698910775
 30
0.0
  0
SEQEND
  5
D0
330
CD
100
AcDbEntity
  8
FRAME
  0
SPLINE
  5
D1
330
1F
100
AcDbEntity
  8
FRAME
100
AcDbSpline
210
0.0
220
0.0
230
1.0
 70
    28
 71
     2
 72
     6
 73
     3
 74
     0
 42
0.0000000001
 43
0.0000000001
 40
171.7998753823502
 40
171.7998753823502
 40
171.7998753823502
 40
172.5872769571533
 40
172.5872769571533
 40
172.5872769571533
 10
21.44832099954081
 20
-19.14428856391089
 30
0.0
 41
1.0
 10
21.44832099954081
 20
-18.75058777650932
 30
0.0
 41
1.0
 10
21.44832099954081
 20
-18.35688698910775
 30
0.0
 41
1.0
  0
POLYLINE
  5
D2
330
1F
100
AcDbEntity
  8
FRAME
100
AcDb2dPolyline
 66
     1
 10
0.0
 20
0.0
 30
0.0
  0
VERTEX
  5
D3
330
D2
100
AcDbEntity
  8
FRAME
100
AcDbVertex
100
AcDb2dVertex
 10
5.301678849710342
 20
-19.14428856391089
 30
0.0
  0
VERTEX
  5
D4
330
D2
100
AcDbEntity
  8
FRAME
100
AcDbVertex
100
AcDb2dVertex
 10
5.505446011179203
 20
-19.14428856391089
 30
0.0
  0
SEQEND
  5
D5
330
D2
100
AcDbEntity
  8
FRAME
  0
SPLINE
  5
D6
330
1F
100
AcDbEntity
  8
FRAME
100
AcDbSpline
210
0.0
220
0.0
230
1.0
 70
    28
 71
     2
 72
     6
 73
     3
 74
     0
 42
0.0000000001
 43
0.0000000001
 40
-224.5164800273631
 40
-224.5164800273631
 40
-224.5164800273631
 40
-223.72907845256
 40
-223.72907845256
 40
-223.72907845256
 10
5.301678849710342
 20
-18.35688698910775
 30
0.0
 41
1.0
 10
5.301678849710342
 20
-18.75058777650931
 30
0.0
 41
1.0
 10
5.301678849710342
 20
-19.14428856391089
 30
0.0
 41
1.0
  0
POLYLINE
  5
D7
330
1F
100
AcDbEntity
  8
FRAME
100
AcDb2dPolyline
 66
     1
 10
0.0
 20
0.0
 30
0.0
  0
VERTEX
  5
D8
330
D7
100
AcDbEntity
  8
FRAME
100
AcDbVertex
100
AcDb2dVertex
 10
5.505446011179188
 20
-18.35688698910775
 30
0.0
  0
VERTEX
  5
D9
330
D7
100
AcDbEntity
  8
FRAME
100
AcDbVertex
100
AcDb2dVertex
 10
5.301678849710342
 20
-18.35688698910775
 30
0.0
  0
SEQEND
  5
DA
330
D7
100
AcDbEntity
  8
FRAME
  0
SPLINE
  5
DB
330
1F
100
AcDbEntity
  8
FRAME
100
AcDbSpline
210
0.0
220
0.0
230
1.0
 70
    28
 71
     2
 72
     6
 73
     3
 74
     0
 42
0.0000000001
 43
0.0000000001
 40
89.53457544414672
 40
89.53457544414672
 40
89.53457544414672
 40
90.32197701894987
 40
90.32197701894987
 40
90.32197701894987
 10
5.505446011179203
 20
-19.14428856391089
 30
0.0
 41
1.0
 10
5.505446011179203
 20
-18.75058777650932
 30
0.0
 41
1.0
 10
5.505446011179188
 20
-18.35688698910775
 30
0.0
 41
1.0
  0
SPLINE
  5
DC
330
1F
100
AcDbEntity
  8
FRAME
100
AcDbSpline
210
0.0
220
0.0
230
1.0
 70
    28
 71
     2
 72
     6
 73
     3
 74
     0
 42
0.0000000001
 43
0.0000000001
 40
-232.5873461690954
 40
-232.5873461690954
 40
-232.5873461690954
 40
-231.7999445942923
 40
-231.7999445942923
 40
-231.7999445942923
 10
5.301678849710342
 20
-10.28602084737547
 30
0.0
 41
1.0
 10
5.301678849710342
 20
-10.67972163477704
 30
0.0
 41
1.0
 10
5.301678849710342
 20
-11.07342242217862
 30
0.0
 41
1.0
  0
POLYLINE
  5
DD
330
1F
100
AcDbEntity
  8
FRAME
100
AcDb2dPolyline
 66
     1
 10
0.0
 20
0.0
 30
0.0
  0
VERTEX
  5
DE
330
DD
100
AcDbEntity
  8
FRAME
100
AcDbVertex
100
AcDb2dVertex
 10
5.505446011178975
 20
-10.28602084737547
 30
0.0
  0
VERTEX
  5
DF
330
DD
100
AcDbEntity
  8
FRAME
100
AcDbVertex
100
AcDb2dVertex
 10
5.301678849710342
 20
-10.28602084737547
 30
0.0
  0
SEQEND
  5
E0
330
DD
100
AcDbEntity
  8
FRAME
  0
SPLINE
  5
E1
330
1F
100
AcDbEntity
  8
FRAME
100
AcDbSpline
210
0.0
220
0.0
230
1.0
 70
    28
 71
     2
 72
     6
 73
     3
 74
     0
 42
0.0000000001
 43
0.0000000001
 40
97.60544158587899
 40
97.60544158587899
 40
97.60544158587899
 40
98.39284316068215
 40
98.39284316068215
 40
98.39284316068215
 10
5.505446011178975
 20
-11.07342242217862
 30
0.0
 41
1.0
 10
5.505446011178975
 20
-10.67972163477704
 30
0.0
 41
1.0
 10
5.505446011178975
 20
-10.28602084737547
 30
0.0
 41
1.0
  0
POLYLINE
  5
E2
330
1F
100
AcDbEntity
  8
FRAME
100
AcDb2dPolyline
 66
     1
 10
0.0
 20
0.0
 30
0.0
  0
VERTEX
  5
E3
330
E2
100
AcDbEntity
  8
FRAME
100
AcDbVertex
100
AcDb2dVertex
 10
5.301678849710342
 20
-11.07342242217862
 30
0.0
  0
VERTEX
  5
E4
330
E2
100
AcDbEntity
  8
FRAME
100
AcDbVertex
100
AcDb2dVertex
 10
5.505446011178975
 20
-11.07342242217862
 30
0.0
  0
SEQEND
  5
E5
330
E2
100
AcDbEntity
  8
FRAME
  0
POLYLINE
  5
E6
330
1F
100
AcDbEntity
  8
FRAME
100
AcDb2dPolyline
 66
     1
 10
0.0
 20
0.0
 30
0.0
  0
VERTEX
  5
E7
330
E6
100
AcDbEntity
  8
FRAME
100
AcDbVertex
100
AcDb2dVertex
 10
-4.533924029913308
 20
-8.09012770199842
 30
0.0
  0
VERTEX
  5
E8
330
E6
100
AcDbEntity
  8
FRAME
100
AcDbVertex
100
AcDb2dVertex
 10
-4.533924029913308
 20
-9.090181709291318
 30
0.0
  0
SEQEND
  5
E9
330
E6
100
AcDbEntity
  8
FRAME
  0
SPLINE
  5
EA
330
1F
100
AcDbEntity
  8
FRAME
100
AcDbSpline
210
0.0
220
0.0
230
1.0
 70
    28
 71
     3
 72
     8
 73
     4
 74
     0
 42
0.0000000001
 43
0.0000000001
 40
206.8669625029491
 40
206.8669625029491
 40
206.8669625029491
 40
206.8669625029491
 40
207.6543640777519
 40
207.6543640777519
 40
207.6543640777519
 40
207.6543640777519
 10
-3.746522455110523
 20
-8.09012770199842
 30
0.0
 41
0.9999999999678317
 10
-4.008989646711459
 20
-8.09012770199842
 30
0.0
 41
0.9999999999678317
 10
-4.271456838312394
 20
-8.09012770199842
 30
0.0
 41
0.9999999999678317
 10
-4.533924029913315
 20
-8.09012770199842
 30
0.0
 41
0.9999999999678317
  0
POLYLINE
  5
EB
330
1F
100
AcDbEntity
  8
FRAME
100
AcDb2dPolyline
 66
     1
 10
0.0
 20
0.0
 30
0.0
  0
VERTEX
  5
EC
330
EB
100
AcDbEntity
  8
FRAME
100
AcDbVertex
100
AcDb2dVertex
 10
-3.746522455110536
 20
-9.090181709291318
 30
0.0
  0
VERTEX
  5
ED
330
EB
100
AcDbEntity
  8
FRAME
100
AcDbVertex
100
AcDb2dVertex
 10
-3.746522455110522
 20
-8.09012770199842
 30
0.0
  0
SEQEND
  5
EE
330
EB
100
AcDbEntity
  8
FRAME
  0
SPLINE
  5
EF
330
1F
100
AcDbEntity
  8
FRAME
100
AcDbSpline
210
0.0
220
0.0
230
1.0
 70
    28
 71
     2
 72
     6
 73
     3
 74
     0
 42
0.0000000001
 43
0.0000000001
 40
-243.1895845135981
 40
-243.1895845135981
 40
-243.1895845135981
 40
-242.4021829387953
 40
-242.4021829387953
 40
-242.4021829387953
 10
-4.533924029913308
 20
-9.090181709291318
 30
0.0
 41
1.0
 10
-4.140223242511922
 20
-9.090181709291318
 30
0.0
 41
1.0
 10
-3.746522455110536
 20
-9.090181709291318
 30
0.0
 41
1.0
  0
SPLINE
  5
F0
330
1F
100
AcDbEntity
  8
FRAME
100
AcDbSpline
210
0.0
220
0.0
230
1.0
 70
    28
 71
     3
 72
     8
 73
     4
 74
     0
 42
0.0000000001
 43
0.0000000001
 40
181.7341467606475
 40
181.7341467606475
 40
181.7341467606475
 40
181.7341467606475
 40
182.5215483354502
 40
182.5215483354502
 40
182.5215483354502
 40
182.5215483354502
 10
-4.533924029913306
 20
-1.34012770199842
 30
0.0
 41
1.000000000044485
 10
-4.271456838312382
 20
-1.34012770199842
 30
0.0
 41
1.000000000044485
 10
-4.008989646711457
 20
-1.34012770199842
 30
0.0
 41
1.000000000044485
 10
-3.746522455110533
 20
-1.34012770199842
 30
0.0
 41
1.000000000044485
  0
POLYLINE
  5
F1
330
1F
100
AcDbEntity
  8
FRAME
100
AcDb2dPolyline
 66
     1
 10
0.0
 20
0.0
 30
0.0
  0
VERTEX
  5
F2
330
F1
100
AcDbEntity
  8
FRAME
100
AcDbVertex
100
AcDb2dVertex
 10
-4.533924029913308
 20
-0.8519215404683997
 30
0.0
  0
VERTEX
  5
F3
330
F1
100
AcDbEntity
  8
FRAME
100
AcDbVertex
100
AcDb2dVertex
 10
-4.533924029913308
 20
-1.340127701998419
 30
0.0
  0
SEQEND
  5
F4
330
F1
100
AcDbEntity
  8
FRAME
  0
SPLINE
  5
F5
330
1F
100
AcDbEntity
  8
FRAME
100
AcDbSpline
210
0.0
220
0.0
230
1.0
 70
    28
 71
     2
 72
     6
 73
     3
 74
     0
 42
0.0000000001
 43
0.0000000001
 40
223.8313866120005
 40
223.8313866120005
 40
223.8313866120005
 40
224.6187881868032
 40
224.6187881868032
 40
224.6187881868032
 10
-3.746522455110536
 20
-0.8519215404683997
 30
0.0
 41
1.0
 10
-4.140223242511922
 20
-0.8519215404683997
 30
0.0
 41
1.0
 10
-4.533924029913308
 20
-0.8519215404683997
 30
0.0
 41
1.0
  0
POLYLINE
  5
F6
330
1F
100
AcDbEntity
  8
FRAME
100
AcDb2dPolyline
 66
     1
 10
0.0
 20
0.0
 30
0.0
  0
VERTEX
  5
F7
330
F6
100
AcDbEntity
  8
FRAME
100
AcDbVertex
100
AcDb2dVertex
 10
-3.746522455110536
 20
-1.340127701998419
 30
0.0
  0
VERTEX
  5
F8
330
F6
100
AcDbEntity
  8
FRAME
100
AcDbVertex
100
AcDb2dVertex
 10
-3.746522455110536
 20
-0.8519215404683997
 30
0.0
  0
SEQEND
  5
F9
330
F6
100
AcDbEntity
  8
FRAME
  0
POLYLINE
  5
FA
330
1F
100
AcDbEntity
  8
FRAME
100
AcDb2dPolyline
 66
     1
 10
0.0
 20
0.0
 30
0.0
  0
VERTEX
  5
FB
330
FA
100
AcDbEntity
  8
FRAME
100
AcDbVertex
100
AcDb2dVertex
 10
-74.61264155207674
 20
-1.340127701998419
 30
0.0
  0
VERTEX
  5
FC
330
FA
100
AcDbEntity
  8
FRAME
100
AcDbVertex
100
AcDb2dVertex
 10
-74.61264155207675
 20
-0.8519215404683891
 30
0.0
  0
SEQEND
  5
FD
330
FA
100
AcDbEntity
  8
FRAME
  0
SPLINE
  5
FE
330
1F
100
AcDbEntity
  8
FRAME
100
AcDbSpline
210
0.0
220
0.0
230
1.0
 70
    28
 71
     3
 72
     8
 73
     4
 74
     0
 42
0.0000000001
 43
0.0000000001
 40
110.8680276636812
 40
110.8680276636812
 40
110.8680276636812
 40
110.8680276636812
 40
111.655429238484
 40
111.655429238484
 40
111.655429238484
 40
111.655429238484
 10
-75.40004312687957
 20
-1.34012770199842
 30
0.0
 41
1.000000000044485
 10
-75.13757593527862
 20
-1.34012770199842
 30
0.0
 41
1.000000000044485
 10
-74.87510874367769
 20
-1.34012770199842
 30
0.0
 41
1.000000000044485
 10
-74.61264155207674
 20
-1.34012770199842
 30
0.0
 41
1.000000000044485
  0
POLYLINE
  5
FF
330
1F
100
AcDbEntity
  8
FRAME
100
AcDb2dPolyline
 66
     1
 10
0.0
 20
0.0
 30
0.0
  0
VERTEX
  5
100
330
FF
100
AcDbEntity
  8
FRAME
100
AcDbVertex
100
AcDb2dVertex
 10
-75.40004312687957
 20
-0.8519215404683891
 30
0.0
  0
VERTEX
  5
101
330
FF
100
AcDbEntity
  8
FRAME
100
AcDbVertex
100
AcDb2dVertex
 10
-75.40004312687957
 20
-1.340127701998419
 30
0.0
  0
SEQEND
  5
102
330
FF
100
AcDbEntity
  8
FRAME
  0
SPLINE
  5
103
330
1F
100
AcDbEntity
  8
FRAME
100
AcDbSpline
210
0.0
220
0.0
230
1.0
 70
    28
 71
     2
 72
     6
 73
     3
 74
     0
 42
0.0000000001
 43
0.0000000001
 40
294.6975057089667
 40
294.6975057089667
 40
294.6975057089667
 40
295.4849072837695
 40
295.4849072837695
 40
295.4849072837695
 10
-74.61264155207675
 20
-0.8519215404683891
 30
0.0
 41
1.0
 10
-75.00634233947817
 20
-0.8519215404683891
 30
0.0
 41
1.0
 10
-75.40004312687957
 20
-0.8519215404683891
 30
0.0
 41
1.0
  0
POLYLINE
  5
104
330
1F
100
AcDbEntity
  8
FRAME
100
AcDb2dPolyline
 66
     1
 10
0.0
 20
0.0
 30
0.0
  0
VERTEX
  5
105
330
104
100
AcDbEntity
  8
FRAME
100
AcDbVertex
100
AcDb2dVertex
 10
-75.40004312687955
 20
-8.09012770199842
 30
0.0
  0
VERTEX
  5
106
330
104
100
AcDbEntity
  8
FRAME
100
AcDbVertex
100
AcDb2dVertex
 10
-75.40004312687952
 20
-9.090181709291318
 30
0.0
  0
SEQEND
  5
107
330
104
100
AcDbEntity
  8
FRAME
  0
SPLINE
  5
108
330
1F
100
AcDbEntity
  8
FRAME
100
AcDbSpline
210
0.0
220
0.0
230
1.0
 70
    28
 71
     3
 72
     8
 73
     4
 74
     0
 42
0.0000000001
 43
0.0000000001
 40
277.7330815999152
 40
277.7330815999152
 40
277.7330815999152
 40
277.7330815999152
 40
278.5204831747181
 40
278.5204831747181
 40
278.5204831747181
 40
278.5204831747181
 10
-74.61264155207671
 20
-8.09012770199842
 30
0.0
 41
0.9999999999678317
 10
-74.87510874367766
 20
-8.09012770199842
 30
0.0
 41
0.9999999999678317
 10
-75.1375759352786
 20
-8.09012770199842
 30
0.0
 41
0.9999999999678317
 10
-75.40004312687955
 20
-8.09012770199842
 30
0.0
 41
0.9999999999678317
  0
POLYLINE
  5
109
330
1F
100
AcDbEntity
  8
FRAME
100
AcDb2dPolyline
 66
     1
 10
0.0
 20
0.0
 30
0.0
  0
VERTEX
  5
10A
330
109
100
AcDbEntity
  8
FRAME
100
AcDbVertex
100
AcDb2dVertex
 10
-74.61264155207671
 20
-9.090181709291318
 30
0.0
  0
VERTEX
  5
10B
330
109
100
AcDbEntity
  8
FRAME
100
AcDbVertex
100
AcDb2dVertex
 10
-74.61264155207671
 20
-8.09012770199842
 30
0.0
  0
SEQEND
  5
10C
330
109
100
AcDbEntity
  8
FRAME
  0
SPLINE
  5
10D
330
1F
100
AcDbEntity
  8
FRAME
100
AcDbSpline
210
0.0
220
0.0
230
1.0
 70
    28
 71
     2
 72
     6
 73
     3
 74
     0
 42
0.0000000001
 43
0.0000000001
 40
-314.0557036105643
 40
-314.0557036105643
 40
-314.0557036105643
 40
-313.2683020357615
 40
-313.2683020357615
 40
-313.2683020357615
 10
-75.40004312687952
 20
-9.090181709291318
 30
0.0
 41
1.0
 10
-75.00634233947811
 20
-9.090181709291318
 30
0.0
 41
1.0
 10
-74.61264155207671
 20
-9.090181709291318
 30
0.0
 41
1.0
  0
ENDSEC
  0
SECTION
  2
OBJECTS
  0
DICTIONARY
  5
C
330
0
100
AcDbDictionary
281
     1
  3
ACAD_GROUP
350
D
  3
ACAD_LAYOUT
350
1A
  3
ACAD_MLEADERSTYLE
350
10F
  3
ACAD_MLINESTYLE
350
17
  3
ACAD_PLOTSETTINGS
350
19
  3
ACAD_PLOTSTYLENAME
350
E
  3
ACAD_TABLESTYLE
350
10E
  3
ACAD_VISUALSTYLE
350
2A
  0
DICTIONARY
  5
D
102
{ACAD_REACTORS
330
C
102
}
330
C
100
AcDbDictionary
281
     1
  0
DICTIONARY
  5
1A
102
{ACAD_REACTORS
330
C
102
}
330
C
100
AcDbDictionary
281
     1
  3
Layout1
350
1E
  3
Layout2
350
26
  3
Model
350
22
  0
DICTIONARY
  5
10F
102
{ACAD_REACTORS
330
C
102
}
330
C
100
AcDbDictionary
281
     1
  0
DICTIONARY
  5
17
102
{ACAD_REACTORS
330
C
102
}
330
C
100
AcDbDictionary
281
     1
  3
Standard
350
18
  0
DICTIONARY
  5
19
102
{ACAD_REACTORS
330
C
102
}
330
C
100
AcDbDictionary
281
     1
  0
ACDBDICTIONARYWDFLT
  5
E
102
{ACAD_REACTORS
330
C
102
}
330
C
100
AcDbDictionary
281
     1
  3
Normal
350
F
100
AcDbDictionaryWithDefault
340
F
  0
DICTIONARY
  5
10E
102
{ACAD_REACTORS
330
C
102
}
330
C
100
AcDbDictionary
281
     1
  0
DICTIONARY
  5
2A
102
{ACAD_REACTORS
330
C
102
}
330
C
100
AcDbDictionary
281
     1
  3
2dWireframe
350
2F
  3
3D Hidden
350
31
  3
3dWireframe
350
30
  3
Basic
350
32
  3
Brighten
350
36
  3
ColorChange
350
3A
  3
Conceptual
350
34
  3
Dim
350
35
  3
Facepattern
350
39
  3
Flat
350
2B
  3
FlatWithEdges
350
2C
  3
Gouraud
350
2D
  3
GouraudWithEdges
350
2E
  3
Linepattern
350
38
  3
Realistic
350
33
  3
Thicken
350
37
  0
LAYOUT
  5
1E
102
{ACAD_REACTORS
330
1A
102
}
330
1A
100
AcDbPlotSettings
  1

  2
none_device
  4

  6

 40
0.0
 41
0.0
 42
0.0
 43
0.0
 44
0.0
 45
0.0
 46
0.0
 47
0.0
 48
0.0
 49
0.0
140
0.0
141
0.0
142
1.0
143
1.0
 70
   688
 72
     0
 73
     0
 74
     5
  7

 75
    16
 76
     0
 77
     2
 78
   300
147
1.0
148
0.0
149
0.0
100
AcDbLayout
  1
Layout1
 70
     1
 71
     1
 10
0.0
 20
0.0
 11
12.0
 21
9.0
 12
0.0
 22
0.0
 32
0.0
 14
1.000000000000000E+20
 24
1.000000000000000E+20
 34
1.000000000000000E+20
 15
-1.000000000000000E+20
 25
-1.000000000000000E+20
 35
-1.000000000000000E+20
146
0.0
 13
0.0
 23
0.0
 33
0.0
 16
1.0
 26
0.0
 36
0.0
 17
0.0
 27
1.0
 37
0.0
 76
     0
330
1B
  0
LAYOUT
  5
26
102
{ACAD_REACTORS
330
1A
102
}
330
1A
100
AcDbPlotSettings
  1

  2
none_device
  4

  6

 40
0.0
 41
0.0
 42
0.0
 43
0.0
 44
0.0
 45
0.0
 46
0.0
 47
0.0
 48
0.0
 49
0.0
140
0.0
141
0.0
142
1.0
143
1.0
 70
   688
 72
     0
 73
     0
 74
     5
  7

 75
    16
 76
     0
 77
     2
 78
   300
147
1.0
148
0.0
149
0.0
100
AcDbLayout
  1
Layout2
 70
     1
 71
     2
 10
0.0
 20
0.0
 11
0.0
 21
0.0
 12
0.0
 22
0.0
 32
0.0
 14
0.0
 24
0.0
 34
0.0
 15
0.0
 25
0.0
 35
0.0
146
0.0
 13
0.0
 23
0.0
 33
0.0
 16
1.0
 26
0.0
 36
0.0
 17
0.0
 27
1.0
 37
0.0
 76
     0
330
23
  0
LAYOUT
  5
22
102
{ACAD_REACTORS
330
1A
102
}
330
1A
100
AcDbPlotSettings
  1

  2
none_device
  4

  6

 40
0.0
 41
0.0
 42
0.0
 43
0.0
 44
0.0
 45
0.0
 46
0.0
 47
0.0
 48
0.0
 49
0.0
140
0.0
141
0.0
142
1.0
143
1.0
 70
  1712
 72
     0
 73
     0
 74
     0
  7

 75
     0
 76
     0
 77
     2
 78
   300
147
1.0
148
0.0
149
0.0
100
AcDbLayout
  1
Model
 70
     1
 71
     0
 10
0.0
 20
0.0
 11
12.0
 21
9.0
 12
0.0
 22
0.0
 32
0.0
 14
-84.44833465211282
 24
-28.09018170929133
 34
0.0
 15
84.44833465211282
 25
28.09018170929132
 35
0.0
146
0.0
 13
0.0
 23
0.0
 33
0.0
 16
1.0
 26
0.0
 36
0.0
 17
0.0
 27
1.0
 37
0.0
 76
     0
330
1F
331
29
  0
MLINESTYLE
  5
18
102
{ACAD_REACTORS
330
17
102
}
330
17
100
AcDbMlineStyle
  2
Standard
 70
     0
  3

 62
   256
 51
90.0
 52
90.0
 71
     2
 49
0.5
 62
   256
  6
BYLAYER
 49
-0.5
 62
   256
  6
BYLAYER
  0
ACDBPLACEHOLDER
  5
F
102
{ACAD_REACTORS
330
E
102
}
330
E
  0
VISUALSTYLE
  5
2F
102
{ACAD_REACTORS
330
2A
102
}
330
2A
100
AcDbVisualStyle
  2
2dWireframe
 70
     4
 71
     0
 72
     2
 73
     0
 90
        0
 40
-0.6
 41
-30.0
 62
     5
 63
     7
421
 16777215
 74
     1
 91
        4
 64
     7
 65
   257
 75
     1
175
     1
 42
1.0
 92
        0
 66
   257
 43
1.0
 76
     1
 77
     6
 78
     2
 67
     7
 79
     5
170
     0
171
     0
290
     0
174
     0
 93
        1
 44
0.0
173
     0
291
     0
 45
0.0
1001
ACAD
1000
AcDbSavedByObjectVersion
1070
     0
  0
VISUALSTYLE
  5
31
102
{ACAD_REACTORS
330
2A
102
}
330
2A
100
AcDbVisualStyle
  2
3D Hidden
 70
     6
 71
     1
 72
     2
 73
     2
 90
        0
 40
-0.6
 41
-30.0
 62
     5
 63
     7
421
 16777215
 74
     2
 91
        2
 64
     7
 65
   257
 75
     2
175
     1
 42
40.0
 92
        0
 66
   257
 43
1.0
 76
     1
 77
     6
 78
     2
 67
     7
 79
     3
170
     0
171
     0
290
     0
174
     0
 93
        1
 44
0.0
173
     0
291
     0
 45
0.0
1001
ACAD
1000
AcDbSavedByObjectVersion
1070
     0
  0
VISUALSTYLE
  5
30
102
{ACAD_REACTORS
330
2A
102
}
330
2A
100
AcDbVisualStyle
  2
3dWireframe
 70
     5
 71
     0
 72
     2
 73
     0
 90
        0
 40
-0.6
 41
-30.0
 62
     5
 63
     7
421
 16777215
 74
     1
 91
        4
 64
     7
 65
   257
 75
     1
175
     1
 42
1.0
 92
        0
 66
   257
 43
1.0
 76
     1
 77
     6
 78
     2
 67
     7
 79
     5
170
     0
171
     0
290
     0
174
     0
 93
        1
 44
0.0
173
     0
291
     0
 45
0.0
1001
ACAD
1000
AcDbSavedByObjectVersion
1070
     0
  0
VISUALSTYLE
  5
32
102
{ACAD_REACTORS
330
2A
102
}
330
2A
100
AcDbVisualStyle
  2
Basic
 70
     7
 71
     1
 72
     0
 73
     1
 90
        0
 40
-0.6
 41
-30.0
 62
     5
 63
     7
421
 16777215
 74
     0
 91
        4
 64
     7
 65
   257
 75
     1
175
     1
 42
1.0
 92
        8
 66
     7
 43
1.0
 76
     1
 77
     6
 78
     2
 67
     7
 79
     5
170
     0
171
     0
290
     0
174
     0
 93
        1
 44
0.0
173
     0
291
     1
 45
0.0
1001
ACAD
1000
AcDbSavedByObjectVersion
1070
     0
  0
VISUALSTYLE
  5
36
102
{ACAD_REACTORS
330
2A
102
}
330
2A
100
AcDbVisualStyle
  2
Brighten
 70
    12
 71
     2
 72
     2
 73
     0
 90
        0
 40
-0.6
 41
-30.0
 62
     5
 63
     7
421
 16777215
 74
     1
 91
        4
 64
     7
 65
   257
 75
     1
175
     1
 42
1.0
 92
        8
 66
     7
 43
1.0
 76
     1
 77
     6
 78
     2
 67
     7
 79
     5
170
     0
171
     0
290
     0
174
     0
 93
        1
 44
50.0
173
     0
291
     1
 45
0.0
1001
ACAD
1000
AcDbSavedByObjectVersion
1070
     0
  0
VISUALSTYLE
  5
3A
102
{ACAD_REACTORS
330
2A
102
}
330
2A
100
AcDbVisualStyle
  2
ColorChange
 70
    16
 71
     2
 72
     2
 73
     3
 90
        0
 40
-0.6
 41
-30.0
 62
     5
 63
     8
421
  8421504
 74
     1
 91
        4
 64
     7
 65
   257
 75
     1
175
     1
 42
1.0
 92
        8
 66
     8
424
  8421504
 43
1.0
 76
     1
 77
     6
 78
     2
 67
     7
 79
     5
170
     0
171
     0
290
     0
174
     0
 93
        1
 44
0.0
173
     0
291
     1
 45
0.0
1001
ACAD
1000
AcDbSavedByObjectVersion
1070
     0
  0
VISUALSTYLE
  5
34
102
{ACAD_REACTORS
330
2A
102
}
330
2A
100
AcDbVisualStyle
  2
Conceptual
 70
     9
 71
     3
 72
     2
 73
     0
 90
        0
 40
-0.6
 41
-30.0
 62
     5
 63
     7
421
 16777215
 74
     2
 91
        2
 64
     7
 65
   257
 75
     1
175
     1
 42
40.0
 92
        8
 66
     7
 43
1.0
 76
     1
 77
     6
 78
     2
 67
     7
 79
     3
170
     0
171
     0
290
     0
174
     0
 93
        1
 44
0.0
173
     0
291
     0
 45
0.0
1001
ACAD
1000
AcDbSavedByObjectVersion
1070
     0
  0
VISUALSTYLE
  5
35
102
{ACAD_REACTORS
330
2A
102
}
330
2A
100
AcDbVisualStyle
  2
Dim
 70
    11
 71
     2
 72
     2
 73
     0
 90
        0
 40
-0.6
 41
-30.0
 62
     5
 63
     7
421
 16777215
 74
     1
 91
        4
 64
     7
 65
   257
 75
     1
175
     1
 42
1.0
 92
        8
 66
     7
 43
1.0
 76
     1
 77
     6
 78
     2
 67
     7
 79
     5
170
     0
171
     0
290
     0
174
     0
 93
        1
 44
-50.0
173
     0
291
     1
 45
0.0
1001
ACAD
1000
AcDbSavedByObjectVersion
1070
     0
  0
VISUALSTYLE
  5
39
102
{ACAD_REACTORS
330
2A
102
}
330
2A
100
AcDbVisualStyle
  2
Facepattern
 70
    15
 71
     2
 72
     2
 73
     0
 90
        0
 40
-0.6
 41
-30.0
 62
     5
 63
     7
421
 16777215
 74
     1
 91
        4
 64
     7
 65
   257
 75
     1
175
     1
 42
1.0
 92
        8
 66
     7
 43
1.0
 76
     1
 77
     6
 78
     2
 67
     7
 79
     5
170
     0
171
     0
290
     0
174
     0
 93
        1
 44
0.0
173
     0
291
     1
 45
0.0
1001
ACAD
1000
AcDbSavedByObjectVersion
1070
     0
  0
VISUALSTYLE
  5
2B
102
{ACAD_REACTORS
330
2A
102
}
330
2A
100
AcDbVisualStyle
  2
Flat
 70
     0
 71
     2
 72
     1
 73
     1
 90
        2
 40
-0.6
 41
30.0
 62
     5
 63
     7
421
 16777215
 74
     0
 91
        4
 64
     7
 65
   257
 75
     1
175
     1
 42
1.0
 92
        8
 66
     7
 43
1.0
 76
     1
 77
     6
 78
     2
 67
     7
 79
     5
170
     0
171
     0
290
     0
174
     0
 93
       13
 44
0.0
173
     0
291
     1
 45
0.0
1001
ACAD
1000
AcDbSavedByObjectVersion
1070
     0
  0
VISUALSTYLE
  5
2C
102
{ACAD_REACTORS
330
2A
102
}
330
2A
100
AcDbVisualStyle
  2
FlatWithEdges
 70
     1
 71
     2
 72
     1
 73
     1
 90
        2
 40
-0.6
 41
30.0
 62
     5
 63
     7
421
 16777215
 74
     1
 91
        4
 64
     7
 65
   257
 75
     1
175
     1
 42
1.0
 92
        0
 66
   257
 43
1.0
 76
     1
 77
     6
 78
     2
 67
     7
 79
     5
170
     0
171
     0
290
     0
174
     0
 93
       13
 44
0.0
173
     0
291
     1
 45
0.0
1001
ACAD
1000
AcDbSavedByObjectVersion
1070
     0
  0
VISUALSTYLE
  5
2D
102
{ACAD_REACTORS
330
2A
102
}
330
2A
100
AcDbVisualStyle
  2
Gouraud
 70
     2
 71
     2
 72
     2
 73
     1
 90
        2
 40
-0.6
 41
30.0
 62
     5
 63
     7
421
 16777215
 74
     0
 91
        4
 64
     7
 65
   257
 75
     1
175
     1
 42
1.0
 92
        0
 66
     7
 43
1.0
 76
     1
 77
     6
 78
     2
 67
     7
 79
     5
170
     0
171
     0
290
     0
174
     0
 93
       13
 44
0.0
173
     0
291
     1
 45
0.0
1001
ACAD
1000
AcDbSavedByObjectVersion
1070
     0
  0
VISUALSTYLE
  5
2E
102
{ACAD_REACTORS
330
2A
102
}
330
2A
100
AcDbVisualStyle
  2
GouraudWithEdges
 70
     3
 71
     2
 72
     2
 73
     1
 90
        2
 40
-0.6
 41
30.0
 62
     5
 63
     7
421
 16777215
 74
     1
 91
        4
 64
     7
 65
   257
 75
     1
175
     1
 42
1.0
 92
        0
 66
   257
 43
1.0
 76
     1
 77
     6
 78
     2
 67
     7
 79
     5
170
     0
171
     0
290
     0
174
     0
 93
       13
 44
0.0
173
     0
291
     1
 45
0.0
1001
ACAD
1000
AcDbSavedByObjectVersion
1070
     0
  0
VISUALSTYLE
  5
38
102
{ACAD_REACTORS
330
2A
102
}
330
2A
100
AcDbVisualStyle
  2
Linepattern
 70
    14
 71
     2
 72
     2
 73
     0
 90
        0
 40
-0.6
 41
-30.0
 62
     5
 63
     7
421
 16777215
 74
     1
 91
        4
 64
     7
 65
   257
 75
     7
175
     7
 42
1.0
 92
        8
 66
     7
 43
1.0
 76
     1
 77
     6
 78
     2
 67
     7
 79
     5
170
     0
171
     0
290
     0
174
     0
 93
        1
 44
0.0
173
     0
291
     1
 45
0.0
1001
ACAD
1000
AcDbSavedByObjectVersion
1070
     0
  0
VISUALSTYLE
  5
33
102
{ACAD_REACTORS
330
2A
102
}
330
2A
100
AcDbVisualStyle
  2
Realistic
 70
     8
 71
     2
 72
     2
 73
     0
 90
        0
 40
-0.6
 41
-30.0
 62
     5
 63
     7
421
 16777215
 74
     1
 91
        0
 64
     7
 65
   257
 75
     1
175
     1
 42
1.0
 92
        8
 66
     8
424
  7895160
 43
1.0
 76
     1
 77
     6
 78
     2
 67
     7
 79
     5
170
     0
171
     0
290
     0
174
     0
 93
       13
 44
0.0
173
     0
291
     0
 45
0.0
1001
ACAD
1000
AcDbSavedByObjectVersion
1070
     0
  0
VISUALSTYLE
  5
37
102
{ACAD_REACTORS
330
2A
102
}
330
2A
100
AcDbVisualStyle
  2
Thicken
 70
    13
 71
     2
 72
     2
 73
     0
 90
        0
 40
-0.6
 41
-30.0
 62
     5
 63
     7
421
 16777215
 74
     1
 91
        4
 64
     7
 65
   257
 75
     1
175
     1
 42
1.0
 92
       12
 66
     7
 43
1.0
 76
     1
 77
     6
 78
     2
 67
     7
 79
     5
170
     0
171
     0
290
     0
174
     0
 93
        1
 44
0.0
173
     0
291
     1
 45
0.0
1001
ACAD
1000
AcDbSavedByObjectVersion
1070
     0
  0
ENDSEC
  0
EOF
