  0
SECTION
  2
HEADER
  9
$ACADVER
  1
AC1018
  9
$ACADMAINTVER
 70
     0
  9
$DWGCODEPAGE
  3
ANSI_1252
  9
$INSBASE
 10
0.0
 20
0.0
 30
0.0
  9
$EXTMIN
 10
-52.77171237880354
 20
-52.78199074995753
 30
0.0
  9
$EXTMAX
 10
52.77171237880354
 20
52.78199074995752
 30
0.0
  9
$LIMMIN
 10
0.0
 20
0.0
  9
$LIMMAX
 10
12.0
 20
9.0
  9
$ORTHOMODE
 70
     0
  9
$REGENMODE
 70
     1
  9
$FILLMODE
 70
     1
  9
$QTEXTMODE
 70
     0
  9
$MIRRTEXT
 70
     1
  9
$LTSCALE
 40
0.0393700787401575
  9
$ATTMODE
 70
     1
  9
$TEXTSIZE
 40
0.2
  9
$TRACEWID
 40
0.05
  9
$TEXTSTYLE
  7
Standard
  9
$CLAYER
  8
SEATS
  9
$CELTYPE
  6
ByLayer
  9
$CECOLOR
 62
   256
  9
$CELTSCALE
 40
1.0
  9
$DISPSILH
 70
     0
  9
$DIMSCALE
 40
1.0
  9
$DIMASZ
 40
0.18
  9
$DIMEXO
 40
0.0625
  9
$DIMDLI
 40
0.38
  9
$DIMRND
 40
0.0
  9
$DIMDLE
 40
0.0
  9
$DIMEXE
 40
0.18
  9
$DIMTP
 40
0.0
  9
$DIMTM
 40
0.0
  9
$DIMTXT
 40
0.18
  9
$DIMCEN
 40
0.09
  9
$DIMTSZ
 40
0.0
  9
$DIMTOL
 70
     0
  9
$DIMLIM
 70
     0
  9
$DIMTIH
 70
     1
  9
$DIMTOH
 70
     1
  9
$DIMSE1
 70
     0
  9
$DIMSE2
 70
     0
  9
$DIMTAD
 70
     0
  9
$DIMZIN
 70
     0
  9
$DIMBLK
  1

  9
$DIMASO
 70
     1
  9
$DIMSHO
 70
     1
  9
$DIMPOST
  1

  9
$DIMAPOST
  1

  9
$DIMALT
 70
     0
  9
$DIMALTD
 70
     2
  9
$DIMALTF
 40
25.4
  9
$DIMLFAC
 40
1.0
  9
$DIMTOFL
 70
     0
  9
$DIMTVP
 40
0.0
  9
$DIMTIX
 70
     0
  9
$DIMSOXD
 70
     0
  9
$DIMSAH
 70
     0
  9
$DIMBLK1
  1

  9
$DIMBLK2
  1

  9
$DIMSTYLE
  2
Standard
  9
$DIMCLRD
 70
     0
  9
$DIMCLRE
 70
     0
  9
$DIMCLRT
 70
     0
  9
$DIMTFAC
 40
1.0
  9
$DIMGAP
 40
0.09
  9
$DIMJUST
 70
     0
  9
$DIMSD1
 70
     0
  9
$DIMSD2
 70
     0
  9
$DIMTOLJ
 70
     1
  9
$DIMTZIN
 70
     0
  9
$DIMALTZ
 70
     0
  9
$DIMALTTZ
 70
     0
  9
$DIMUPT
 70
     0
  9
$DIMDEC
 70
     4
  9
$DIMTDEC
 70
     4
  9
$DIMALTU
 70
     2
  9
$DIMALTTD
 70
     2
  9
$DIMTXSTY
  7
Standard
  9
$DIMAUNIT
 70
     0
  9
$DIMADEC
 70
     0
  9
$DIMALTRND
 40
0.0
  9
$DIMAZIN
 70
     0
  9
$DIMDSEP
 70
    46
  9
$DIMATFIT
 70
     3
  9
$DIMFRAC
 70
     0
  9
$DIMLDRBLK
  1

  9
$DIMLUNIT
 70
     2
  9
$DIMLWD
 70
    -2
  9
$DIMLWE
 70
    -2
  9
$DIMTMOVE
 70
     2
  9
$LUNITS
 70
     2
  9
$LUPREC
 70
     3
  9
$SKETCHINC
 40
0.1
  9
$FILLETRAD
 40
0.5
  9
$AUNITS
 70
     0
  9
$AUPREC
 70
     0
  9
$MENU
  1
.
  9
$ELEVATION
 40
0.0
  9
$PELEVATION
 40
0.0
  9
$THICKNESS
 40
0.0
  9
$LIMCHECK
 70
     0
  9
$CHAMFERA
 40
0.5
  9
$CHAMFERB
 40
0.5
  9
$CHAMFERC
 40
1.0
  9
$CHAMFERD
 40
0.0
  9
$SKPOLY
 70
     0
  9
$TDCREATE
 40
2457539.904890428
  9
$TDUCREATE
 40
2457540.071557095
  9
$TDUPDATE
 40
2457539.90489044
  9
$TDUUPDATE
 40
2457540.071557106
  9
$TDINDWG
 40
0.0000000116
  9
$TDUSRTIMER
 40
0.0000000116
  9
$USRTIMER
 70
     1
  9
$ANGBASE
 50
0.0
  9
$ANGDIR
 70
     0
  9
$PDMODE
 70
     0
  9
$PDSIZE
 40
0.0
  9
$PLINEWID
 40
0.0
  9
$SPLFRAME
 70
     0
  9
$SPLINETYPE
 70
     6
  9
$SPLINESEGS
 70
     8
  9
$HANDSEED
  5
DC
  9
$SURFTAB1
 70
     6
  9
$SURFTAB2
 70
     6
  9
$SURFTYPE
 70
     6
  9
$SURFU
 70
     6
  9
$SURFV
 70
     6
  9
$UCSBASE
  2

  9
$UCSNAME
  2

  9
$UCSORG
 10
0.0
 20
0.0
 30
0.0
  9
$UCSXDIR
 10
1.0
 20
0.0
 30
0.0
  9
$UCSYDIR
 10
0.0
 20
1.0
 30
0.0
  9
$UCSORTHOREF
  2

  9
$UCSORTHOVIEW
 70
     0
  9
$UCSORGTOP
 10
0.0
 20
0.0
 30
0.0
  9
$UCSORGBOTTOM
 10
0.0
 20
0.0
 30
0.0
  9
$UCSORGLEFT
 10
0.0
 20
0.0
 30
0.0
  9
$UCSORGRIGHT
 10
0.0
 20
0.0
 30
0.0
  9
$UCSORGFRONT
 10
0.0
 20
0.0
 30
0.0
  9
$UCSORGBACK
 10
0.0
 20
0.0
 30
0.0
  9
$PUCSBASE
  2

  9
$PUCSNAME
  2

  9
$PUCSORG
 10
0.0
 20
0.0
 30
0.0
  9
$PUCSXDIR
 10
1.0
 20
0.0
 30
0.0
  9
$PUCSYDIR
 10
0.0
 20
1.0
 30
0.0
  9
$PUCSORTHOREF
  2

  9
$PUCSORTHOVIEW
 70
     0
  9
$PUCSORGTOP
 10
0.0
 20
0.0
 30
0.0
  9
$PUCSORGBOTTOM
 10
0.0
 20
0.0
 30
0.0
  9
$PUCSORGLEFT
 10
0.0
 20
0.0
 30
0.0
  9
$PUCSORGRIGHT
 10
0.0
 20
0.0
 30
0.0
  9
$PUCSORGFRONT
 10
0.0
 20
0.0
 30
0.0
  9
$PUCSORGBACK
 10
0.0
 20
0.0
 30
0.0
  9
$USERI1
 70
     0
  9
$USERI2
 70
     0
  9
$USERI3
 70
     0
  9
$USERI4
 70
     0
  9
$USERI5
 70
     0
  9
$USERR1
 40
0.0
  9
$USERR2
 40
0.0
  9
$USERR3
 40
0.0
  9
$USERR4
 40
0.0
  9
$USERR5
 40
0.0
  9
$WORLDVIEW
 70
     1
  9
$SHADEDGE
 70
     3
  9
$SHADEDIF
 70
    70
  9
$TILEMODE
 70
     1
  9
$MAXACTVP
 70
    64
  9
$PINSBASE
 10
0.0
 20
0.0
 30
0.0
  9
$PLIMCHECK
 70
     0
  9
$PEXTMIN
 10
1.000000000000000E+20
 20
1.000000000000000E+20
 30
1.000000000000000E+20
  9
$PEXTMAX
 10
-1.000000000000000E+20
 20
-1.000000000000000E+20
 30
-1.000000000000000E+20
  9
$PLIMMIN
 10
0.0
 20
0.0
  9
$PLIMMAX
 10
12.0
 20
9.0
  9
$UNITMODE
 70
     0
  9
$VISRETAIN
 70
     1
  9
$PLINEGEN
 70
     0
  9
$PSLTSCALE
 70
     1
  9
$TREEDEPTH
 70
  3020
  9
$CMLSTYLE
  2
Standard
  9
$CMLJUST
 70
     0
  9
$CMLSCALE
 40
1.0
  9
$PROXYGRAPHICS
 70
     1
  9
$MEASUREMENT
 70
     0
  9
$CELWEIGHT
370
    -1
  9
$ENDCAPS
280
     0
  9
$JOINSTYLE
280
     0
  9
$LWDISPLAY
290
     0
  9
$INSUNITS
 70
     1
  9
$HYPERLINKBASE
  1

  9
$STYLESHEET
  1

  9
$XEDIT
290
     1
  9
$CEPSNTYPE
380
     0
  9
$PSTYLEMODE
290
     1
  9
$FINGERPRINTGUID
  2
{A25583E1-427A-4F4E-82BC-556A8B20C498}
  9
$VERSIONGUID
  2
{FAEB1C32-E019-11D5-929B-00C0DF256EC4}
  9
$EXTNAMES
290
     1
  9
$PSVPSCALE
 40
0.0
  9
$OLESTARTUP
290
     0
  9
$SORTENTS
280
   127
  9
$INDEXCTL
280
     0
  9
$HIDETEXT
280
     1
  9
$XCLIPFRAME
290
     0
  9
$HALOGAP
280
     0
  9
$OBSCOLOR
 70
   257
  9
$OBSLTYPE
280
     0
  9
$INTERSECTIONDISPLAY
280
     0
  9
$INTERSECTIONCOLOR
 70
   257
  9
$DIMASSOC
280
     2
  9
$PROJECTNAME
  1

  0
ENDSEC
  0
SECTION
  2
CLASSES
  0
CLASS
  1
ACDBDICTIONARYWDFLT
  2
AcDbDictionaryWithDefault
  3
ObjectDBX Classes
 90
        0
 91
        4
280
     0
281
     0
  0
CLASS
  1
VISUALSTYLE
  2
AcDbVisualStyle
  3
ObjectDBX Classes
 90
     4095
 91
        4
280
     0
281
     0
  0
ENDSEC
  0
SECTION
  2
TABLES
  0
TABLE
  2
VPORT
  5
8
330
0
100
AcDbSymbolTable
 70
     1
  0
VPORT
  5
29
330
8
100
AcDbSymbolTableRecord
100
AcDbViewportTableRecord
  2
*Active
 70
     0
 10
0.0
 20
0.0
 11
1.0
 21
1.0
 12
0.0
 22
0.0
 13
0.0
 23
0.0
 14
0.5
 24
0.5
 15
0.5
 25
0.5
 16
0.0
 26
0.0
 36
1.0
 17
0.0
 27
0.0
 37
0.0
 40
107.6752611299134
 41
0.9998052674594506
 42
50.0
 43
0.0
 44
0.0
 50
0.0
 51
0.0
 71
     0
 72
   100
 73
     1
 74
     3
 75
     0
 76
     0
 77
     0
 78
     0
281
     0
 65
     1
110
0.0
120
0.0
130
0.0
111
1.0
121
0.0
131
0.0
112
0.0
122
1.0
132
0.0
 79
     0
146
0.0
  0
ENDTAB
  0
TABLE
  2
LTYPE
  5
5
330
0
100
AcDbSymbolTable
 70
     1
  0
LTYPE
  5
14
330
5
100
AcDbSymbolTableRecord
100
AcDbLinetypeTableRecord
  2
ByBlock
 70
     0
  3

 72
    65
 73
     0
 40
0.0
  0
LTYPE
  5
15
330
5
100
AcDbSymbolTableRecord
100
AcDbLinetypeTableRecord
  2
ByLayer
 70
     0
  3

 72
    65
 73
     0
 40
0.0
  0
LTYPE
  5
16
330
5
100
AcDbSymbolTableRecord
100
AcDbLinetypeTableRecord
  2
Continuous
 70
     0
  3
Solid line
 72
    65
 73
     0
 40
0.0
  0
ENDTAB
  0
TABLE
  2
LAYER
  5
2
330
0
100
AcDbSymbolTable
 70
     4
  0
LAYER
  5
10
330
2
100
AcDbSymbolTableRecord
100
AcDbLayerTableRecord
  2
0
 70
     0
 62
     7
  6
Continuous
370
    -3
390
F
  0
LAYER
  5
3B
330
2
100
AcDbSymbolTableRecord
100
AcDbLayerTableRecord
  2
FRAME
 70
     0
 62
    15
  6
Continuous
370
    -3
390
F
  0
LAYER
  5
46
330
2
100
AcDbSymbolTableRecord
100
AcDbLayerTableRecord
  2
BACKS
 70
     0
 62
   253
  6
Continuous
370
    -3
390
F
  0
LAYER
  5
4F
330
2
100
AcDbSymbolTableRecord
100
AcDbLayerTableRecord
  2
SEATS
 70
     0
 62
   251
  6
Continuous
370
    -3
390
F
  0
ENDTAB
  0
TABLE
  2
STYLE
  5
3
330
0
100
AcDbSymbolTable
 70
     1
  0
STYLE
  5
11
330
3
100
AcDbSymbolTableRecord
100
AcDbTextStyleTableRecord
  2
Standard
 70
     0
 40
0.0
 41
1.0
 50
0.0
 71
     0
 42
0.2
  3
txt
  4

  0
ENDTAB
  0
TABLE
  2
VIEW
  5
6
330
0
100
AcDbSymbolTable
 70
     0
  0
ENDTAB
  0
TABLE
  2
UCS
  5
7
330
0
100
AcDbSymbolTable
 70
     0
  0
ENDTAB
  0
TABLE
  2
APPID
  5
9
330
0
100
AcDbSymbolTable
 70
     1
  0
APPID
  5
12
330
9
100
AcDbSymbolTableRecord
100
AcDbRegAppTableRecord
  2
ACAD
 70
     0
  0
ENDTAB
  0
TABLE
  2
DIMSTYLE
  5
A
330
0
100
AcDbSymbolTable
 70
     1
100
AcDbDimStyleTable
  0
DIMSTYLE
105
27
330
A
100
AcDbSymbolTableRecord
100
AcDbDimStyleTableRecord
  2
Standard
 70
     0
340
11
  0
ENDTAB
  0
TABLE
  2
BLOCK_RECORD
  5
1
330
0
100
AcDbSymbolTable
 70
     1
  0
BLOCK_RECORD
  5
1F
330
1
100
AcDbSymbolTableRecord
100
AcDbBlockTableRecord
  2
*Model_Space
340
22
  0
BLOCK_RECORD
  5
1B
330
1
100
AcDbSymbolTableRecord
100
AcDbBlockTableRecord
  2
*Paper_Space
340
1E
  0
BLOCK_RECORD
  5
23
330
1
100
AcDbSymbolTableRecord
100
AcDbBlockTableRecord
  2
*Paper_Space0
340
26
  0
ENDTAB
  0
ENDSEC
  0
SECTION
  2
BLOCKS
  0
BLOCK
  5
20
330
1F
100
AcDbEntity
  8
0
100
AcDbBlockBegin
  2
*Model_Space
 70
     0
 10
0.0
 20
0.0
 30
0.0
  3
*Model_Space
  1

  0
ENDBLK
  5
21
330
1F
100
AcDbEntity
  8
0
100
AcDbBlockEnd
  0
BLOCK
  5
1C
330
1B
100
AcDbEntity
 67
     1
  8
0
100
AcDbBlockBegin
  2
*Paper_Space
 70
     0
 10
0.0
 20
0.0
 30
0.0
  3
*Paper_Space
  1

  0
ENDBLK
  5
1D
330
1B
100
AcDbEntity
 67
     1
  8
0
100
AcDbBlockEnd
  0
BLOCK
  5
24
330
23
100
AcDbEntity
  8
0
100
AcDbBlockBegin
  2
*Paper_Space0
 70
     0
 10
0.0
 20
0.0
 30
0.0
  3
*Paper_Space0
  1

  0
ENDBLK
  5
25
330
23
100
AcDbEntity
  8
0
100
AcDbBlockEnd
  0
ENDSEC
  0
SECTION
  2
ENTITIES
  0
SPLINE
  5
3C
330
1F
100
AcDbEntity
  8
FRAME
100
AcDbSpline
210
0.0
220
0.0
230
1.0
 70
    12
 71
     2
 72
     6
 73
     3
 74
     0
 42
0.0000000001
 43
0.0000000001
 40
126.6755523459351
 40
126.6755523459351
 40
126.6755523459351
 40
127.4470689809777
 40
127.4470689809777
 40
127.4470689809777
 10
28.21298632770722
 20
16.74831526119767
 30
0.0
 41
0.9408996968336046
 10
28.41392539075216
 20
16.40972796630353
 30
0.0
 41
0.9408318761648111
 10
28.60672605391722
 20
16.06644125669233
 30
0.0
 41
0.9408995351425172
  0
POLYLINE
  5
3D
330
1F
100
AcDbEntity
  8
FRAME
100
AcDb2dPolyline
 66
     1
 10
0.0
 20
0.0
 30
0.0
  0
VERTEX
  5
3E
330
3D
100
AcDbEntity
  8
FRAME
100
AcDbVertex
100
AcDb2dVertex
 10
28.60672605391722
 20
16.06644125669233
 30
0.0
  0
VERTEX
  5
3F
330
3D
100
AcDbEntity
  8
FRAME
100
AcDbVertex
100
AcDb2dVertex
 10
29.47171499945118
 20
16.5658428572424
 30
0.0
  0
SEQEND
  5
40
330
3D
100
AcDbEntity
  8
FRAME
  0
SPLINE
  5
41
330
1F
100
AcDbEntity
  8
FRAME
100
AcDbSpline
210
0.0
220
0.0
230
1.0
 70
    12
 71
     2
 72
     6
 73
     3
 74
     0
 42
0.0000000001
 43
0.0000000001
 40
212.0384262505705
 40
212.0384262505705
 40
212.0384262505705
 40
212.8097627625739
 40
212.8097627625739
 40
212.8097627625739
 10
29.47171499945118
 20
16.5658428572424
 30
0.0
 41
0.9402633569819706
 10
29.27879575503354
 20
16.9090587767931
 30
0.0
 41
0.9402002966015771
 10
29.07793600164735
 20
17.24768890210586
 30
0.0
 41
0.94026474194809
  0
POLYLINE
  5
42
330
1F
100
AcDbEntity
  8
FRAME
100
AcDb2dPolyline
 66
     1
 10
0.0
 20
0.0
 30
0.0
  0
VERTEX
  5
43
330
42
100
AcDbEntity
  8
FRAME
100
AcDbVertex
100
AcDb2dVertex
 10
29.07793600164735
 20
17.24768890210586
 30
0.0
  0
VERTEX
  5
44
330
42
100
AcDbEntity
  8
FRAME
100
AcDbVertex
100
AcDb2dVertex
 10
28.21298632770722
 20
16.74831526119767
 30
0.0
  0
SEQEND
  5
45
330
42
100
AcDbEntity
  8
FRAME
  0
SPLINE
  5
47
330
1F
100
AcDbEntity
  8
BACKS
100
AcDbSpline
210
0.0
220
0.0
230
1.0
 70
    24
 71
     2
 72
     6
 73
     3
 74
     0
 42
0.0000000001
 43
0.0000000001
 40
0.2358449375378783
 40
0.2358449375378783
 40
0.2358449375378783
 40
4.991541588047721
 40
4.991541588047721
 40
4.991541588047721
 10
27.03725194551342
 20
0.0316798898510824
 30
0.0
 10
29.41510027076835
 20
0.0316798898510791
 30
0.0
 10
31.79294859602326
 20
0.0316798898510767
 30
0.0
  0
ARC
  5
48
330
1F
100
AcDbEntity
  8
BACKS
100
AcDbCircle
 10
31.79294859602327
 20
1.031679889851019
 30
0.0
 40
0.999999999999942
100
AcDbArc
 50
269.9999999999998
 51
1.858593533495736
  0
ARC
  5
49
330
1F
100
AcDbEntity
  8
BACKS
100
AcDbCircle
 10
-0.0000000000002549
 20
-0.0000000000001111
 30
0.0
 40
32.80968317705339
100
AcDbArc
 50
1.858593533493563
 51
58.15470781172745
  0
ARC
  5
4A
330
1F
100
AcDbEntity
  8
BACKS
100
AcDbCircle
 10
16.78366262745628
 20
27.02155829392953
 30
0.0
 40
0.999999999999914
100
AcDbArc
 50
58.1547078117253
 51
149.9999999999993
  0
SPLINE
  5
4B
330
1F
100
AcDbEntity
  8
BACKS
100
AcDbSpline
210
0.0
220
0.0
230
1.0
 70
    24
 71
     2
 72
     6
 73
     3
 74
     0
 42
0.0000000001
 43
0.0000000001
 40
0.2666558191867785
 40
0.2666558191867785
 40
0.2666558191867785
 40
5.022310492926407
 40
5.022310492926407
 40
5.022310492926407
 10
15.91763722367192
 20
27.5215582939295
 30
0.0
 10
14.728723555237
 20
25.46229941438715
 30
0.0
 10
13.53980988680208
 20
23.40304053484479
 30
0.0
  0
ARC
  5
4C
330
1F
100
AcDbEntity
  8
BACKS
100
AcDbCircle
 10
14.40583529058651
 20
22.90304053484479
 30
0.0
 40
1.0
100
AcDbArc
 50
149.9999999999998
 51
237.8304247948414
  0
ARC
  5
4D
330
1F
100
AcDbEntity
  8
BACKS
100
AcDbCircle
 10
0.0000000000000091
 20
0.0000000000000069
 30
0.0
 40
26.05692806214838
100
AcDbArc
 50
2.185216157779122
 51
57.83042479484249
  0
ARC
  5
4E
330
1F
100
AcDbEntity
  8
BACKS
100
AcDbCircle
 10
27.03725194551306
 20
1.031679889851081
 30
0.0
 40
0.9999999999999974
100
AcDbArc
 50
182.185216157781
 51
270.0000000000203
  0
ARC
  5
50
330
1F
100
AcDbEntity
  8
SEATS
100
AcDbCircle
 10
0.0000000000000458
 20
0.0000000000000343
 30
0.0
 40
33.80841810229681
100
AcDbArc
 50
1.698427120730165
 51
58.30157287926992
  0
ARC
  5
51
330
1F
100
AcDbEntity
  8
SEATS
100
AcDbCircle
 10
34.79312586401493
 20
1.031679889851076
 30
0.0
 40
1.0
100
AcDbArc
 50
181.6984271207322
 51
269.9999999999503
  0
LINE
  5
52
330
1F
100
AcDbEntity
  8
SEATS
100
AcDbLine
 10
34.79312586401406
 20
0.0316798898510752
 30
0.0
 11
51.77171237880344
 21
0.0316798898510922
 31
0.0
  0
ARC
  5
53
330
1F
100
AcDbEntity
  8
SEATS
100
AcDbCircle
 10
51.77171237880344
 20
1.03167988985118
 30
0.0
 40
1.000000000000088
100
AcDbArc
 50
270.0000000000004
 51
1.141609543934278
  0
ARC
  5
54
330
1F
100
AcDbEntity
  8
SEATS
100
AcDbCircle
 10
0.0000000000002448
 20
0.0000000000001496
 30
0.0
 40
52.78199074995724
100
AcDbArc
 50
1.141609543938316
 51
58.85839045606156
  0
ARC
  5
55
330
1F
100
AcDbEntity
  8
SEATS
100
AcDbCircle
 10
26.77931718258637
 20
44.31977817253949
 30
0.0
 40
1.000000000000095
100
AcDbArc
 50
58.85839045606029
 51
150.0000000000003
  0
LINE
  5
56
330
1F
100
AcDbEntity
  8
SEATS
100
AcDbLine
 10
25.91329177880185
 20
44.81977817253953
 30
0.0
 11
17.42399852140714
 21
30.11589093038004
 31
0.0
  0
ARC
  5
57
330
1F
100
AcDbEntity
  8
SEATS
100
AcDbCircle
 10
18.29002392519081
 20
29.61589093038049
 30
0.0
 40
0.9999999999991014
100
AcDbArc
 50
150.0000000000002
 51
238.3015728793148
  0
SPLINE
  5
58
330
1F
100
AcDbEntity
  8
FRAME
100
AcDbSpline
210
0.0
220
0.0
230
1.0
 70
    12
 71
     2
 72
     6
 73
     3
 74
     0
 42
0.0000000001
 43
0.0000000001
 40
126.6755523459351
 40
126.6755523459351
 40
126.6755523459351
 40
127.4470689809777
 40
127.4470689809777
 40
127.4470689809777
 10
28.61095965064139
 20
-16.05900524581867
 30
0.0
 41
0.9408996968336046
 10
28.41820398338688
 20
-16.40231722647531
 30
0.0
 41
0.9408318761648111
 10
28.21730930366454
 20
-16.74093085344834
 30
0.0
 41
0.9408995351425172
  0
POLYLINE
  5
59
330
1F
100
AcDbEntity
  8
FRAME
100
AcDb2dPolyline
 66
     1
 10
0.0
 20
0.0
 30
0.0
  0
VERTEX
  5
5A
330
59
100
AcDbEntity
  8
FRAME
100
AcDbVertex
100
AcDb2dVertex
 10
28.21730930366454
 20
-16.74093085344834
 30
0.0
  0
VERTEX
  5
5B
330
59
100
AcDbEntity
  8
FRAME
100
AcDbVertex
100
AcDb2dVertex
 10
29.08229824919849
 20
-17.24033245399843
 30
0.0
  0
SEQEND
  5
5C
330
59
100
AcDbEntity
  8
FRAME
  0
SPLINE
  5
5D
330
1F
100
AcDbEntity
  8
FRAME
100
AcDbSpline
210
0.0
220
0.0
230
1.0
 70
    12
 71
     2
 72
     6
 73
     3
 74
     0
 42
0.0000000001
 43
0.0000000001
 40
212.0384262505705
 40
212.0384262505705
 40
212.0384262505705
 40
212.8097627625739
 40
212.8097627625739
 40
212.8097627625739
 10
29.08229824919849
 20
-17.24033245399842
 30
0.0
 41
0.9402633569819706
 10
29.28307233230381
 20
-16.9016515276785
 30
0.0
 41
0.9402002966015771
 10
29.47590474661827
 20
-16.5583868159918
 30
0.0
 41
0.94026474194809
  0
POLYLINE
  5
5E
330
1F
100
AcDbEntity
  8
FRAME
100
AcDb2dPolyline
 66
     1
 10
0.0
 20
0.0
 30
0.0
  0
VERTEX
  5
5F
330
5E
100
AcDbEntity
  8
FRAME
100
AcDbVertex
100
AcDb2dVertex
 10
29.47590474661828
 20
-16.5583868159918
 30
0.0
  0
VERTEX
  5
60
330
5E
100
AcDbEntity
  8
FRAME
100
AcDbVertex
100
AcDb2dVertex
 10
28.61095965064139
 20
-16.05900524581867
 30
0.0
  0
SEQEND
  5
61
330
5E
100
AcDbEntity
  8
FRAME
  0
SPLINE
  5
62
330
1F
100
AcDbEntity
  8
BACKS
100
AcDbSpline
210
0.0
220
0.0
230
1.0
 70
    24
 71
     2
 72
     6
 73
     3
 74
     0
 42
0.0000000001
 43
0.0000000001
 40
0.2358449375378783
 40
0.2358449375378783
 40
0.2358449375378783
 40
4.991541588047721
 40
4.991541588047721
 40
4.991541588047721
 10
13.54606156215682
 20
-23.39910708840932
 30
0.0
 10
14.73498572478428
 20
-25.45838414442638
 30
0.0
 10
15.92390988741174
 20
-27.51766120044342
 30
0.0
  0
ARC
  5
63
330
1F
100
AcDbEntity
  8
BACKS
100
AcDbCircle
 10
16.78993529119613
 20
-27.01766120044345
 30
0.0
 40
0.999999999999942
100
AcDbArc
 50
209.9999999999996
 51
301.8585935334957
  0
ARC
  5
64
330
1F
100
AcDbEntity
  8
BACKS
100
AcDbCircle
 10
-0.0000000000002237
 20
0.0000000000001652
 30
0.0
 40
32.80968317705339
100
AcDbArc
 50
301.8585935334935
 51
358.1547078117274
  0
ARC
  5
65
330
1F
100
AcDbEntity
  8
BACKS
100
AcDbCircle
 10
31.79318724611321
 20
-1.024299056959868
 30
0.0
 40
0.999999999999914
100
AcDbArc
 50
358.1547078117252
 51
89.99999999999919
  0
SPLINE
  5
66
330
1F
100
AcDbEntity
  8
BACKS
100
AcDbSpline
210
0.0
220
0.0
230
1.0
 70
    24
 71
     2
 72
     6
 73
     3
 74
     0
 42
0.0000000001
 43
0.0000000001
 40
0.2666558191867785
 40
0.2666558191867785
 40
0.2666558191867785
 40
5.022310492926407
 40
5.022310492926407
 40
5.022310492926407
 10
31.79318724611322
 20
-0.0242990569599538
 30
0.0
 10
29.4153599092434
 20
-0.0242990569599373
 30
0.0
 10
27.03753257237359
 20
-0.0242990569599223
 30
0.0
  0
ARC
  5
67
330
1F
100
AcDbEntity
  8
BACKS
100
AcDbCircle
 10
27.03753257237358
 20
-1.024299056959923
 30
0.0
 40
1.0
100
AcDbArc
 50
89.99999999999959
 51
177.8304247948412
  0
ARC
  5
68
330
1F
100
AcDbEntity
  8
BACKS
100
AcDbCircle
 10
0.0000000000000105
 20
-0.0000000000000044
 30
0.0
 40
26.05692806214838
100
AcDbArc
 50
302.1852161577791
 51
357.8304247948424
  0
ARC
  5
69
330
1F
100
AcDbEntity
  8
BACKS
100
AcDbCircle
 10
14.41208696594108
 20
-22.89910708840902
 30
0.0
 40
0.9999999999999974
100
AcDbArc
 50
122.1852161577811
 51
210.0000000000205
  0
ARC
  5
6A
330
1F
100
AcDbEntity
  8
SEATS
100
AcDbCircle
 10
0.0000000000000526
 20
-0.0000000000000225
 30
0.0
 40
33.80841810229681
100
AcDbArc
 50
301.6984271207301
 51
358.3015728792699
  0
ARC
  5
6B
330
1F
100
AcDbEntity
  8
SEATS
100
AcDbCircle
 10
18.29002392519201
 20
-29.6158909303808
 30
0.0
 40
1.0
100
AcDbArc
 50
121.6984271207319
 51
209.9999999999501
  0
LINE
  5
6C
330
1F
100
AcDbEntity
  8
SEATS
100
AcDbLine
 10
17.42399852140713
 20
-30.11589093038004
 30
0.0
 11
25.91329177880183
 21
-44.81977817253954
 31
0.0
  0
ARC
  5
6D
330
1F
100
AcDbEntity
  8
SEATS
100
AcDbCircle
 10
26.77931718258634
 20
-44.31977817253949
 30
0.0
 40
1.000000000000088
100
AcDbArc
 50
209.9999999999999
 51
301.1416095439339
  0
ARC
  5
6E
330
1F
100
AcDbEntity
  8
SEATS
100
AcDbCircle
 10
0.000000000000252
 20
-0.0000000000001372
 30
0.0
 40
52.78199074995724
100
AcDbArc
 50
301.1416095439383
 51
358.8583904560616
  0
ARC
  5
6F
330
1F
100
AcDbEntity
  8
SEATS
100
AcDbCircle
 10
51.77171237880344
 20
-1.031679889851207
 30
0.0
 40
1.000000000000095
100
AcDbArc
 50
358.8583904560602
 51
90.0
  0
LINE
  5
70
330
1F
100
AcDbEntity
  8
SEATS
100
AcDbLine
 10
51.77171237880344
 20
-0.0316798898511128
 30
0.0
 11
34.79312586401405
 21
-0.0316798898510874
 31
0.0
  0
ARC
  5
71
330
1F
100
AcDbEntity
  8
SEATS
100
AcDbCircle
 10
34.79312586401406
 20
-1.031679889850189
 30
0.0
 40
0.9999999999991014
100
AcDbArc
 50
90.0
 51
178.3015728793146
  0
SPLINE
  5
72
330
1F
100
AcDbEntity
  8
FRAME
100
AcDbSpline
210
0.0
220
0.0
230
1.0
 70
    12
 71
     2
 72
     6
 73
     3
 74
     0
 42
0.0000000001
 43
0.0000000001
 40
126.6755523459351
 40
126.6755523459351
 40
126.6755523459351
 40
127.4470689809777
 40
127.4470689809777
 40
127.4470689809777
 10
0.3979733229341809
 20
-32.80732050701633
 30
0.0
 41
0.9408996968336046
 10
0.0042785926347259
 20
-32.81204519277882
 30
0.0
 41
0.9408318761648111
 10
-0.3894167502526791
 20
-32.80737211014065
 30
0.0
 41
0.9408995351425172
  0
POLYLINE
  5
73
330
1F
100
AcDbEntity
  8
FRAME
100
AcDb2dPolyline
 66
     1
 10
0.0
 20
0.0
 30
0.0
  0
VERTEX
  5
74
330
73
100
AcDbEntity
  8
FRAME
100
AcDbVertex
100
AcDb2dVertex
 10
-0.3894167502526791
 20
-32.80737211014065
 30
0.0
  0
VERTEX
  5
75
330
73
100
AcDbEntity
  8
FRAME
100
AcDbVertex
100
AcDb2dVertex
 10
-0.3894167502526873
 20
-33.80617531124081
 30
0.0
  0
SEQEND
  5
76
330
73
100
AcDbEntity
  8
FRAME
  0
SPLINE
  5
77
330
1F
100
AcDbEntity
  8
FRAME
100
AcDbSpline
210
0.0
220
0.0
230
1.0
 70
    12
 71
     2
 72
     6
 73
     3
 74
     0
 42
0.0000000001
 43
0.0000000001
 40
212.0384262505705
 40
212.0384262505705
 40
212.0384262505705
 40
212.8097627625739
 40
212.8097627625739
 40
212.8097627625739
 10
-0.3894167502526874
 20
-33.80617531124081
 30
0.0
 41
0.9402633569819706
 10
0.0042765772702746
 20
-33.81071030447158
 30
0.0
 41
0.9402002966015771
 10
0.3979687449709298
 20
-33.80607571809765
 30
0.0
 41
0.94026474194809
  0
POLYLINE
  5
78
330
1F
100
AcDbEntity
  8
FRAME
100
AcDb2dPolyline
 66
     1
 10
0.0
 20
0.0
 30
0.0
  0
VERTEX
  5
79
330
78
100
AcDbEntity
  8
FRAME
100
AcDbVertex
100
AcDb2dVertex
 10
0.3979687449709298
 20
-33.80607571809765
 30
0.0
  0
VERTEX
  5
7A
330
78
100
AcDbEntity
  8
FRAME
100
AcDbVertex
100
AcDb2dVertex
 10
0.397973322934181
 20
-32.80732050701633
 30
0.0
  0
SEQEND
  5
7B
330
78
100
AcDbEntity
  8
FRAME
  0
SPLINE
  5
7C
330
1F
100
AcDbEntity
  8
BACKS
100
AcDbSpline
210
0.0
220
0.0
230
1.0
 70
    24
 71
     2
 72
     6
 73
     3
 74
     0
 42
0.0000000001
 43
0.0000000001
 40
0.2358449375378783
 40
0.2358449375378783
 40
0.2358449375378783
 40
4.991541588047721
 40
4.991541588047721
 40
4.991541588047721
 10
-13.49119038335658
 20
-23.4307869782604
 30
0.0
 10
-14.68011454598405
 20
-25.49006403427745
 30
0.0
 10
-15.86903870861151
 20
-27.54934109029448
 30
0.0
  0
ARC
  5
7D
330
1F
100
AcDbEntity
  8
BACKS
100
AcDbCircle
 10
-15.00301330482712
 20
-28.04934109029446
 30
0.0
 40
0.999999999999942
100
AcDbArc
 50
149.9999999999997
 51
241.8585935334957
  0
ARC
  5
7E
330
1F
100
AcDbEntity
  8
BACKS
100
AcDbCircle
 10
0.0000000000000312
 20
0.0000000000002764
 30
0.0
 40
32.80968317705339
100
AcDbArc
 50
241.8585935334935
 51
298.1547078117274
  0
ARC
  5
7F
330
1F
100
AcDbEntity
  8
BACKS
100
AcDbCircle
 10
15.00952461865693
 20
-28.04585735088938
 30
0.0
 40
0.999999999999914
100
AcDbArc
 50
298.1547078117254
 51
29.99999999999932
  0
SPLINE
  5
80
330
1F
100
AcDbEntity
  8
BACKS
100
AcDbSpline
210
0.0
220
0.0
230
1.0
 70
    24
 71
     2
 72
     6
 73
     3
 74
     0
 42
0.0000000001
 43
0.0000000001
 40
0.2666558191867785
 40
0.2666558191867785
 40
0.2666558191867785
 40
5.022310492926407
 40
5.022310492926407
 40
5.022310492926407
 10
15.8755500224413
 20
-27.54585735088943
 30
0.0
 10
14.6866363540064
 20
-25.48659847134707
 30
0.0
 10
13.49772268557151
 20
-23.4273395918047
 30
0.0
  0
ARC
  5
81
330
1F
100
AcDbEntity
  8
BACKS
100
AcDbCircle
 10
12.63169728178707
 20
-23.9273395918047
 30
0.0
 40
1.0
100
AcDbArc
 50
29.99999999999975
 51
117.8304247948415
  0
ARC
  5
82
330
1F
100
AcDbEntity
  8
BACKS
100
AcDbCircle
 10
0.0000000000000015
 20
-0.0000000000000113
 30
0.0
 40
26.05692806214838
100
AcDbArc
 50
242.1852161577791
 51
297.8304247948424
  0
ARC
  5
83
330
1F
100
AcDbEntity
  8
BACKS
100
AcDbCircle
 10
-12.62516497957197
 20
-23.93078697826009
 30
0.0
 40
0.9999999999999974
100
AcDbArc
 50
62.18521615778105
 51
150.0000000000204
  0
ARC
  5
84
330
1F
100
AcDbEntity
  8
SEATS
100
AcDbCircle
 10
0.0000000000000069
 20
-0.0000000000000568
 30
0.0
 40
33.80841810229681
100
AcDbArc
 50
241.6984271207302
 51
298.3015728792699
  0
ARC
  5
85
330
1F
100
AcDbEntity
  8
SEATS
100
AcDbCircle
 10
-16.5031019388229
 20
-30.64757082023186
 30
0.0
 40
1.0
100
AcDbArc
 50
61.69842712073201
 51
149.9999999999502
  0
LINE
  5
86
330
1F
100
AcDbEntity
  8
SEATS
100
AcDbLine
 10
-17.36912734260691
 20
-30.14757082023111
 30
0.0
 11
-25.85842060000159
 21
-44.85145806239061
 31
0.0
  0
ARC
  5
87
330
1F
100
AcDbEntity
  8
SEATS
100
AcDbCircle
 10
-24.99239519621707
 20
-45.35145806239066
 30
0.0
 40
1.000000000000088
100
AcDbArc
 50
150.0000000000001
 51
241.1416095439339
  0
ARC
  5
88
330
1F
100
AcDbEntity
  8
SEATS
100
AcDbCircle
 10
0.0000000000000072
 20
-0.0000000000002868
 30
0.0
 40
52.78199074995724
100
AcDbArc
 50
241.1416095439383
 51
298.8583904560616
  0
ARC
  5
89
330
1F
100
AcDbEntity
  8
SEATS
100
AcDbCircle
 10
24.99239519621707
 20
-45.35145806239066
 30
0.0
 40
1.000000000000095
100
AcDbArc
 50
298.8583904560602
 51
30.00000000000016
  0
LINE
  5
8A
330
1F
100
AcDbEntity
  8
SEATS
100
AcDbLine
 10
25.85842060000159
 20
-44.85145806239061
 30
0.0
 11
17.36912734260691
 21
-30.1475708202311
 31
0.0
  0
ARC
  5
8B
330
1F
100
AcDbEntity
  8
SEATS
100
AcDbCircle
 10
16.50310193882325
 20
-30.64757082023065
 30
0.0
 40
0.9999999999991014
100
AcDbArc
 50
30.00000000000011
 51
118.3015728793147
  0
SPLINE
  5
8C
330
1F
100
AcDbEntity
  8
FRAME
100
AcDbSpline
210
0.0
220
0.0
230
1.0
 70
    12
 71
     2
 72
     6
 73
     3
 74
     0
 42
0.0000000001
 43
0.0000000001
 40
126.6755523459351
 40
126.6755523459351
 40
126.6755523459351
 40
127.4470689809777
 40
127.4470689809777
 40
127.4470689809777
 10
-28.21298632770722
 20
-16.74831526119766
 30
0.0
 41
0.9408996968336046
 10
-28.41392539075217
 20
-16.40972796630352
 30
0.0
 41
0.9408318761648111
 10
-28.60672605391723
 20
-16.06644125669232
 30
0.0
 41
0.9408995351425172
  0
POLYLINE
  5
8D
330
1F
100
AcDbEntity
  8
FRAME
100
AcDb2dPolyline
 66
     1
 10
0.0
 20
0.0
 30
0.0
  0
VERTEX
  5
8E
330
8D
100
AcDbEntity
  8
FRAME
100
AcDbVertex
100
AcDb2dVertex
 10
-28.60672605391723
 20
-16.06644125669231
 30
0.0
  0
VERTEX
  5
8F
330
8D
100
AcDbEntity
  8
FRAME
100
AcDbVertex
100
AcDb2dVertex
 10
-29.47171499945119
 20
-16.56584285724239
 30
0.0
  0
SEQEND
  5
90
330
8D
100
AcDbEntity
  8
FRAME
  0
SPLINE
  5
91
330
1F
100
AcDbEntity
  8
FRAME
100
AcDbSpline
210
0.0
220
0.0
230
1.0
 70
    12
 71
     2
 72
     6
 73
     3
 74
     0
 42
0.0000000001
 43
0.0000000001
 40
212.0384262505705
 40
212.0384262505705
 40
212.0384262505705
 40
212.8097627625739
 40
212.8097627625739
 40
212.8097627625739
 10
-29.47171499945119
 20
-16.56584285724239
 30
0.0
 41
0.9402633569819706
 10
-29.27879575503355
 20
-16.90905877679309
 30
0.0
 41
0.9402002966015771
 10
-29.07793600164736
 20
-17.24768890210585
 30
0.0
 41
0.94026474194809
  0
POLYLINE
  5
92
330
1F
100
AcDbEntity
  8
FRAME
100
AcDb2dPolyline
 66
     1
 10
0.0
 20
0.0
 30
0.0
  0
VERTEX
  5
93
330
92
100
AcDbEntity
  8
FRAME
100
AcDbVertex
100
AcDb2dVertex
 10
-29.07793600164736
 20
-17.24768890210585
 30
0.0
  0
VERTEX
  5
94
330
92
100
AcDbEntity
  8
FRAME
100
AcDbVertex
100
AcDb2dVertex
 10
-28.21298632770722
 20
-16.74831526119766
 30
0.0
  0
SEQEND
  5
95
330
92
100
AcDbEntity
  8
FRAME
  0
SPLINE
  5
96
330
1F
100
AcDbEntity
  8
BACKS
100
AcDbSpline
210
0.0
220
0.0
230
1.0
 70
    24
 71
     2
 72
     6
 73
     3
 74
     0
 42
0.0000000001
 43
0.0000000001
 40
0.2358449375378783
 40
0.2358449375378783
 40
0.2358449375378783
 40
4.991541588047721
 40
4.991541588047721
 40
4.991541588047721
 10
-27.03725194551341
 20
-0.0316798898510731
 30
0.0
 10
-29.41510027076835
 20
-0.031679889851069
 30
0.0
 10
-31.79294859602326
 20
-0.0316798898510657
 30
0.0
  0
ARC
  5
97
330
1F
100
AcDbEntity
  8
BACKS
100
AcDbCircle
 10
-31.79294859602327
 20
-1.031679889851008
 30
0.0
 40
0.999999999999942
100
AcDbArc
 50
89.99999999999959
 51
181.8585935334955
  0
ARC
  5
98
330
1F
100
AcDbEntity
  8
BACKS
100
AcDbCircle
 10
0.0000000000002549
 20
0.0000000000001111
 30
0.0
 40
32.80968317705339
100
AcDbArc
 50
181.8585935334935
 51
238.1547078117274
  0
ARC
  5
99
330
1F
100
AcDbEntity
  8
BACKS
100
AcDbCircle
 10
-16.78366262745628
 20
-27.02155829392952
 30
0.0
 40
0.999999999999914
100
AcDbArc
 50
238.1547078117253
 51
329.9999999999993
  0
SPLINE
  5
9A
330
1F
100
AcDbEntity
  8
BACKS
100
AcDbSpline
210
0.0
220
0.0
230
1.0
 70
    24
 71
     2
 72
     6
 73
     3
 74
     0
 42
0.0000000001
 43
0.0000000001
 40
0.2666558191867785
 40
0.2666558191867785
 40
0.2666558191867785
 40
5.022310492926407
 40
5.022310492926407
 40
5.022310492926407
 10
-15.91763722367193
 20
-27.52155829392949
 30
0.0
 10
-14.72872355523701
 20
-25.46229941438714
 30
0.0
 10
-13.53980988680208
 20
-23.40304053484479
 30
0.0
  0
ARC
  5
9B
330
1F
100
AcDbEntity
  8
BACKS
100
AcDbCircle
 10
-14.40583529058652
 20
-22.90304053484479
 30
0.0
 40
1.0
100
AcDbArc
 50
329.9999999999997
 51
57.83042479484143
  0
ARC
  5
9C
330
1F
100
AcDbEntity
  8
BACKS
100
AcDbCircle
 10
-0.0000000000000091
 20
-0.0000000000000069
 30
0.0
 40
26.05692806214838
100
AcDbArc
 50
182.1852161577791
 51
237.8304247948425
  0
ARC
  5
9D
330
1F
100
AcDbEntity
  8
BACKS
100
AcDbCircle
 10
-27.03725194551306
 20
-1.031679889851071
 30
0.0
 40
0.9999999999999974
100
AcDbArc
 50
2.185216157781033
 51
90.00000000002035
  0
ARC
  5
9E
330
1F
100
AcDbEntity
  8
SEATS
100
AcDbCircle
 10
-0.0000000000000458
 20
-0.0000000000000343
 30
0.0
 40
33.80841810229681
100
AcDbArc
 50
181.6984271207301
 51
238.3015728792699
  0
ARC
  5
9F
330
1F
100
AcDbEntity
  8
SEATS
100
AcDbCircle
 10
-34.79312586401493
 20
-1.031679889851064
 30
0.0
 40
1.0
100
AcDbArc
 50
1.698427120732156
 51
89.99999999995033
  0
LINE
  5
A0
330
1F
100
AcDbEntity
  8
SEATS
100
AcDbLine
 10
-34.79312586401406
 20
-0.0316798898510633
 30
0.0
 11
-51.77171237880344
 21
-0.0316798898510743
 31
0.0
  0
ARC
  5
A1
330
1F
100
AcDbEntity
  8
SEATS
100
AcDbCircle
 10
-51.77171237880344
 20
-1.031679889851162
 30
0.0
 40
1.000000000000088
100
AcDbArc
 50
90.0
 51
181.1416095439339
  0
ARC
  5
A2
330
1F
100
AcDbEntity
  8
SEATS
100
AcDbCircle
 10
-0.0000000000002448
 20
-0.0000000000001496
 30
0.0
 40
52.78199074995724
100
AcDbArc
 50
181.1416095439383
 51
238.8583904560615
  0
ARC
  5
A3
330
1F
100
AcDbEntity
  8
SEATS
100
AcDbCircle
 10
-26.77931718258638
 20
-44.31977817253947
 30
0.0
 40
1.000000000000095
100
AcDbArc
 50
238.8583904560603
 51
329.9999999999998
  0
LINE
  5
A4
330
1F
100
AcDbEntity
  8
SEATS
100
AcDbLine
 10
-25.91329177880186
 20
-44.81977817253952
 30
0.0
 11
-17.42399852140715
 21
-30.11589093038003
 31
0.0
  0
ARC
  5
A5
330
1F
100
AcDbEntity
  8
SEATS
100
AcDbCircle
 10
-18.29002392519081
 20
-29.61589093038048
 30
0.0
 40
0.9999999999991014
100
AcDbArc
 50
329.9999999999999
 51
58.30157287931448
  0
SPLINE
  5
A6
330
1F
100
AcDbEntity
  8
FRAME
100
AcDbSpline
210
0.0
220
0.0
230
1.0
 70
    12
 71
     2
 72
     6
 73
     3
 74
     0
 42
0.0000000001
 43
0.0000000001
 40
126.6755523459351
 40
126.6755523459351
 40
126.6755523459351
 40
127.4470689809777
 40
127.4470689809777
 40
127.4470689809777
 10
-28.61095965064139
 20
16.05900524581866
 30
0.0
 41
0.9408996968336046
 10
-28.41820398338689
 20
16.4023172264753
 30
0.0
 41
0.9408318761648111
 10
-28.21730930366455
 20
16.74093085344833
 30
0.0
 41
0.9408995351425172
  0
POLYLINE
  5
A7
330
1F
100
AcDbEntity
  8
FRAME
100
AcDb2dPolyline
 66
     1
 10
0.0
 20
0.0
 30
0.0
  0
VERTEX
  5
A8
330
A7
100
AcDbEntity
  8
FRAME
100
AcDbVertex
100
AcDb2dVertex
 10
-28.21730930366454
 20
16.74093085344833
 30
0.0
  0
VERTEX
  5
A9
330
A7
100
AcDbEntity
  8
FRAME
100
AcDbVertex
100
AcDb2dVertex
 10
-29.08229824919849
 20
17.24033245399842
 30
0.0
  0
SEQEND
  5
AA
330
A7
100
AcDbEntity
  8
FRAME
  0
SPLINE
  5
AB
330
1F
100
AcDbEntity
  8
FRAME
100
AcDbSpline
210
0.0
220
0.0
230
1.0
 70
    12
 71
     2
 72
     6
 73
     3
 74
     0
 42
0.0000000001
 43
0.0000000001
 40
212.0384262505705
 40
212.0384262505705
 40
212.0384262505705
 40
212.8097627625739
 40
212.8097627625739
 40
212.8097627625739
 10
-29.08229824919849
 20
17.24033245399841
 30
0.0
 41
0.9402633569819706
 10
-29.28307233230381
 20
16.90165152767849
 30
0.0
 41
0.9402002966015771
 10
-29.47590474661828
 20
16.55838681599179
 30
0.0
 41
0.94026474194809
  0
POLYLINE
  5
AC
330
1F
100
AcDbEntity
  8
FRAME
100
AcDb2dPolyline
 66
     1
 10
0.0
 20
0.0
 30
0.0
  0
VERTEX
  5
AD
330
AC
100
AcDbEntity
  8
FRAME
100
AcDbVertex
100
AcDb2dVertex
 10
-29.47590474661828
 20
16.55838681599179
 30
0.0
  0
VERTEX
  5
AE
330
AC
100
AcDbEntity
  8
FRAME
100
AcDbVertex
100
AcDb2dVertex
 10
-28.6109596506414
 20
16.05900524581866
 30
0.0
  0
SEQEND
  5
AF
330
AC
100
AcDbEntity
  8
FRAME
  0
SPLINE
  5
B0
330
1F
100
AcDbEntity
  8
BACKS
100
AcDbSpline
210
0.0
220
0.0
230
1.0
 70
    24
 71
     2
 72
     6
 73
     3
 74
     0
 42
0.0000000001
 43
0.0000000001
 40
0.2358449375378783
 40
0.2358449375378783
 40
0.2358449375378783
 40
4.991541588047721
 40
4.991541588047721
 40
4.991541588047721
 10
-13.54606156215683
 20
23.39910708840932
 30
0.0
 10
-14.73498572478429
 20
25.45838414442637
 30
0.0
 10
-15.92390988741175
 20
27.51766120044341
 30
0.0
  0
ARC
  5
B1
330
1F
100
AcDbEntity
  8
BACKS
100
AcDbCircle
 10
-16.78993529119614
 20
27.01766120044345
 30
0.0
 40
0.999999999999942
100
AcDbArc
 50
29.99999999999977
 51
121.8585935334957
  0
ARC
  5
B2
330
1F
100
AcDbEntity
  8
BACKS
100
AcDbCircle
 10
0.0000000000002237
 20
-0.0000000000001652
 30
0.0
 40
32.80968317705339
100
AcDbArc
 50
121.8585935334936
 51
178.1547078117274
  0
ARC
  5
B3
330
1F
100
AcDbEntity
  8
BACKS
100
AcDbCircle
 10
-31.79318724611321
 20
1.024299056959855
 30
0.0
 40
0.999999999999914
100
AcDbArc
 50
178.1547078117255
 51
269.9999999999994
  0
SPLINE
  5
B4
330
1F
100
AcDbEntity
  8
BACKS
100
AcDbSpline
210
0.0
220
0.0
230
1.0
 70
    24
 71
     2
 72
     6
 73
     3
 74
     0
 42
0.0000000001
 43
0.0000000001
 40
0.2666558191867785
 40
0.2666558191867785
 40
0.2666558191867785
 40
5.022310492926407
 40
5.022310492926407
 40
5.022310492926407
 10
-31.79318724611322
 20
0.0242990569599411
 30
0.0
 10
-29.41535990924341
 20
0.0242990569599256
 30
0.0
 10
-27.03753257237359
 20
0.0242990569599115
 30
0.0
  0
ARC
  5
B5
330
1F
100
AcDbEntity
  8
BACKS
100
AcDbCircle
 10
-27.03753257237359
 20
1.024299056959912
 30
0.0
 40
1.0
100
AcDbArc
 50
269.9999999999998
 51
357.8304247948414
  0
ARC
  5
B6
330
1F
100
AcDbEntity
  8
BACKS
100
AcDbCircle
 10
-0.0000000000000105
 20
0.0000000000000044
 30
0.0
 40
26.05692806214838
100
AcDbArc
 50
122.1852161577791
 51
177.8304247948425
  0
ARC
  5
B7
330
1F
100
AcDbEntity
  8
BACKS
100
AcDbCircle
 10
-14.41208696594109
 20
22.89910708840901
 30
0.0
 40
0.9999999999999974
100
AcDbArc
 50
302.1852161577811
 51
30.00000000002051
  0
ARC
  5
B8
330
1F
100
AcDbEntity
  8
SEATS
100
AcDbCircle
 10
-0.0000000000000526
 20
0.0000000000000225
 30
0.0
 40
33.80841810229681
100
AcDbArc
 50
121.6984271207302
 51
178.3015728792699
  0
ARC
  5
B9
330
1F
100
AcDbEntity
  8
SEATS
100
AcDbCircle
 10
-18.29002392519202
 20
29.61589093038079
 30
0.0
 40
1.0
100
AcDbArc
 50
301.6984271207319
 51
29.99999999995014
  0
LINE
  5
BA
330
1F
100
AcDbEntity
  8
SEATS
100
AcDbLine
 10
-17.42399852140715
 20
30.11589093038004
 30
0.0
 11
-25.91329177880185
 21
44.81977817253953
 31
0.0
  0
ARC
  5
BB
330
1F
100
AcDbEntity
  8
SEATS
100
AcDbCircle
 10
-26.77931718258636
 20
44.31977817253949
 30
0.0
 40
1.000000000000088
100
AcDbArc
 50
29.99999999999991
 51
121.1416095439339
  0
ARC
  5
BC
330
1F
100
AcDbEntity
  8
SEATS
100
AcDbCircle
 10
-0.000000000000252
 20
0.0000000000001372
 30
0.0
 40
52.78199074995724
100
AcDbArc
 50
121.1416095439383
 51
178.8583904560616
  0
ARC
  5
BD
330
1F
100
AcDbEntity
  8
SEATS
100
AcDbCircle
 10
-51.77171237880344
 20
1.031679889851187
 30
0.0
 40
1.000000000000095
100
AcDbArc
 50
178.8583904560602
 51
270.0
  0
LINE
  5
BE
330
1F
100
AcDbEntity
  8
SEATS
100
AcDbLine
 10
-51.77171237880344
 20
0.0316798898510922
 30
0.0
 11
-34.79312586401406
 21
0.0316798898510735
 31
0.0
  0
ARC
  5
BF
330
1F
100
AcDbEntity
  8
SEATS
100
AcDbCircle
 10
-34.79312586401406
 20
1.031679889850175
 30
0.0
 40
0.9999999999991014
100
AcDbArc
 50
270.0
 51
358.3015728793146
  0
SPLINE
  5
C0
330
1F
100
AcDbEntity
  8
FRAME
100
AcDbSpline
210
0.0
220
0.0
230
1.0
 70
    12
 71
     2
 72
     6
 73
     3
 74
     0
 42
0.0000000001
 43
0.0000000001
 40
126.6755523459351
 40
126.6755523459351
 40
126.6755523459351
 40
127.4470689809777
 40
127.4470689809777
 40
127.4470689809777
 10
-0.3979733229341809
 20
32.80732050701633
 30
0.0
 41
0.9408996968336046
 10
-0.0042785926347259
 20
32.81204519277882
 30
0.0
 41
0.9408318761648111
 10
0.3894167502526791
 20
32.80737211014065
 30
0.0
 41
0.9408995351425172
  0
POLYLINE
  5
C1
330
1F
100
AcDbEntity
  8
FRAME
100
AcDb2dPolyline
 66
     1
 10
0.0
 20
0.0
 30
0.0
  0
VERTEX
  5
C2
330
C1
100
AcDbEntity
  8
FRAME
100
AcDbVertex
100
AcDb2dVertex
 10
0.3894167502526791
 20
32.80737211014065
 30
0.0
  0
VERTEX
  5
C3
330
C1
100
AcDbEntity
  8
FRAME
100
AcDbVertex
100
AcDb2dVertex
 10
0.3894167502526873
 20
33.80617531124081
 30
0.0
  0
SEQEND
  5
C4
330
C1
100
AcDbEntity
  8
FRAME
  0
SPLINE
  5
C5
330
1F
100
AcDbEntity
  8
FRAME
100
AcDbSpline
210
0.0
220
0.0
230
1.0
 70
    12
 71
     2
 72
     6
 73
     3
 74
     0
 42
0.0000000001
 43
0.0000000001
 40
212.0384262505705
 40
212.0384262505705
 40
212.0384262505705
 40
212.8097627625739
 40
212.8097627625739
 40
212.8097627625739
 10
0.3894167502526874
 20
33.80617531124081
 30
0.0
 41
0.9402633569819706
 10
-0.0042765772702746
 20
33.81071030447158
 30
0.0
 41
0.9402002966015771
 10
-0.3979687449709298
 20
33.80607571809765
 30
0.0
 41
0.94026474194809
  0
POLYLINE
  5
C6
330
1F
100
AcDbEntity
  8
FRAME
100
AcDb2dPolyline
 66
     1
 10
0.0
 20
0.0
 30
0.0
  0
VERTEX
  5
C7
330
C6
100
AcDbEntity
  8
FRAME
100
AcDbVertex
100
AcDb2dVertex
 10
-0.3979687449709298
 20
33.80607571809765
 30
0.0
  0
VERTEX
  5
C8
330
C6
100
AcDbEntity
  8
FRAME
100
AcDbVertex
100
AcDb2dVertex
 10
-0.397973322934181
 20
32.80732050701633
 30
0.0
  0
SEQEND
  5
C9
330
C6
100
AcDbEntity
  8
FRAME
  0
SPLINE
  5
CA
330
1F
100
AcDbEntity
  8
BACKS
100
AcDbSpline
210
0.0
220
0.0
230
1.0
 70
    24
 71
     2
 72
     6
 73
     3
 74
     0
 42
0.0000000001
 43
0.0000000001
 40
0.2358449375378783
 40
0.2358449375378783
 40
0.2358449375378783
 40
4.991541588047721
 40
4.991541588047721
 40
4.991541588047721
 10
13.49119038335658
 20
23.4307869782604
 30
0.0
 10
14.68011454598405
 20
25.49006403427745
 30
0.0
 10
15.86903870861151
 20
27.54934109029448
 30
0.0
  0
ARC
  5
CB
330
1F
100
AcDbEntity
  8
BACKS
100
AcDbCircle
 10
15.00301330482712
 20
28.04934109029446
 30
0.0
 40
0.999999999999942
100
AcDbArc
 50
329.9999999999997
 51
61.85859353349565
  0
ARC
  5
CC
330
1F
100
AcDbEntity
  8
BACKS
100
AcDbCircle
 10
-0.0000000000000312
 20
-0.0000000000002764
 30
0.0
 40
32.80968317705339
100
AcDbArc
 50
61.85859353349356
 51
118.1547078117274
  0
ARC
  5
CD
330
1F
100
AcDbEntity
  8
BACKS
100
AcDbCircle
 10
-15.00952461865693
 20
28.04585735088938
 30
0.0
 40
0.999999999999914
100
AcDbArc
 50
118.1547078117254
 51
209.9999999999993
  0
SPLINE
  5
CE
330
1F
100
AcDbEntity
  8
BACKS
100
AcDbSpline
210
0.0
220
0.0
230
1.0
 70
    24
 71
     2
 72
     6
 73
     3
 74
     0
 42
0.0000000001
 43
0.0000000001
 40
0.2666558191867785
 40
0.2666558191867785
 40
0.2666558191867785
 40
5.022310492926407
 40
5.022310492926407
 40
5.022310492926407
 10
-15.8755500224413
 20
27.54585735088943
 30
0.0
 10
-14.6866363540064
 20
25.48659847134707
 30
0.0
 10
-13.49772268557151
 20
23.4273395918047
 30
0.0
  0
ARC
  5
CF
330
1F
100
AcDbEntity
  8
BACKS
100
AcDbCircle
 10
-12.63169728178707
 20
23.9273395918047
 30
0.0
 40
1.0
100
AcDbArc
 50
209.9999999999998
 51
297.8304247948413
  0
ARC
  5
D0
330
1F
100
AcDbEntity
  8
BACKS
100
AcDbCircle
 10
-0.0000000000000015
 20
0.0000000000000113
 30
0.0
 40
26.05692806214838
100
AcDbArc
 50
62.1852161577791
 51
117.8304247948425
  0
ARC
  5
D1
330
1F
100
AcDbEntity
  8
BACKS
100
AcDbCircle
 10
12.62516497957197
 20
23.93078697826009
 30
0.0
 40
0.9999999999999974
100
AcDbArc
 50
242.185216157781
 51
330.0000000000204
  0
ARC
  5
D2
330
1F
100
AcDbEntity
  8
SEATS
100
AcDbCircle
 10
-0.0000000000000069
 20
0.0000000000000568
 30
0.0
 40
33.80841810229681
100
AcDbArc
 50
61.69842712073017
 51
118.3015728792699
  0
ARC
  5
D3
330
1F
100
AcDbEntity
  8
SEATS
100
AcDbCircle
 10
16.5031019388229
 20
30.64757082023186
 30
0.0
 40
1.0
100
AcDbArc
 50
241.698427120732
 51
329.9999999999501
  0
LINE
  5
D4
330
1F
100
AcDbEntity
  8
SEATS
100
AcDbLine
 10
17.36912734260691
 20
30.14757082023111
 30
0.0
 11
25.85842060000159
 21
44.85145806239061
 31
0.0
  0
ARC
  5
D5
330
1F
100
AcDbEntity
  8
SEATS
100
AcDbCircle
 10
24.99239519621707
 20
45.35145806239066
 30
0.0
 40
1.000000000000088
100
AcDbArc
 50
330.0000000000001
 51
61.14160954393393
  0
ARC
  5
D6
330
1F
100
AcDbEntity
  8
SEATS
100
AcDbCircle
 10
-0.0000000000000072
 20
0.0000000000002868
 30
0.0
 40
52.78199074995724
100
AcDbArc
 50
61.14160954393831
 51
118.8583904560616
  0
ARC
  5
D7
330
1F
100
AcDbEntity
  8
SEATS
100
AcDbCircle
 10
-24.99239519621707
 20
45.35145806239066
 30
0.0
 40
1.000000000000095
100
AcDbArc
 50
118.8583904560604
 51
210.0000000000002
  0
LINE
  5
D8
330
1F
100
AcDbEntity
  8
SEATS
100
AcDbLine
 10
-25.85842060000159
 20
44.85145806239061
 30
0.0
 11
-17.36912734260691
 21
30.1475708202311
 31
0.0
  0
ARC
  5
D9
330
1F
100
AcDbEntity
  8
SEATS
100
AcDbCircle
 10
-16.50310193882325
 20
30.64757082023065
 30
0.0
 40
0.9999999999991014
100
AcDbArc
 50
210.0000000000001
 51
298.3015728793147
  0
ENDSEC
  0
SECTION
  2
OBJECTS
  0
DICTIONARY
  5
C
330
0
100
AcDbDictionary
281
     1
  3
ACAD_GROUP
350
D
  3
ACAD_LAYOUT
350
1A
  3
ACAD_MLEADERSTYLE
350
DB
  3
ACAD_MLINESTYLE
350
17
  3
ACAD_PLOTSETTINGS
350
19
  3
ACAD_PLOTSTYLENAME
350
E
  3
ACAD_TABLESTYLE
350
DA
  3
ACAD_VISUALSTYLE
350
2A
  0
DICTIONARY
  5
D
102
{ACAD_REACTORS
330
C
102
}
330
C
100
AcDbDictionary
281
     1
  0
DICTIONARY
  5
1A
102
{ACAD_REACTORS
330
C
102
}
330
C
100
AcDbDictionary
281
     1
  3
Layout1
350
1E
  3
Layout2
350
26
  3
Model
350
22
  0
DICTIONARY
  5
DB
102
{ACAD_REACTORS
330
C
102
}
330
C
100
AcDbDictionary
281
     1
  0
DICTIONARY
  5
17
102
{ACAD_REACTORS
330
C
102
}
330
C
100
AcDbDictionary
281
     1
  3
Standard
350
18
  0
DICTIONARY
  5
19
102
{ACAD_REACTORS
330
C
102
}
330
C
100
AcDbDictionary
281
     1
  0
ACDBDICTIONARYWDFLT
  5
E
102
{ACAD_REACTORS
330
C
102
}
330
C
100
AcDbDictionary
281
     1
  3
Normal
350
F
100
AcDbDictionaryWithDefault
340
F
  0
DICTIONARY
  5
DA
102
{ACAD_REACTORS
330
C
102
}
330
C
100
AcDbDictionary
281
     1
  0
DICTIONARY
  5
2A
102
{ACAD_REACTORS
330
C
102
}
330
C
100
AcDbDictionary
281
     1
  3
2dWireframe
350
2F
  3
3D Hidden
350
31
  3
3dWireframe
350
30
  3
Basic
350
32
  3
Brighten
350
36
  3
ColorChange
350
3A
  3
Conceptual
350
34
  3
Dim
350
35
  3
Facepattern
350
39
  3
Flat
350
2B
  3
FlatWithEdges
350
2C
  3
Gouraud
350
2D
  3
GouraudWithEdges
350
2E
  3
Linepattern
350
38
  3
Realistic
350
33
  3
Thicken
350
37
  0
LAYOUT
  5
1E
102
{ACAD_REACTORS
330
1A
102
}
330
1A
100
AcDbPlotSettings
  1

  2
none_device
  4

  6

 40
0.0
 41
0.0
 42
0.0
 43
0.0
 44
0.0
 45
0.0
 46
0.0
 47
0.0
 48
0.0
 49
0.0
140
0.0
141
0.0
142
1.0
143
1.0
 70
   688
 72
     0
 73
     0
 74
     5
  7

 75
    16
 76
     0
 77
     2
 78
   300
147
1.0
148
0.0
149
0.0
100
AcDbLayout
  1
Layout1
 70
     1
 71
     1
 10
0.0
 20
0.0
 11
12.0
 21
9.0
 12
0.0
 22
0.0
 32
0.0
 14
1.000000000000000E+20
 24
1.000000000000000E+20
 34
1.000000000000000E+20
 15
-1.000000000000000E+20
 25
-1.000000000000000E+20
 35
-1.000000000000000E+20
146
0.0
 13
0.0
 23
0.0
 33
0.0
 16
1.0
 26
0.0
 36
0.0
 17
0.0
 27
1.0
 37
0.0
 76
     0
330
1B
  0
LAYOUT
  5
26
102
{ACAD_REACTORS
330
1A
102
}
330
1A
100
AcDbPlotSettings
  1

  2
none_device
  4

  6

 40
0.0
 41
0.0
 42
0.0
 43
0.0
 44
0.0
 45
0.0
 46
0.0
 47
0.0
 48
0.0
 49
0.0
140
0.0
141
0.0
142
1.0
143
1.0
 70
   688
 72
     0
 73
     0
 74
     5
  7

 75
    16
 76
     0
 77
     2
 78
   300
147
1.0
148
0.0
149
0.0
100
AcDbLayout
  1
Layout2
 70
     1
 71
     2
 10
0.0
 20
0.0
 11
0.0
 21
0.0
 12
0.0
 22
0.0
 32
0.0
 14
0.0
 24
0.0
 34
0.0
 15
0.0
 25
0.0
 35
0.0
146
0.0
 13
0.0
 23
0.0
 33
0.0
 16
1.0
 26
0.0
 36
0.0
 17
0.0
 27
1.0
 37
0.0
 76
     0
330
23
  0
LAYOUT
  5
22
102
{ACAD_REACTORS
330
1A
102
}
330
1A
100
AcDbPlotSettings
  1

  2
none_device
  4

  6

 40
0.0
 41
0.0
 42
0.0
 43
0.0
 44
0.0
 45
0.0
 46
0.0
 47
0.0
 48
0.0
 49
0.0
140
0.0
141
0.0
142
1.0
143
1.0
 70
  1712
 72
     0
 73
     0
 74
     0
  7

 75
     0
 76
     0
 77
     2
 78
   300
147
1.0
148
0.0
149
0.0
100
AcDbLayout
  1
Model
 70
     1
 71
     0
 10
0.0
 20
0.0
 11
12.0
 21
9.0
 12
0.0
 22
0.0
 32
0.0
 14
-52.77171237880354
 24
-52.78199074995753
 34
0.0
 15
52.77171237880354
 25
52.78199074995752
 35
0.0
146
0.0
 13
0.0
 23
0.0
 33
0.0
 16
1.0
 26
0.0
 36
0.0
 17
0.0
 27
1.0
 37
0.0
 76
     0
330
1F
331
29
  0
MLINESTYLE
  5
18
102
{ACAD_REACTORS
330
17
102
}
330
17
100
AcDbMlineStyle
  2
Standard
 70
     0
  3

 62
   256
 51
90.0
 52
90.0
 71
     2
 49
0.5
 62
   256
  6
BYLAYER
 49
-0.5
 62
   256
  6
BYLAYER
  0
ACDBPLACEHOLDER
  5
F
102
{ACAD_REACTORS
330
E
102
}
330
E
  0
VISUALSTYLE
  5
2F
102
{ACAD_REACTORS
330
2A
102
}
330
2A
100
AcDbVisualStyle
  2
2dWireframe
 70
     4
 71
     0
 72
     2
 73
     0
 90
        0
 40
-0.6
 41
-30.0
 62
     5
 63
     7
421
 16777215
 74
     1
 91
        4
 64
     7
 65
   257
 75
     1
175
     1
 42
1.0
 92
        0
 66
   257
 43
1.0
 76
     1
 77
     6
 78
     2
 67
     7
 79
     5
170
     0
171
     0
290
     0
174
     0
 93
        1
 44
0.0
173
     0
291
     0
 45
0.0
1001
ACAD
1000
AcDbSavedByObjectVersion
1070
     0
  0
VISUALSTYLE
  5
31
102
{ACAD_REACTORS
330
2A
102
}
330
2A
100
AcDbVisualStyle
  2
3D Hidden
 70
     6
 71
     1
 72
     2
 73
     2
 90
        0
 40
-0.6
 41
-30.0
 62
     5
 63
     7
421
 16777215
 74
     2
 91
        2
 64
     7
 65
   257
 75
     2
175
     1
 42
40.0
 92
        0
 66
   257
 43
1.0
 76
     1
 77
     6
 78
     2
 67
     7
 79
     3
170
     0
171
     0
290
     0
174
     0
 93
        1
 44
0.0
173
     0
291
     0
 45
0.0
1001
ACAD
1000
AcDbSavedByObjectVersion
1070
     0
  0
VISUALSTYLE
  5
30
102
{ACAD_REACTORS
330
2A
102
}
330
2A
100
AcDbVisualStyle
  2
3dWireframe
 70
     5
 71
     0
 72
     2
 73
     0
 90
        0
 40
-0.6
 41
-30.0
 62
     5
 63
     7
421
 16777215
 74
     1
 91
        4
 64
     7
 65
   257
 75
     1
175
     1
 42
1.0
 92
        0
 66
   257
 43
1.0
 76
     1
 77
     6
 78
     2
 67
     7
 79
     5
170
     0
171
     0
290
     0
174
     0
 93
        1
 44
0.0
173
     0
291
     0
 45
0.0
1001
ACAD
1000
AcDbSavedByObjectVersion
1070
     0
  0
VISUALSTYLE
  5
32
102
{ACAD_REACTORS
330
2A
102
}
330
2A
100
AcDbVisualStyle
  2
Basic
 70
     7
 71
     1
 72
     0
 73
     1
 90
        0
 40
-0.6
 41
-30.0
 62
     5
 63
     7
421
 16777215
 74
     0
 91
        4
 64
     7
 65
   257
 75
     1
175
     1
 42
1.0
 92
        8
 66
     7
 43
1.0
 76
     1
 77
     6
 78
     2
 67
     7
 79
     5
170
     0
171
     0
290
     0
174
     0
 93
        1
 44
0.0
173
     0
291
     1
 45
0.0
1001
ACAD
1000
AcDbSavedByObjectVersion
1070
     0
  0
VISUALSTYLE
  5
36
102
{ACAD_REACTORS
330
2A
102
}
330
2A
100
AcDbVisualStyle
  2
Brighten
 70
    12
 71
     2
 72
     2
 73
     0
 90
        0
 40
-0.6
 41
-30.0
 62
     5
 63
     7
421
 16777215
 74
     1
 91
        4
 64
     7
 65
   257
 75
     1
175
     1
 42
1.0
 92
        8
 66
     7
 43
1.0
 76
     1
 77
     6
 78
     2
 67
     7
 79
     5
170
     0
171
     0
290
     0
174
     0
 93
        1
 44
50.0
173
     0
291
     1
 45
0.0
1001
ACAD
1000
AcDbSavedByObjectVersion
1070
     0
  0
VISUALSTYLE
  5
3A
102
{ACAD_REACTORS
330
2A
102
}
330
2A
100
AcDbVisualStyle
  2
ColorChange
 70
    16
 71
     2
 72
     2
 73
     3
 90
        0
 40
-0.6
 41
-30.0
 62
     5
 63
     8
421
  8421504
 74
     1
 91
        4
 64
     7
 65
   257
 75
     1
175
     1
 42
1.0
 92
        8
 66
     8
424
  8421504
 43
1.0
 76
     1
 77
     6
 78
     2
 67
     7
 79
     5
170
     0
171
     0
290
     0
174
     0
 93
        1
 44
0.0
173
     0
291
     1
 45
0.0
1001
ACAD
1000
AcDbSavedByObjectVersion
1070
     0
  0
VISUALSTYLE
  5
34
102
{ACAD_REACTORS
330
2A
102
}
330
2A
100
AcDbVisualStyle
  2
Conceptual
 70
     9
 71
     3
 72
     2
 73
     0
 90
        0
 40
-0.6
 41
-30.0
 62
     5
 63
     7
421
 16777215
 74
     2
 91
        2
 64
     7
 65
   257
 75
     1
175
     1
 42
40.0
 92
        8
 66
     7
 43
1.0
 76
     1
 77
     6
 78
     2
 67
     7
 79
     3
170
     0
171
     0
290
     0
174
     0
 93
        1
 44
0.0
173
     0
291
     0
 45
0.0
1001
ACAD
1000
AcDbSavedByObjectVersion
1070
     0
  0
VISUALSTYLE
  5
35
102
{ACAD_REACTORS
330
2A
102
}
330
2A
100
AcDbVisualStyle
  2
Dim
 70
    11
 71
     2
 72
     2
 73
     0
 90
        0
 40
-0.6
 41
-30.0
 62
     5
 63
     7
421
 16777215
 74
     1
 91
        4
 64
     7
 65
   257
 75
     1
175
     1
 42
1.0
 92
        8
 66
     7
 43
1.0
 76
     1
 77
     6
 78
     2
 67
     7
 79
     5
170
     0
171
     0
290
     0
174
     0
 93
        1
 44
-50.0
173
     0
291
     1
 45
0.0
1001
ACAD
1000
AcDbSavedByObjectVersion
1070
     0
  0
VISUALSTYLE
  5
39
102
{ACAD_REACTORS
330
2A
102
}
330
2A
100
AcDbVisualStyle
  2
Facepattern
 70
    15
 71
     2
 72
     2
 73
     0
 90
        0
 40
-0.6
 41
-30.0
 62
     5
 63
     7
421
 16777215
 74
     1
 91
        4
 64
     7
 65
   257
 75
     1
175
     1
 42
1.0
 92
        8
 66
     7
 43
1.0
 76
     1
 77
     6
 78
     2
 67
     7
 79
     5
170
     0
171
     0
290
     0
174
     0
 93
        1
 44
0.0
173
     0
291
     1
 45
0.0
1001
ACAD
1000
AcDbSavedByObjectVersion
1070
     0
  0
VISUALSTYLE
  5
2B
102
{ACAD_REACTORS
330
2A
102
}
330
2A
100
AcDbVisualStyle
  2
Flat
 70
     0
 71
     2
 72
     1
 73
     1
 90
        2
 40
-0.6
 41
30.0
 62
     5
 63
     7
421
 16777215
 74
     0
 91
        4
 64
     7
 65
   257
 75
     1
175
     1
 42
1.0
 92
        8
 66
     7
 43
1.0
 76
     1
 77
     6
 78
     2
 67
     7
 79
     5
170
     0
171
     0
290
     0
174
     0
 93
       13
 44
0.0
173
     0
291
     1
 45
0.0
1001
ACAD
1000
AcDbSavedByObjectVersion
1070
     0
  0
VISUALSTYLE
  5
2C
102
{ACAD_REACTORS
330
2A
102
}
330
2A
100
AcDbVisualStyle
  2
FlatWithEdges
 70
     1
 71
     2
 72
     1
 73
     1
 90
        2
 40
-0.6
 41
30.0
 62
     5
 63
     7
421
 16777215
 74
     1
 91
        4
 64
     7
 65
   257
 75
     1
175
     1
 42
1.0
 92
        0
 66
   257
 43
1.0
 76
     1
 77
     6
 78
     2
 67
     7
 79
     5
170
     0
171
     0
290
     0
174
     0
 93
       13
 44
0.0
173
     0
291
     1
 45
0.0
1001
ACAD
1000
AcDbSavedByObjectVersion
1070
     0
  0
VISUALSTYLE
  5
2D
102
{ACAD_REACTORS
330
2A
102
}
330
2A
100
AcDbVisualStyle
  2
Gouraud
 70
     2
 71
     2
 72
     2
 73
     1
 90
        2
 40
-0.6
 41
30.0
 62
     5
 63
     7
421
 16777215
 74
     0
 91
        4
 64
     7
 65
   257
 75
     1
175
     1
 42
1.0
 92
        0
 66
     7
 43
1.0
 76
     1
 77
     6
 78
     2
 67
     7
 79
     5
170
     0
171
     0
290
     0
174
     0
 93
       13
 44
0.0
173
     0
291
     1
 45
0.0
1001
ACAD
1000
AcDbSavedByObjectVersion
1070
     0
  0
VISUALSTYLE
  5
2E
102
{ACAD_REACTORS
330
2A
102
}
330
2A
100
AcDbVisualStyle
  2
GouraudWithEdges
 70
     3
 71
     2
 72
     2
 73
     1
 90
        2
 40
-0.6
 41
30.0
 62
     5
 63
     7
421
 16777215
 74
     1
 91
        4
 64
     7
 65
   257
 75
     1
175
     1
 42
1.0
 92
        0
 66
   257
 43
1.0
 76
     1
 77
     6
 78
     2
 67
     7
 79
     5
170
     0
171
     0
290
     0
174
     0
 93
       13
 44
0.0
173
     0
291
     1
 45
0.0
1001
ACAD
1000
AcDbSavedByObjectVersion
1070
     0
  0
VISUALSTYLE
  5
38
102
{ACAD_REACTORS
330
2A
102
}
330
2A
100
AcDbVisualStyle
  2
Linepattern
 70
    14
 71
     2
 72
     2
 73
     0
 90
        0
 40
-0.6
 41
-30.0
 62
     5
 63
     7
421
 16777215
 74
     1
 91
        4
 64
     7
 65
   257
 75
     7
175
     7
 42
1.0
 92
        8
 66
     7
 43
1.0
 76
     1
 77
     6
 78
     2
 67
     7
 79
     5
170
     0
171
     0
290
     0
174
     0
 93
        1
 44
0.0
173
     0
291
     1
 45
0.0
1001
ACAD
1000
AcDbSavedByObjectVersion
1070
     0
  0
VISUALSTYLE
  5
33
102
{ACAD_REACTORS
330
2A
102
}
330
2A
100
AcDbVisualStyle
  2
Realistic
 70
     8
 71
     2
 72
     2
 73
     0
 90
        0
 40
-0.6
 41
-30.0
 62
     5
 63
     7
421
 16777215
 74
     1
 91
        0
 64
     7
 65
   257
 75
     1
175
     1
 42
1.0
 92
        8
 66
     8
424
  7895160
 43
1.0
 76
     1
 77
     6
 78
     2
 67
     7
 79
     5
170
     0
171
     0
290
     0
174
     0
 93
       13
 44
0.0
173
     0
291
     0
 45
0.0
1001
ACAD
1000
AcDbSavedByObjectVersion
1070
     0
  0
VISUALSTYLE
  5
37
102
{ACAD_REACTORS
330
2A
102
}
330
2A
100
AcDbVisualStyle
  2
Thicken
 70
    13
 71
     2
 72
     2
 73
     0
 90
        0
 40
-0.6
 41
-30.0
 62
     5
 63
     7
421
 16777215
 74
     1
 91
        4
 64
     7
 65
   257
 75
     1
175
     1
 42
1.0
 92
       12
 66
     7
 43
1.0
 76
     1
 77
     6
 78
     2
 67
     7
 79
     5
170
     0
171
     0
290
     0
174
     0
 93
        1
 44
0.0
173
     0
291
     1
 45
0.0
1001
ACAD
1000
AcDbSavedByObjectVersion
1070
     0
  0
ENDSEC
  0
EOF
