  0
SECTION
  2
HEADER
  9
$ACADVER
  1
AC1018
  9
$ACADMAINTVER
 70
     0
  9
$DWGCODEPAGE
  3
ANSI_1252
  9
$INSBASE
 10
0.0
 20
0.0
 30
0.0
  9
$EXTMIN
 10
-97.08758345981535
 20
-33.06540606117624
 30
0.0
  9
$EXTMAX
 10
97.08758345981536
 20
33.06540606114117
 30
0.0
  9
$LIMMIN
 10
0.0
 20
0.0
  9
$LIMMAX
 10
12.0
 20
9.0
  9
$ORTHOMODE
 70
     0
  9
$REGENMODE
 70
     1
  9
$FILLMODE
 70
     1
  9
$QTEXTMODE
 70
     0
  9
$MIRRTEXT
 70
     1
  9
$LTSCALE
 40
0.0393700787401575
  9
$ATTMODE
 70
     1
  9
$TEXTSIZE
 40
0.2
  9
$TRACEWID
 40
0.05
  9
$TEXTSTYLE
  7
Standard
  9
$CLAYER
  8
SEATS
  9
$CELTYPE
  6
ByLayer
  9
$CECOLOR
 62
   256
  9
$CELTSCALE
 40
1.0
  9
$DISPSILH
 70
     0
  9
$DIMSCALE
 40
1.0
  9
$DIMASZ
 40
0.18
  9
$DIMEXO
 40
0.0625
  9
$DIMDLI
 40
0.38
  9
$DIMRND
 40
0.0
  9
$DIMDLE
 40
0.0
  9
$DIMEXE
 40
0.18
  9
$DIMTP
 40
0.0
  9
$DIMTM
 40
0.0
  9
$DIMTXT
 40
0.18
  9
$DIMCEN
 40
0.09
  9
$DIMTSZ
 40
0.0
  9
$DIMTOL
 70
     0
  9
$DIMLIM
 70
     0
  9
$DIMTIH
 70
     1
  9
$DIMTOH
 70
     1
  9
$DIMSE1
 70
     0
  9
$DIMSE2
 70
     0
  9
$DIMTAD
 70
     0
  9
$DIMZIN
 70
     0
  9
$DIMBLK
  1

  9
$DIMASO
 70
     1
  9
$DIMSHO
 70
     1
  9
$DIMPOST
  1

  9
$DIMAPOST
  1

  9
$DIMALT
 70
     0
  9
$DIMALTD
 70
     2
  9
$DIMALTF
 40
25.4
  9
$DIMLFAC
 40
1.0
  9
$DIMTOFL
 70
     0
  9
$DIMTVP
 40
0.0
  9
$DIMTIX
 70
     0
  9
$DIMSOXD
 70
     0
  9
$DIMSAH
 70
     0
  9
$DIMBLK1
  1

  9
$DIMBLK2
  1

  9
$DIMSTYLE
  2
Standard
  9
$DIMCLRD
 70
     0
  9
$DIMCLRE
 70
     0
  9
$DIMCLRT
 70
     0
  9
$DIMTFAC
 40
1.0
  9
$DIMGAP
 40
0.09
  9
$DIMJUST
 70
     0
  9
$DIMSD1
 70
     0
  9
$DIMSD2
 70
     0
  9
$DIMTOLJ
 70
     1
  9
$DIMTZIN
 70
     0
  9
$DIMALTZ
 70
     0
  9
$DIMALTTZ
 70
     0
  9
$DIMUPT
 70
     0
  9
$DIMDEC
 70
     4
  9
$DIMTDEC
 70
     4
  9
$DIMALTU
 70
     2
  9
$DIMALTTD
 70
     2
  9
$DIMTXSTY
  7
Standard
  9
$DIMAUNIT
 70
     0
  9
$DIMADEC
 70
     0
  9
$DIMALTRND
 40
0.0
  9
$DIMAZIN
 70
     0
  9
$DIMDSEP
 70
    46
  9
$DIMATFIT
 70
     3
  9
$DIMFRAC
 70
     0
  9
$DIMLDRBLK
  1

  9
$DIMLUNIT
 70
     2
  9
$DIMLWD
 70
    -2
  9
$DIMLWE
 70
    -2
  9
$DIMTMOVE
 70
     2
  9
$LUNITS
 70
     2
  9
$LUPREC
 70
     3
  9
$SKETCHINC
 40
0.1
  9
$FILLETRAD
 40
0.5
  9
$AUNITS
 70
     0
  9
$AUPREC
 70
     0
  9
$MENU
  1
.
  9
$ELEVATION
 40
0.0
  9
$PELEVATION
 40
0.0
  9
$THICKNESS
 40
0.0
  9
$LIMCHECK
 70
     0
  9
$CHAMFERA
 40
0.5
  9
$CHAMFERB
 40
0.5
  9
$CHAMFERC
 40
1.0
  9
$CHAMFERD
 40
0.0
  9
$SKPOLY
 70
     0
  9
$TDCREATE
 40
2457539.948032905
  9
$TDUCREATE
 40
2457540.114699572
  9
$TDUPDATE
 40
2457539.948032917
  9
$TDUUPDATE
 40
2457540.114699584
  9
$TDINDWG
 40
0.0000000116
  9
$TDUSRTIMER
 40
0.0000000116
  9
$USRTIMER
 70
     1
  9
$ANGBASE
 50
0.0
  9
$ANGDIR
 70
     0
  9
$PDMODE
 70
     0
  9
$PDSIZE
 40
0.0
  9
$PLINEWID
 40
0.0
  9
$SPLFRAME
 70
     0
  9
$SPLINETYPE
 70
     6
  9
$SPLINESEGS
 70
     8
  9
$HANDSEED
  5
9E
  9
$SURFTAB1
 70
     6
  9
$SURFTAB2
 70
     6
  9
$SURFTYPE
 70
     6
  9
$SURFU
 70
     6
  9
$SURFV
 70
     6
  9
$UCSBASE
  2

  9
$UCSNAME
  2

  9
$UCSORG
 10
0.0
 20
0.0
 30
0.0
  9
$UCSXDIR
 10
1.0
 20
0.0
 30
0.0
  9
$UCSYDIR
 10
0.0
 20
1.0
 30
0.0
  9
$UCSORTHOREF
  2

  9
$UCSORTHOVIEW
 70
     0
  9
$UCSORGTOP
 10
0.0
 20
0.0
 30
0.0
  9
$UCSORGBOTTOM
 10
0.0
 20
0.0
 30
0.0
  9
$UCSORGLEFT
 10
0.0
 20
0.0
 30
0.0
  9
$UCSORGRIGHT
 10
0.0
 20
0.0
 30
0.0
  9
$UCSORGFRONT
 10
0.0
 20
0.0
 30
0.0
  9
$UCSORGBACK
 10
0.0
 20
0.0
 30
0.0
  9
$PUCSBASE
  2

  9
$PUCSNAME
  2

  9
$PUCSORG
 10
0.0
 20
0.0
 30
0.0
  9
$PUCSXDIR
 10
1.0
 20
0.0
 30
0.0
  9
$PUCSYDIR
 10
0.0
 20
1.0
 30
0.0
  9
$PUCSORTHOREF
  2

  9
$PUCSORTHOVIEW
 70
     0
  9
$PUCSORGTOP
 10
0.0
 20
0.0
 30
0.0
  9
$PUCSORGBOTTOM
 10
0.0
 20
0.0
 30
0.0
  9
$PUCSORGLEFT
 10
0.0
 20
0.0
 30
0.0
  9
$PUCSORGRIGHT
 10
0.0
 20
0.0
 30
0.0
  9
$PUCSORGFRONT
 10
0.0
 20
0.0
 30
0.0
  9
$PUCSORGBACK
 10
0.0
 20
0.0
 30
0.0
  9
$USERI1
 70
     0
  9
$USERI2
 70
     0
  9
$USERI3
 70
     0
  9
$USERI4
 70
     0
  9
$USERI5
 70
     0
  9
$USERR1
 40
0.0
  9
$USERR2
 40
0.0
  9
$USERR3
 40
0.0
  9
$USERR4
 40
0.0
  9
$USERR5
 40
0.0
  9
$WORLDVIEW
 70
     1
  9
$SHADEDGE
 70
     3
  9
$SHADEDIF
 70
    70
  9
$TILEMODE
 70
     1
  9
$MAXACTVP
 70
    64
  9
$PINSBASE
 10
0.0
 20
0.0
 30
0.0
  9
$PLIMCHECK
 70
     0
  9
$PEXTMIN
 10
1.000000000000000E+20
 20
1.000000000000000E+20
 30
1.000000000000000E+20
  9
$PEXTMAX
 10
-1.000000000000000E+20
 20
-1.000000000000000E+20
 30
-1.000000000000000E+20
  9
$PLIMMIN
 10
0.0
 20
0.0
  9
$PLIMMAX
 10
12.0
 20
9.0
  9
$UNITMODE
 70
     0
  9
$VISRETAIN
 70
     1
  9
$PLINEGEN
 70
     0
  9
$PSLTSCALE
 70
     1
  9
$TREEDEPTH
 70
  3020
  9
$CMLSTYLE
  2
Standard
  9
$CMLJUST
 70
     0
  9
$CMLSCALE
 40
1.0
  9
$PROXYGRAPHICS
 70
     1
  9
$MEASUREMENT
 70
     0
  9
$CELWEIGHT
370
    -1
  9
$ENDCAPS
280
     0
  9
$JOINSTYLE
280
     0
  9
$LWDISPLAY
290
     0
  9
$INSUNITS
 70
     1
  9
$HYPERLINKBASE
  1

  9
$STYLESHEET
  1

  9
$XEDIT
290
     1
  9
$CEPSNTYPE
380
     0
  9
$PSTYLEMODE
290
     1
  9
$FINGERPRINTGUID
  2
{1D0ADE24-8948-4130-A62D-49969A2CED06}
  9
$VERSIONGUID
  2
{FAEB1C32-E019-11D5-929B-00C0DF256EC4}
  9
$EXTNAMES
290
     1
  9
$PSVPSCALE
 40
0.0
  9
$OLESTARTUP
290
     0
  9
$SORTENTS
280
   127
  9
$INDEXCTL
280
     0
  9
$HIDETEXT
280
     1
  9
$XCLIPFRAME
290
     0
  9
$HALOGAP
280
     0
  9
$OBSCOLOR
 70
   257
  9
$OBSLTYPE
280
     0
  9
$INTERSECTIONDISPLAY
280
     0
  9
$INTERSECTIONCOLOR
 70
   257
  9
$DIMASSOC
280
     2
  9
$PROJECTNAME
  1

  0
ENDSEC
  0
SECTION
  2
CLASSES
  0
CLASS
  1
ACDBDICTIONARYWDFLT
  2
AcDbDictionaryWithDefault
  3
ObjectDBX Classes
 90
        0
 91
        4
280
     0
281
     0
  0
CLASS
  1
VISUALSTYLE
  2
AcDbVisualStyle
  3
ObjectDBX Classes
 90
     4095
 91
        4
280
     0
281
     0
  0
ENDSEC
  0
SECTION
  2
TABLES
  0
TABLE
  2
VPORT
  5
8
330
0
100
AcDbSymbolTable
 70
     1
  0
VPORT
  5
29
330
8
100
AcDbSymbolTableRecord
100
AcDbViewportTableRecord
  2
*Active
 70
     0
 10
0.0
 20
0.0
 11
1.0
 21
1.0
 12
0.0
 22
0.0
 13
0.0
 23
0.0
 14
0.5
 24
0.5
 15
0.5
 25
0.5
 16
0.0
 26
0.0
 36
1.0
 17
0.0
 27
-0.0000000000175362
 37
0.0
 40
67.45342836476375
 41
2.936228373552693
 42
50.0
 43
0.0
 44
0.0
 50
0.0
 51
0.0
 71
     0
 72
   100
 73
     1
 74
     3
 75
     0
 76
     0
 77
     0
 78
     0
281
     0
 65
     1
110
0.0
120
0.0
130
0.0
111
1.0
121
0.0
131
0.0
112
0.0
122
1.0
132
0.0
 79
     0
146
0.0
  0
ENDTAB
  0
TABLE
  2
LTYPE
  5
5
330
0
100
AcDbSymbolTable
 70
     1
  0
LTYPE
  5
14
330
5
100
AcDbSymbolTableRecord
100
AcDbLinetypeTableRecord
  2
ByBlock
 70
     0
  3

 72
    65
 73
     0
 40
0.0
  0
LTYPE
  5
15
330
5
100
AcDbSymbolTableRecord
100
AcDbLinetypeTableRecord
  2
ByLayer
 70
     0
  3

 72
    65
 73
     0
 40
0.0
  0
LTYPE
  5
16
330
5
100
AcDbSymbolTableRecord
100
AcDbLinetypeTableRecord
  2
Continuous
 70
     0
  3
Solid line
 72
    65
 73
     0
 40
0.0
  0
ENDTAB
  0
TABLE
  2
LAYER
  5
2
330
0
100
AcDbSymbolTable
 70
     4
  0
LAYER
  5
10
330
2
100
AcDbSymbolTableRecord
100
AcDbLayerTableRecord
  2
0
 70
     0
 62
     7
  6
Continuous
370
    -3
390
F
  0
LAYER
  5
3B
330
2
100
AcDbSymbolTableRecord
100
AcDbLayerTableRecord
  2
BACKS
 70
     0
 62
   253
  6
Continuous
370
    -3
390
F
  0
LAYER
  5
44
330
2
100
AcDbSymbolTableRecord
100
AcDbLayerTableRecord
  2
SEATS
 70
     0
 62
   251
  6
Continuous
370
    -3
390
F
  0
LAYER
  5
4D
330
2
100
AcDbSymbolTableRecord
100
AcDbLayerTableRecord
  2
FRAME
 70
     0
 62
    15
  6
Continuous
370
    -3
390
F
  0
ENDTAB
  0
TABLE
  2
STYLE
  5
3
330
0
100
AcDbSymbolTable
 70
     1
  0
STYLE
  5
11
330
3
100
AcDbSymbolTableRecord
100
AcDbTextStyleTableRecord
  2
Standard
 70
     0
 40
0.0
 41
1.0
 50
0.0
 71
     0
 42
0.2
  3
txt
  4

  0
ENDTAB
  0
TABLE
  2
VIEW
  5
6
330
0
100
AcDbSymbolTable
 70
     0
  0
ENDTAB
  0
TABLE
  2
UCS
  5
7
330
0
100
AcDbSymbolTable
 70
     0
  0
ENDTAB
  0
TABLE
  2
APPID
  5
9
330
0
100
AcDbSymbolTable
 70
     1
  0
APPID
  5
12
330
9
100
AcDbSymbolTableRecord
100
AcDbRegAppTableRecord
  2
ACAD
 70
     0
  0
ENDTAB
  0
TABLE
  2
DIMSTYLE
  5
A
330
0
100
AcDbSymbolTable
 70
     1
100
AcDbDimStyleTable
  0
DIMSTYLE
105
27
330
A
100
AcDbSymbolTableRecord
100
AcDbDimStyleTableRecord
  2
Standard
 70
     0
340
11
  0
ENDTAB
  0
TABLE
  2
BLOCK_RECORD
  5
1
330
0
100
AcDbSymbolTable
 70
     1
  0
BLOCK_RECORD
  5
1F
330
1
100
AcDbSymbolTableRecord
100
AcDbBlockTableRecord
  2
*Model_Space
340
22
  0
BLOCK_RECORD
  5
1B
330
1
100
AcDbSymbolTableRecord
100
AcDbBlockTableRecord
  2
*Paper_Space
340
1E
  0
BLOCK_RECORD
  5
23
330
1
100
AcDbSymbolTableRecord
100
AcDbBlockTableRecord
  2
*Paper_Space0
340
26
  0
ENDTAB
  0
ENDSEC
  0
SECTION
  2
BLOCKS
  0
BLOCK
  5
20
330
1F
100
AcDbEntity
  8
0
100
AcDbBlockBegin
  2
*Model_Space
 70
     0
 10
0.0
 20
0.0
 30
0.0
  3
*Model_Space
  1

  0
ENDBLK
  5
21
330
1F
100
AcDbEntity
  8
0
100
AcDbBlockEnd
  0
BLOCK
  5
1C
330
1B
100
AcDbEntity
 67
     1
  8
0
100
AcDbBlockBegin
  2
*Paper_Space
 70
     0
 10
0.0
 20
0.0
 30
0.0
  3
*Paper_Space
  1

  0
ENDBLK
  5
1D
330
1B
100
AcDbEntity
 67
     1
  8
0
100
AcDbBlockEnd
  0
BLOCK
  5
24
330
23
100
AcDbEntity
  8
0
100
AcDbBlockBegin
  2
*Paper_Space0
 70
     0
 10
0.0
 20
0.0
 30
0.0
  3
*Paper_Space0
  1

  0
ENDBLK
  5
25
330
23
100
AcDbEntity
  8
0
100
AcDbBlockEnd
  0
ENDSEC
  0
SECTION
  2
ENTITIES
  0
SPLINE
  5
3C
330
1F
100
AcDbEntity
  8
BACKS
100
AcDbSpline
210
0.0
220
0.0
230
1.0
 70
     8
 71
     2
 72
     6
 73
     3
 74
     0
 42
0.0000000001
 43
0.0000000001
 40
0.0
 40
0.0
 40
0.0
 40
5.25
 40
5.25
 40
5.25
 10
-97.08758345981535
 20
-32.3046477505369
 30
0.0
 10
-97.08756995799217
 20
-29.6796477505369
 30
0.0
 10
-97.08757857448974
 20
-27.0546477505369
 30
0.0
  0
SPLINE
  5
3D
330
1F
100
AcDbEntity
  8
BACKS
100
AcDbSpline
210
0.0
220
0.0
230
1.0
 70
    12
 71
     2
 72
     6
 73
     3
 74
     0
 42
0.0000000001
 43
0.0000000001
 40
0.0
 40
0.0
 40
0.0
 40
1.178111453563259
 40
1.178111453563259
 40
1.178111453563259
 10
-96.33757752388246
 20
-33.05464775053668
 30
0.0
 41
1.0
 10
-97.08758477752265
 20
-33.05465500433235
 30
0.0
 41
0.7071091052925398
 10
-97.08758345981535
 20
-32.3046477505369
 30
0.0
 41
0.9999999998788636
  0
LINE
  5
3E
330
1F
100
AcDbEntity
  8
BACKS
100
AcDbLine
 10
-34.83756392508678
 20
-33.05464775053635
 30
0.0
 11
-96.33757752388246
 21
-33.05464775053668
 31
0.0
  0
SPLINE
  5
3F
330
1F
100
AcDbEntity
  8
BACKS
100
AcDbSpline
210
0.0
220
0.0
230
1.0
 70
    12
 71
     2
 72
     6
 73
     3
 74
     0
 42
0.0000000001
 43
0.0000000001
 40
0.0
 40
0.0
 40
0.0
 40
1.178105736934538
 40
1.178105736934538
 40
1.178105736934538
 10
-34.08756104072903
 20
-32.30464775053701
 30
0.0
 41
0.9999999999555129
 10
-34.08755943507851
 20
-33.05465224060671
 30
0.0
 41
0.7071079694679232
 10
-34.83756392508678
 20
-33.05464775053635
 30
0.0
 41
1.0
  0
SPLINE
  5
40
330
1F
100
AcDbEntity
  8
BACKS
100
AcDbSpline
210
0.0
220
0.0
230
1.0
 70
     8
 71
     2
 72
     6
 73
     3
 74
     0
 42
0.0000000001
 43
0.0000000001
 40
0.0
 40
0.0
 40
0.0
 40
5.250000000000007
 40
5.250000000000007
 40
5.250000000000007
 10
-34.08755615540343
 20
-27.05464775053702
 30
0.0
 10
-34.0875696572266
 20
-29.67964775053702
 30
0.0
 10
-34.08756104072903
 20
-32.30464775053701
 30
0.0
  0
SPLINE
  5
41
330
1F
100
AcDbEntity
  8
BACKS
100
AcDbSpline
210
0.0
220
0.0
230
1.0
 70
    12
 71
     2
 72
     6
 73
     3
 74
     0
 42
0.0000000001
 43
0.0000000001
 40
0.0
 40
0.0
 40
0.0
 40
1.178111453563547
 40
1.178111453563547
 40
1.178111453563547
 10
-34.83756209133649
 20
-26.30464775053724
 30
0.0
 41
1.0
 10
-34.08755483769618
 20
-26.30464049674131
 30
0.0
 41
0.707109105292445
 10
-34.08755615540343
 20
-27.05464775053702
 30
0.0
 41
0.9999999998788596
  0
LINE
  5
42
330
1F
100
AcDbEntity
  8
BACKS
100
AcDbLine
 10
-96.33757569013406
 20
-26.30464775053758
 30
0.0
 11
-34.83756209133649
 21
-26.30464775053724
 31
0.0
  0
SPLINE
  5
43
330
1F
100
AcDbEntity
  8
BACKS
100
AcDbSpline
210
0.0
220
0.0
230
1.0
 70
    12
 71
     2
 72
     6
 73
     3
 74
     0
 42
0.0000000001
 43
0.0000000001
 40
0.0
 40
0.0
 40
0.0
 40
1.178105736932295
 40
1.178105736932295
 40
1.178105736932295
 10
-97.08757857448974
 20
-27.0546477505369
 30
0.0
 41
0.9999999999555189
 10
-97.08758018014032
 20
-26.30464326046937
 30
0.0
 41
0.7071079694688981
 10
-96.33757569013406
 20
-26.30464775053758
 30
0.0
 41
1.0
  0
SPLINE
  5
45
330
1F
100
AcDbEntity
  8
SEATS
100
AcDbSpline
210
0.0
220
0.0
230
1.0
 70
    24
 71
     2
 72
     6
 73
     3
 74
     0
 42
0.0000000001
 43
0.0000000001
 40
0.0
 40
0.0
 40
0.0
 40
61.00000000073197
 40
61.00000000073197
 40
61.00000000073197
 10
-35.08756980724336
 20
-25.30459404400969
 30
0.0
 10
-65.58756980760936
 20
-25.30459404400963
 30
0.0
 10
-96.08756980797534
 20
-25.30459404400957
 30
0.0
  0
ARC
  5
46
330
1F
100
AcDbEntity
  8
SEATS
100
AcDbCircle
 10
-35.08756980724336
 20
-24.30459404400969
 30
0.0
 40
1.0
100
AcDbArc
 50
270.0
 51
359.9999999999996
  0
LINE
  5
47
330
1F
100
AcDbEntity
  8
SEATS
100
AcDbLine
 10
-34.0875698072434
 20
-7.304593743244453
 30
0.0
 11
-34.08756980724336
 21
-24.3045940440097
 31
0.0
  0
ARC
  5
48
330
1F
100
AcDbEntity
  8
SEATS
100
AcDbCircle
 10
-35.0875698072434
 20
-7.304593743244453
 30
0.0
 40
1.0
100
AcDbArc
 50
0.0
 51
89.99999999999797
  0
SPLINE
  5
49
330
1F
100
AcDbEntity
  8
SEATS
100
AcDbSpline
210
0.0
220
0.0
230
1.0
 70
    24
 71
     2
 72
     6
 73
     3
 74
     0
 42
0.0000000001
 43
0.0000000001
 40
0.0
 40
0.0
 40
0.0
 40
61.00000000073197
 40
61.00000000073197
 40
61.00000000073197
 10
-96.08756980797534
 20
-6.304593743243991
 30
0.0
 10
-65.58756980760936
 20
-6.304593743244052
 30
0.0
 10
-35.08756980724336
 20
-6.304593743244112
 30
0.0
  0
SPLINE
  5
4A
330
1F
100
AcDbEntity
  8
SEATS
100
AcDbSpline
210
0.0
220
0.0
230
1.0
 70
    12
 71
     2
 72
     6
 73
     3
 74
     0
 42
0.0000000001
 43
0.0000000001
 40
0.0
 40
0.0
 40
0.0
 40
1.570796326794881
 40
1.570796326794881
 40
1.570796326794881
 10
-97.08756980797534
 20
-7.304593743243981
 30
0.0
 41
1.0
 10
-97.08756980797533
 20
-6.304593743243999
 30
0.0
 41
0.7071067811865623
 10
-96.08756980797534
 20
-6.304593743243991
 30
0.0
 41
1.0
  0
SPLINE
  5
4B
330
1F
100
AcDbEntity
  8
SEATS
100
AcDbSpline
210
0.0
220
0.0
230
1.0
 70
    24
 71
     2
 72
     6
 73
     3
 74
     0
 42
0.0000000001
 43
0.0000000001
 40
-17.00000030076559
 40
-17.00000030076559
 40
-17.00000030076559
 40
0.0
 40
0.0
 40
0.0
 10
-97.08756980797534
 20
-24.30459404400958
 30
0.0
 10
-97.08756980797534
 20
-15.80459389362678
 30
0.0
 10
-97.08756980797534
 20
-7.304593743243981
 30
0.0
  0
ARC
  5
4C
330
1F
100
AcDbEntity
  8
SEATS
100
AcDbCircle
 10
-96.08756980797534
 20
-24.30459404400957
 30
0.0
 40
1.0
100
AcDbArc
 50
180.0000000000004
 51
270.0
  0
SPLINE
  5
4E
330
1F
100
AcDbEntity
  8
FRAME
100
AcDbSpline
210
0.0
220
0.0
230
1.0
 70
    28
 71
     2
 72
     6
 73
     3
 74
     0
 42
0.0000000001
 43
0.0000000001
 40
-189.7004775904644
 40
-189.7004775904644
 40
-189.7004775904644
 40
-188.9130760156615
 40
-188.9130760156615
 40
-188.9130760156615
 10
-43.93406485997338
 20
-25.30459404400968
 30
0.0
 41
1.0
 10
-43.5403640725719
 20
-25.30459404400967
 30
0.0
 41
1.0
 10
-43.14666328517043
 20
-25.30459404400967
 30
0.0
 41
1.0
  0
POLYLINE
  5
4F
330
1F
100
AcDbEntity
  8
FRAME
100
AcDb2dPolyline
 66
     1
 10
0.0
 20
0.0
 30
0.0
  0
VERTEX
  5
50
330
4F
100
AcDbEntity
  8
FRAME
100
AcDbVertex
100
AcDb2dVertex
 10
-43.93406485997338
 20
-26.30464775053715
 30
0.0
  0
VERTEX
  5
51
330
4F
100
AcDbEntity
  8
FRAME
100
AcDbVertex
100
AcDb2dVertex
 10
-43.93406485997338
 20
-25.30459404400968
 30
0.0
  0
SEQEND
  5
52
330
4F
100
AcDbEntity
  8
FRAME
  0
SPLINE
  5
53
330
1F
100
AcDbEntity
  8
FRAME
100
AcDbSpline
210
0.0
220
0.0
230
1.0
 70
    28
 71
     2
 72
     6
 73
     3
 74
     0
 42
0.0000000001
 43
0.0000000001
 40
-122.0471374621136
 40
-122.0471374621136
 40
-122.0471374621136
 40
-121.2597358873106
 40
-121.2597358873106
 40
-121.2597358873106
 10
-43.1466632851704
 20
-26.30464775053715
 30
0.0
 41
1.0
 10
-43.5403640725719
 20
-26.30464775053729
 30
0.0
 41
1.0
 10
-43.93406485997338
 20
-26.30464775053715
 30
0.0
 41
1.0
  0
POLYLINE
  5
54
330
1F
100
AcDbEntity
  8
FRAME
100
AcDb2dPolyline
 66
     1
 10
0.0
 20
0.0
 30
0.0
  0
VERTEX
  5
55
330
54
100
AcDbEntity
  8
FRAME
100
AcDbVertex
100
AcDb2dVertex
 10
-43.14666328517043
 20
-25.30459404400967
 30
0.0
  0
VERTEX
  5
56
330
54
100
AcDbEntity
  8
FRAME
100
AcDbVertex
100
AcDb2dVertex
 10
-43.1466632851704
 20
-26.30464775053715
 30
0.0
  0
SEQEND
  5
57
330
54
100
AcDbEntity
  8
FRAME
  0
POLYLINE
  5
58
330
1F
100
AcDbEntity
  8
FRAME
100
AcDb2dPolyline
 66
     1
 10
0.0
 20
0.0
 30
0.0
  0
VERTEX
  5
59
330
58
100
AcDbEntity
  8
FRAME
100
AcDbVertex
100
AcDb2dVertex
 10
-87.24115147383458
 20
-25.30459404400959
 30
0.0
  0
VERTEX
  5
5A
330
58
100
AcDbEntity
  8
FRAME
100
AcDbVertex
100
AcDb2dVertex
 10
-87.24115147383458
 20
-26.30464775053723
 30
0.0
  0
SEQEND
  5
5B
330
58
100
AcDbEntity
  8
FRAME
  0
SPLINE
  5
5C
330
1F
100
AcDbEntity
  8
FRAME
100
AcDbSpline
210
0.0
220
0.0
230
1.0
 70
    28
 71
     2
 72
     6
 73
     3
 74
     0
 42
0.0000000001
 43
0.0000000001
 40
-233.7949657791286
 40
-233.7949657791286
 40
-233.7949657791286
 40
-233.0075642043256
 40
-233.0075642043256
 40
-233.0075642043256
 10
-88.02855304863755
 20
-25.30459404400958
 30
0.0
 41
1.0
 10
-87.63485226123606
 20
-25.30459404400959
 30
0.0
 41
1.0
 10
-87.24115147383458
 20
-25.30459404400959
 30
0.0
 41
1.0
  0
POLYLINE
  5
5D
330
1F
100
AcDbEntity
  8
FRAME
100
AcDb2dPolyline
 66
     1
 10
0.0
 20
0.0
 30
0.0
  0
VERTEX
  5
5E
330
5D
100
AcDbEntity
  8
FRAME
100
AcDbVertex
100
AcDb2dVertex
 10
-88.02855304863755
 20
-26.30464775053723
 30
0.0
  0
VERTEX
  5
5F
330
5D
100
AcDbEntity
  8
FRAME
100
AcDbVertex
100
AcDb2dVertex
 10
-88.02855304863755
 20
-25.30459404400958
 30
0.0
  0
SEQEND
  5
60
330
5D
100
AcDbEntity
  8
FRAME
  0
SPLINE
  5
61
330
1F
100
AcDbEntity
  8
FRAME
100
AcDbSpline
210
0.0
220
0.0
230
1.0
 70
    28
 71
     2
 72
     6
 73
     3
 74
     0
 42
0.0000000001
 43
0.0000000001
 40
-77.95264927344942
 40
-77.95264927344942
 40
-77.95264927344942
 40
-77.16524769864645
 40
-77.16524769864645
 40
-77.16524769864645
 10
-87.24115147383458
 20
-26.30464775053723
 30
0.0
 41
1.0
 10
-87.63485226123606
 20
-26.30464775053753
 30
0.0
 41
1.0
 10
-88.02855304863755
 20
-26.30464775053723
 30
0.0
 41
1.0
  0
SPLINE
  5
62
330
1F
100
AcDbEntity
  8
BACKS
100
AcDbSpline
210
0.0
220
0.0
230
1.0
 70
     8
 71
     2
 72
     6
 73
     3
 74
     0
 42
0.0000000001
 43
0.0000000001
 40
0.0
 40
0.0
 40
0.0
 40
5.25
 40
5.25
 40
5.25
 10
97.08758345981536
 20
32.31540606114138
 30
0.0
 10
97.08756995799229
 20
29.69040606114138
 30
0.0
 10
97.08757857448978
 20
27.06540606114138
 30
0.0
  0
SPLINE
  5
63
330
1F
100
AcDbEntity
  8
BACKS
100
AcDbSpline
210
0.0
220
0.0
230
1.0
 70
    12
 71
     2
 72
     6
 73
     3
 74
     0
 42
0.0000000001
 43
0.0000000001
 40
0.0
 40
0.0
 40
0.0
 40
1.178111453563259
 40
1.178111453563259
 40
1.178111453563259
 10
96.33757752388249
 20
33.06540606114117
 30
0.0
 41
1.0
 10
97.08758477752265
 20
33.06541331493683
 30
0.0
 41
0.7071091052925398
 10
97.08758345981536
 20
32.31540606114137
 30
0.0
 41
0.9999999998788636
  0
LINE
  5
64
330
1F
100
AcDbEntity
  8
BACKS
100
AcDbLine
 10
34.83756392508687
 20
33.06540606114083
 30
0.0
 11
96.33757752388249
 21
33.06540606114117
 31
0.0
  0
SPLINE
  5
65
330
1F
100
AcDbEntity
  8
BACKS
100
AcDbSpline
210
0.0
220
0.0
230
1.0
 70
    12
 71
     2
 72
     6
 73
     3
 74
     0
 42
0.0000000001
 43
0.0000000001
 40
0.0
 40
0.0
 40
0.0
 40
1.178105736934538
 40
1.178105736934538
 40
1.178105736934538
 10
34.08756104072906
 20
32.31540606114149
 30
0.0
 41
0.9999999999555129
 10
34.08755943507859
 20
33.06541055121118
 30
0.0
 41
0.7071079694679232
 10
34.83756392508687
 20
33.06540606114083
 30
0.0
 41
1.0
  0
SPLINE
  5
66
330
1F
100
AcDbEntity
  8
BACKS
100
AcDbSpline
210
0.0
220
0.0
230
1.0
 70
     8
 71
     2
 72
     6
 73
     3
 74
     0
 42
0.0000000001
 43
0.0000000001
 40
0.0
 40
0.0
 40
0.0
 40
5.250000000000007
 40
5.250000000000007
 40
5.250000000000007
 10
34.08755615540346
 20
27.06540606114149
 30
0.0
 10
34.08756965722668
 20
29.69040606114149
 30
0.0
 10
34.08756104072907
 20
32.31540606114149
 30
0.0
  0
SPLINE
  5
67
330
1F
100
AcDbEntity
  8
BACKS
100
AcDbSpline
210
0.0
220
0.0
230
1.0
 70
    12
 71
     2
 72
     6
 73
     3
 74
     0
 42
0.0000000001
 43
0.0000000001
 40
0.0
 40
0.0
 40
0.0
 40
1.178111453563547
 40
1.178111453563547
 40
1.178111453563547
 10
34.83756209133657
 20
26.31540606114172
 30
0.0
 41
1.0
 10
34.08755483769619
 20
26.3153988073458
 30
0.0
 41
0.707109105292445
 10
34.08755615540347
 20
27.06540606114149
 30
0.0
 41
0.9999999998788596
  0
LINE
  5
68
330
1F
100
AcDbEntity
  8
BACKS
100
AcDbLine
 10
96.33757569013409
 20
26.31540606114207
 30
0.0
 11
34.83756209133657
 21
26.31540606114172
 31
0.0
  0
SPLINE
  5
69
330
1F
100
AcDbEntity
  8
BACKS
100
AcDbSpline
210
0.0
220
0.0
230
1.0
 70
    12
 71
     2
 72
     6
 73
     3
 74
     0
 42
0.0000000001
 43
0.0000000001
 40
0.0
 40
0.0
 40
0.0
 40
1.178105736932295
 40
1.178105736932295
 40
1.178105736932295
 10
97.08757857448978
 20
27.06540606114138
 30
0.0
 41
0.9999999999555189
 10
97.08758018014036
 20
26.31540157107383
 30
0.0
 41
0.7071079694688981
 10
96.33757569013409
 20
26.31540606114207
 30
0.0
 41
1.0
  0
SPLINE
  5
6A
330
1F
100
AcDbEntity
  8
SEATS
100
AcDbSpline
210
0.0
220
0.0
230
1.0
 70
    24
 71
     2
 72
     6
 73
     3
 74
     0
 42
0.0000000001
 43
0.0000000001
 40
0.0
 40
0.0
 40
0.0
 40
61.00000000073197
 40
61.00000000073197
 40
61.00000000073197
 10
35.08756980724348
 20
25.31535235461417
 30
0.0
 10
65.58756980760938
 20
25.31535235461412
 30
0.0
 10
96.08756980797537
 20
25.31535235461405
 30
0.0
  0
ARC
  5
6B
330
1F
100
AcDbEntity
  8
SEATS
100
AcDbCircle
 10
35.08756980724348
 20
24.31535235461417
 30
0.0
 40
1.0
100
AcDbArc
 50
90.0
 51
179.9999999999996
  0
LINE
  5
6C
330
1F
100
AcDbEntity
  8
SEATS
100
AcDbLine
 10
34.08756980724348
 20
7.31535205384894
 30
0.0
 11
34.08756980724348
 21
24.31535235461418
 31
0.0
  0
ARC
  5
6D
330
1F
100
AcDbEntity
  8
SEATS
100
AcDbCircle
 10
35.08756980724348
 20
7.31535205384894
 30
0.0
 40
1.0
100
AcDbArc
 50
180.0
 51
269.9999999999984
  0
SPLINE
  5
6E
330
1F
100
AcDbEntity
  8
SEATS
100
AcDbSpline
210
0.0
220
0.0
230
1.0
 70
    24
 71
     2
 72
     6
 73
     3
 74
     0
 42
0.0000000001
 43
0.0000000001
 40
0.0
 40
0.0
 40
0.0
 40
61.00000000073197
 40
61.00000000073197
 40
61.00000000073197
 10
96.08756980797537
 20
6.315352053848478
 30
0.0
 10
65.58756980760938
 20
6.315352053848535
 30
0.0
 10
35.08756980724348
 20
6.315352053848585
 30
0.0
  0
SPLINE
  5
6F
330
1F
100
AcDbEntity
  8
SEATS
100
AcDbSpline
210
0.0
220
0.0
230
1.0
 70
    12
 71
     2
 72
     6
 73
     3
 74
     0
 42
0.0000000001
 43
0.0000000001
 40
0.0
 40
0.0
 40
0.0
 40
1.570796326794881
 40
1.570796326794881
 40
1.570796326794881
 10
97.08756980797537
 20
7.315352053848471
 30
0.0
 41
1.0
 10
97.08756980797536
 20
6.315352053848476
 30
0.0
 41
0.7071067811865623
 10
96.08756980797537
 20
6.315352053848478
 30
0.0
 41
1.0
  0
SPLINE
  5
70
330
1F
100
AcDbEntity
  8
SEATS
100
AcDbSpline
210
0.0
220
0.0
230
1.0
 70
    24
 71
     2
 72
     6
 73
     3
 74
     0
 42
0.0000000001
 43
0.0000000001
 40
-17.00000030076559
 40
-17.00000030076559
 40
-17.00000030076559
 40
0.0
 40
0.0
 40
0.0
 10
97.08756980797537
 20
24.31535235461406
 30
0.0
 10
97.08756980797537
 20
15.81535220423127
 30
0.0
 10
97.08756980797537
 20
7.315352053848471
 30
0.0
  0
ARC
  5
71
330
1F
100
AcDbEntity
  8
SEATS
100
AcDbCircle
 10
96.08756980797537
 20
24.31535235461405
 30
0.0
 40
1.0
100
AcDbArc
 50
0.0000000000004071
 51
90.0
  0
SPLINE
  5
72
330
1F
100
AcDbEntity
  8
FRAME
100
AcDbSpline
210
0.0
220
0.0
230
1.0
 70
    28
 71
     2
 72
     6
 73
     3
 74
     0
 42
0.0000000001
 43
0.0000000001
 40
-189.7004775904644
 40
-189.7004775904644
 40
-189.7004775904644
 40
-188.9130760156615
 40
-188.9130760156615
 40
-188.9130760156615
 10
43.93406485997349
 20
25.31535235461416
 30
0.0
 41
1.0
 10
43.54036407257198
 20
25.31535235461415
 30
0.0
 41
1.0
 10
43.14666328517046
 20
25.31535235461416
 30
0.0
 41
1.0
  0
POLYLINE
  5
73
330
1F
100
AcDbEntity
  8
FRAME
100
AcDb2dPolyline
 66
     1
 10
0.0
 20
0.0
 30
0.0
  0
VERTEX
  5
74
330
73
100
AcDbEntity
  8
FRAME
100
AcDbVertex
100
AcDb2dVertex
 10
43.93406485997349
 20
26.31540606114163
 30
0.0
  0
VERTEX
  5
75
330
73
100
AcDbEntity
  8
FRAME
100
AcDbVertex
100
AcDb2dVertex
 10
43.93406485997349
 20
25.31535235461416
 30
0.0
  0
SEQEND
  5
76
330
73
100
AcDbEntity
  8
FRAME
  0
SPLINE
  5
77
330
1F
100
AcDbEntity
  8
FRAME
100
AcDbSpline
210
0.0
220
0.0
230
1.0
 70
    28
 71
     2
 72
     6
 73
     3
 74
     0
 42
0.0000000001
 43
0.0000000001
 40
-122.0471374621136
 40
-122.0471374621136
 40
-122.0471374621136
 40
-121.2597358873106
 40
-121.2597358873106
 40
-121.2597358873106
 10
43.14666328517046
 20
26.31540606114163
 30
0.0
 41
1.0
 10
43.54036407257198
 20
26.31540606114176
 30
0.0
 41
1.0
 10
43.93406485997349
 20
26.31540606114163
 30
0.0
 41
1.0
  0
POLYLINE
  5
78
330
1F
100
AcDbEntity
  8
FRAME
100
AcDb2dPolyline
 66
     1
 10
0.0
 20
0.0
 30
0.0
  0
VERTEX
  5
79
330
78
100
AcDbEntity
  8
FRAME
100
AcDbVertex
100
AcDb2dVertex
 10
43.14666328517046
 20
25.31535235461416
 30
0.0
  0
VERTEX
  5
7A
330
78
100
AcDbEntity
  8
FRAME
100
AcDbVertex
100
AcDb2dVertex
 10
43.14666328517046
 20
26.31540606114163
 30
0.0
  0
SEQEND
  5
7B
330
78
100
AcDbEntity
  8
FRAME
  0
SPLINE
  5
7C
330
1F
100
AcDbEntity
  8
FRAME
100
AcDbSpline
210
0.0
220
0.0
230
1.0
 70
    28
 71
     2
 72
     6
 73
     3
 74
     0
 42
0.0000000001
 43
0.0000000001
 40
-189.7004775904644
 40
-189.7004775904644
 40
-189.7004775904644
 40
-188.9130760156615
 40
-188.9130760156615
 40
-188.9130760156615
 10
87.24107658899587
 20
25.31535235461416
 30
0.0
 41
1.0
 10
87.63477737639738
 20
25.31535235461415
 30
0.0
 41
1.0
 10
88.02847816379887
 20
25.31535235461416
 30
0.0
 41
1.0
  0
POLYLINE
  5
7D
330
1F
100
AcDbEntity
  8
FRAME
100
AcDb2dPolyline
 66
     1
 10
0.0
 20
0.0
 30
0.0
  0
VERTEX
  5
7E
330
7D
100
AcDbEntity
  8
FRAME
100
AcDbVertex
100
AcDb2dVertex
 10
87.24107658899587
 20
26.31540606114163
 30
0.0
  0
VERTEX
  5
7F
330
7D
100
AcDbEntity
  8
FRAME
100
AcDbVertex
100
AcDb2dVertex
 10
87.24107658899587
 20
25.31535235461416
 30
0.0
  0
SEQEND
  5
80
330
7D
100
AcDbEntity
  8
FRAME
  0
SPLINE
  5
81
330
1F
100
AcDbEntity
  8
FRAME
100
AcDbSpline
210
0.0
220
0.0
230
1.0
 70
    28
 71
     2
 72
     6
 73
     3
 74
     0
 42
0.0000000001
 43
0.0000000001
 40
-122.0471374621136
 40
-122.0471374621136
 40
-122.0471374621136
 40
-121.2597358873106
 40
-121.2597358873106
 40
-121.2597358873106
 10
88.02847816379887
 20
26.31540606114163
 30
0.0
 41
1.0
 10
87.63477737639738
 20
26.31540606114176
 30
0.0
 41
1.0
 10
87.24107658899587
 20
26.31540606114163
 30
0.0
 41
1.0
  0
POLYLINE
  5
82
330
1F
100
AcDbEntity
  8
FRAME
100
AcDb2dPolyline
 66
     1
 10
0.0
 20
0.0
 30
0.0
  0
VERTEX
  5
83
330
82
100
AcDbEntity
  8
FRAME
100
AcDbVertex
100
AcDb2dVertex
 10
88.02847816379887
 20
25.31535235461416
 30
0.0
  0
VERTEX
  5
84
330
82
100
AcDbEntity
  8
FRAME
100
AcDbVertex
100
AcDb2dVertex
 10
88.02847816379887
 20
26.31540606114163
 30
0.0
  0
SEQEND
  5
85
330
82
100
AcDbEntity
  8
FRAME
  0
ARC
  5
86
330
1F
100
AcDbEntity
  8
SEATS
100
AcDbCircle
 10
10.20790793913677
 20
-7.049695186724133
 30
0.0
 40
1.000000000000349
100
AcDbArc
 50
328.814452038347
 51
60.00000000000036
  0
SPLINE
  5
87
330
1F
100
AcDbEntity
  8
SEATS
100
AcDbSpline
210
0.0
220
0.0
230
1.0
 70
    24
 71
     2
 72
     6
 73
     3
 74
     0
 42
0.0000000001
 43
0.0000000001
 40
0.0
 40
0.0
 40
0.0
 40
24.72885715251735
 40
24.72885715251735
 40
24.72885715251735
 10
-10.7079105614996
 20
6.180758793319328
 30
0.0
 10
-0.0000013111813502
 20
-0.0014554948100312
 30
0.0
 10
10.70790793913687
 20
-6.183669782939393
 30
0.0
  0
ARC
  5
88
330
1F
100
AcDbEntity
  8
SEATS
100
AcDbCircle
 10
-11.20797973432883
 20
5.314613578680195
 30
0.0
 40
1.000138345658428
100
AcDbArc
 50
59.99999999999918
 51
147.7281226586281
  0
ARC
  5
89
330
1F
100
AcDbEntity
  8
SEATS
100
AcDbCircle
 10
-34.19574099859182
 20
19.8271042904536
 30
0.0
 40
26.18532753291089
100
AcDbArc
 50
272.3362282295439
 51
327.7354882255879
  0
ARC
  5
8A
330
1F
100
AcDbEntity
  8
SEATS
100
AcDbCircle
 10
-33.08756980724324
 20
-7.335627340998993
 30
0.0
 40
1.000000000000128
100
AcDbArc
 50
92.33622822954929
 51
179.9999999999997
  0
POLYLINE
  5
8B
330
1F
100
AcDbEntity
  8
SEATS
100
AcDb2dPolyline
 66
     1
 10
0.0
 20
0.0
 30
0.0
  0
VERTEX
  5
8C
330
8B
100
AcDbEntity
  8
SEATS
100
AcDbVertex
100
AcDb2dVertex
 10
-34.08756980724336
 20
-32.06540606117557
 30
0.0
  0
VERTEX
  5
8D
330
8B
100
AcDbEntity
  8
SEATS
100
AcDbVertex
100
AcDb2dVertex
 10
-34.08756980724336
 20
-7.335627340998993
 30
0.0
  0
SEQEND
  5
8E
330
8B
100
AcDbEntity
  8
SEATS
  0
ARC
  5
8F
330
1F
100
AcDbEntity
  8
SEATS
100
AcDbCircle
 10
-33.0875698072427
 20
-32.06540606117557
 30
0.0
 40
1.000000000000668
100
AcDbArc
 50
180.0
 51
271.2233661560882
  0
ARC
  5
90
330
1F
100
AcDbEntity
  8
SEATS
100
AcDbCircle
 10
-34.19572846520563
 20
19.82679708072032
 30
0.0
 40
52.90403416432171
100
AcDbArc
 50
271.2233661561236
 51
328.8144520383259
  0
ARC
  5
91
330
1F
100
AcDbEntity
  8
SEATS
100
AcDbCircle
 10
33.10406942269208
 20
32.03391235722696
 30
0.0
 40
1.000000000000349
100
AcDbArc
 50
0.0000000000008142
 51
91.18554796165405
  0
SPLINE
  5
92
330
1F
100
AcDbEntity
  8
SEATS
100
AcDbSpline
210
0.0
220
0.0
230
1.0
 70
    24
 71
     2
 72
     6
 73
     3
 74
     0
 42
0.0000000001
 43
0.0000000001
 40
0.0
 40
0.0
 40
0.0
 40
24.72885715251735
 40
24.72885715251735
 40
24.72885715251735
 10
34.10406942269236
 20
7.305055204709625
 30
0.0
 10
34.10406942269236
 20
19.66948378096829
 30
0.0
 10
34.10406942269236
 20
32.03391235722696
 30
0.0
  0
ARC
  5
93
330
1F
100
AcDbEntity
  8
SEATS
100
AcDbCircle
 10
33.10393107703396
 20
7.305055204709618
 30
0.0
 40
1.000138345658428
100
AcDbArc
 50
272.2718773413711
 51
0.0000000000005597
  0
ARC
  5
94
330
1F
100
AcDbEntity
  8
SEATS
100
AcDbCircle
 10
34.17823607348399
 20
-19.85917538216071
 30
0.0
 40
26.18532753291089
100
AcDbArc
 50
92.26451177441156
 51
147.6637717704555
  0
ARC
  5
95
330
1F
100
AcDbEntity
  8
SEATS
100
AcDbCircle
 10
11.20870604014118
 20
-5.318105162984452
 30
0.0
 40
1.000000000000128
100
AcDbArc
 50
239.9999999999999
 51
327.6637717704506
  0
POLYLINE
  5
96
330
1F
100
AcDbEntity
  8
SEATS
100
AcDb2dPolyline
 66
     1
 10
0.0
 20
0.0
 30
0.0
  0
VERTEX
  5
97
330
96
100
AcDbEntity
  8
SEATS
100
AcDbVertex
100
AcDb2dVertex
 10
-10.7079105614996
 20
6.180758793319328
 30
0.0
  0
VERTEX
  5
98
330
96
100
AcDbEntity
  8
SEATS
100
AcDbVertex
100
AcDb2dVertex
 10
10.70870604014108
 20
-6.184130566769003
 30
0.0
  0
SEQEND
  5
99
330
96
100
AcDbEntity
  8
SEATS
  0
ARC
  5
9A
330
1F
100
AcDbEntity
  8
SEATS
100
AcDbCircle
 10
-10.20791056149926
 20
7.046784197104337
 30
0.0
 40
1.000000000000668
100
AcDbArc
 50
148.7766338439107
 51
239.9999999999993
  0
ARC
  5
9B
330
1F
100
AcDbEntity
  8
SEATS
100
AcDbCircle
 10
34.17797628874368
 20
-19.85901092306323
 30
0.0
 40
52.90403416432171
100
AcDbArc
 50
91.18554796167402
 51
148.7766338438764
  0
ENDSEC
  0
SECTION
  2
OBJECTS
  0
DICTIONARY
  5
C
330
0
100
AcDbDictionary
281
     1
  3
ACAD_GROUP
350
D
  3
ACAD_LAYOUT
350
1A
  3
ACAD_MLEADERSTYLE
350
9D
  3
ACAD_MLINESTYLE
350
17
  3
ACAD_PLOTSETTINGS
350
19
  3
ACAD_PLOTSTYLENAME
350
E
  3
ACAD_TABLESTYLE
350
9C
  3
ACAD_VISUALSTYLE
350
2A
  0
DICTIONARY
  5
D
102
{ACAD_REACTORS
330
C
102
}
330
C
100
AcDbDictionary
281
     1
  0
DICTIONARY
  5
1A
102
{ACAD_REACTORS
330
C
102
}
330
C
100
AcDbDictionary
281
     1
  3
Layout1
350
1E
  3
Layout2
350
26
  3
Model
350
22
  0
DICTIONARY
  5
9D
102
{ACAD_REACTORS
330
C
102
}
330
C
100
AcDbDictionary
281
     1
  0
DICTIONARY
  5
17
102
{ACAD_REACTORS
330
C
102
}
330
C
100
AcDbDictionary
281
     1
  3
Standard
350
18
  0
DICTIONARY
  5
19
102
{ACAD_REACTORS
330
C
102
}
330
C
100
AcDbDictionary
281
     1
  0
ACDBDICTIONARYWDFLT
  5
E
102
{ACAD_REACTORS
330
C
102
}
330
C
100
AcDbDictionary
281
     1
  3
Normal
350
F
100
AcDbDictionaryWithDefault
340
F
  0
DICTIONARY
  5
9C
102
{ACAD_REACTORS
330
C
102
}
330
C
100
AcDbDictionary
281
     1
  0
DICTIONARY
  5
2A
102
{ACAD_REACTORS
330
C
102
}
330
C
100
AcDbDictionary
281
     1
  3
2dWireframe
350
2F
  3
3D Hidden
350
31
  3
3dWireframe
350
30
  3
Basic
350
32
  3
Brighten
350
36
  3
ColorChange
350
3A
  3
Conceptual
350
34
  3
Dim
350
35
  3
Facepattern
350
39
  3
Flat
350
2B
  3
FlatWithEdges
350
2C
  3
Gouraud
350
2D
  3
GouraudWithEdges
350
2E
  3
Linepattern
350
38
  3
Realistic
350
33
  3
Thicken
350
37
  0
LAYOUT
  5
1E
102
{ACAD_REACTORS
330
1A
102
}
330
1A
100
AcDbPlotSettings
  1

  2
none_device
  4

  6

 40
0.0
 41
0.0
 42
0.0
 43
0.0
 44
0.0
 45
0.0
 46
0.0
 47
0.0
 48
0.0
 49
0.0
140
0.0
141
0.0
142
1.0
143
1.0
 70
   688
 72
     0
 73
     0
 74
     5
  7

 75
    16
 76
     0
 77
     2
 78
   300
147
1.0
148
0.0
149
0.0
100
AcDbLayout
  1
Layout1
 70
     1
 71
     1
 10
0.0
 20
0.0
 11
12.0
 21
9.0
 12
0.0
 22
0.0
 32
0.0
 14
1.000000000000000E+20
 24
1.000000000000000E+20
 34
1.000000000000000E+20
 15
-1.000000000000000E+20
 25
-1.000000000000000E+20
 35
-1.000000000000000E+20
146
0.0
 13
0.0
 23
0.0
 33
0.0
 16
1.0
 26
0.0
 36
0.0
 17
0.0
 27
1.0
 37
0.0
 76
     0
330
1B
  0
LAYOUT
  5
26
102
{ACAD_REACTORS
330
1A
102
}
330
1A
100
AcDbPlotSettings
  1

  2
none_device
  4

  6

 40
0.0
 41
0.0
 42
0.0
 43
0.0
 44
0.0
 45
0.0
 46
0.0
 47
0.0
 48
0.0
 49
0.0
140
0.0
141
0.0
142
1.0
143
1.0
 70
   688
 72
     0
 73
     0
 74
     5
  7

 75
    16
 76
     0
 77
     2
 78
   300
147
1.0
148
0.0
149
0.0
100
AcDbLayout
  1
Layout2
 70
     1
 71
     2
 10
0.0
 20
0.0
 11
0.0
 21
0.0
 12
0.0
 22
0.0
 32
0.0
 14
0.0
 24
0.0
 34
0.0
 15
0.0
 25
0.0
 35
0.0
146
0.0
 13
0.0
 23
0.0
 33
0.0
 16
1.0
 26
0.0
 36
0.0
 17
0.0
 27
1.0
 37
0.0
 76
     0
330
23
  0
LAYOUT
  5
22
102
{ACAD_REACTORS
330
1A
102
}
330
1A
100
AcDbPlotSettings
  1

  2
none_device
  4

  6

 40
0.0
 41
0.0
 42
0.0
 43
0.0
 44
0.0
 45
0.0
 46
0.0
 47
0.0
 48
0.0
 49
0.0
140
0.0
141
0.0
142
1.0
143
1.0
 70
  1712
 72
     0
 73
     0
 74
     0
  7

 75
     0
 76
     0
 77
     2
 78
   300
147
1.0
148
0.0
149
0.0
100
AcDbLayout
  1
Model
 70
     1
 71
     0
 10
0.0
 20
0.0
 11
12.0
 21
9.0
 12
0.0
 22
0.0
 32
0.0
 14
-97.08758345981535
 24
-33.06540606117624
 34
0.0
 15
97.08758345981536
 25
33.06540606114117
 35
0.0
146
0.0
 13
0.0
 23
0.0
 33
0.0
 16
1.0
 26
0.0
 36
0.0
 17
0.0
 27
1.0
 37
0.0
 76
     0
330
1F
331
29
  0
MLINESTYLE
  5
18
102
{ACAD_REACTORS
330
17
102
}
330
17
100
AcDbMlineStyle
  2
Standard
 70
     0
  3

 62
   256
 51
90.0
 52
90.0
 71
     2
 49
0.5
 62
   256
  6
BYLAYER
 49
-0.5
 62
   256
  6
BYLAYER
  0
ACDBPLACEHOLDER
  5
F
102
{ACAD_REACTORS
330
E
102
}
330
E
  0
VISUALSTYLE
  5
2F
102
{ACAD_REACTORS
330
2A
102
}
330
2A
100
AcDbVisualStyle
  2
2dWireframe
 70
     4
 71
     0
 72
     2
 73
     0
 90
        0
 40
-0.6
 41
-30.0
 62
     5
 63
     7
421
 16777215
 74
     1
 91
        4
 64
     7
 65
   257
 75
     1
175
     1
 42
1.0
 92
        0
 66
   257
 43
1.0
 76
     1
 77
     6
 78
     2
 67
     7
 79
     5
170
     0
171
     0
290
     0
174
     0
 93
        1
 44
0.0
173
     0
291
     0
 45
0.0
1001
ACAD
1000
AcDbSavedByObjectVersion
1070
     0
  0
VISUALSTYLE
  5
31
102
{ACAD_REACTORS
330
2A
102
}
330
2A
100
AcDbVisualStyle
  2
3D Hidden
 70
     6
 71
     1
 72
     2
 73
     2
 90
        0
 40
-0.6
 41
-30.0
 62
     5
 63
     7
421
 16777215
 74
     2
 91
        2
 64
     7
 65
   257
 75
     2
175
     1
 42
40.0
 92
        0
 66
   257
 43
1.0
 76
     1
 77
     6
 78
     2
 67
     7
 79
     3
170
     0
171
     0
290
     0
174
     0
 93
        1
 44
0.0
173
     0
291
     0
 45
0.0
1001
ACAD
1000
AcDbSavedByObjectVersion
1070
     0
  0
VISUALSTYLE
  5
30
102
{ACAD_REACTORS
330
2A
102
}
330
2A
100
AcDbVisualStyle
  2
3dWireframe
 70
     5
 71
     0
 72
     2
 73
     0
 90
        0
 40
-0.6
 41
-30.0
 62
     5
 63
     7
421
 16777215
 74
     1
 91
        4
 64
     7
 65
   257
 75
     1
175
     1
 42
1.0
 92
        0
 66
   257
 43
1.0
 76
     1
 77
     6
 78
     2
 67
     7
 79
     5
170
     0
171
     0
290
     0
174
     0
 93
        1
 44
0.0
173
     0
291
     0
 45
0.0
1001
ACAD
1000
AcDbSavedByObjectVersion
1070
     0
  0
VISUALSTYLE
  5
32
102
{ACAD_REACTORS
330
2A
102
}
330
2A
100
AcDbVisualStyle
  2
Basic
 70
     7
 71
     1
 72
     0
 73
     1
 90
        0
 40
-0.6
 41
-30.0
 62
     5
 63
     7
421
 16777215
 74
     0
 91
        4
 64
     7
 65
   257
 75
     1
175
     1
 42
1.0
 92
        8
 66
     7
 43
1.0
 76
     1
 77
     6
 78
     2
 67
     7
 79
     5
170
     0
171
     0
290
     0
174
     0
 93
        1
 44
0.0
173
     0
291
     1
 45
0.0
1001
ACAD
1000
AcDbSavedByObjectVersion
1070
     0
  0
VISUALSTYLE
  5
36
102
{ACAD_REACTORS
330
2A
102
}
330
2A
100
AcDbVisualStyle
  2
Brighten
 70
    12
 71
     2
 72
     2
 73
     0
 90
        0
 40
-0.6
 41
-30.0
 62
     5
 63
     7
421
 16777215
 74
     1
 91
        4
 64
     7
 65
   257
 75
     1
175
     1
 42
1.0
 92
        8
 66
     7
 43
1.0
 76
     1
 77
     6
 78
     2
 67
     7
 79
     5
170
     0
171
     0
290
     0
174
     0
 93
        1
 44
50.0
173
     0
291
     1
 45
0.0
1001
ACAD
1000
AcDbSavedByObjectVersion
1070
     0
  0
VISUALSTYLE
  5
3A
102
{ACAD_REACTORS
330
2A
102
}
330
2A
100
AcDbVisualStyle
  2
ColorChange
 70
    16
 71
     2
 72
     2
 73
     3
 90
        0
 40
-0.6
 41
-30.0
 62
     5
 63
     8
421
  8421504
 74
     1
 91
        4
 64
     7
 65
   257
 75
     1
175
     1
 42
1.0
 92
        8
 66
     8
424
  8421504
 43
1.0
 76
     1
 77
     6
 78
     2
 67
     7
 79
     5
170
     0
171
     0
290
     0
174
     0
 93
        1
 44
0.0
173
     0
291
     1
 45
0.0
1001
ACAD
1000
AcDbSavedByObjectVersion
1070
     0
  0
VISUALSTYLE
  5
34
102
{ACAD_REACTORS
330
2A
102
}
330
2A
100
AcDbVisualStyle
  2
Conceptual
 70
     9
 71
     3
 72
     2
 73
     0
 90
        0
 40
-0.6
 41
-30.0
 62
     5
 63
     7
421
 16777215
 74
     2
 91
        2
 64
     7
 65
   257
 75
     1
175
     1
 42
40.0
 92
        8
 66
     7
 43
1.0
 76
     1
 77
     6
 78
     2
 67
     7
 79
     3
170
     0
171
     0
290
     0
174
     0
 93
        1
 44
0.0
173
     0
291
     0
 45
0.0
1001
ACAD
1000
AcDbSavedByObjectVersion
1070
     0
  0
VISUALSTYLE
  5
35
102
{ACAD_REACTORS
330
2A
102
}
330
2A
100
AcDbVisualStyle
  2
Dim
 70
    11
 71
     2
 72
     2
 73
     0
 90
        0
 40
-0.6
 41
-30.0
 62
     5
 63
     7
421
 16777215
 74
     1
 91
        4
 64
     7
 65
   257
 75
     1
175
     1
 42
1.0
 92
        8
 66
     7
 43
1.0
 76
     1
 77
     6
 78
     2
 67
     7
 79
     5
170
     0
171
     0
290
     0
174
     0
 93
        1
 44
-50.0
173
     0
291
     1
 45
0.0
1001
ACAD
1000
AcDbSavedByObjectVersion
1070
     0
  0
VISUALSTYLE
  5
39
102
{ACAD_REACTORS
330
2A
102
}
330
2A
100
AcDbVisualStyle
  2
Facepattern
 70
    15
 71
     2
 72
     2
 73
     0
 90
        0
 40
-0.6
 41
-30.0
 62
     5
 63
     7
421
 16777215
 74
     1
 91
        4
 64
     7
 65
   257
 75
     1
175
     1
 42
1.0
 92
        8
 66
     7
 43
1.0
 76
     1
 77
     6
 78
     2
 67
     7
 79
     5
170
     0
171
     0
290
     0
174
     0
 93
        1
 44
0.0
173
     0
291
     1
 45
0.0
1001
ACAD
1000
AcDbSavedByObjectVersion
1070
     0
  0
VISUALSTYLE
  5
2B
102
{ACAD_REACTORS
330
2A
102
}
330
2A
100
AcDbVisualStyle
  2
Flat
 70
     0
 71
     2
 72
     1
 73
     1
 90
        2
 40
-0.6
 41
30.0
 62
     5
 63
     7
421
 16777215
 74
     0
 91
        4
 64
     7
 65
   257
 75
     1
175
     1
 42
1.0
 92
        8
 66
     7
 43
1.0
 76
     1
 77
     6
 78
     2
 67
     7
 79
     5
170
     0
171
     0
290
     0
174
     0
 93
       13
 44
0.0
173
     0
291
     1
 45
0.0
1001
ACAD
1000
AcDbSavedByObjectVersion
1070
     0
  0
VISUALSTYLE
  5
2C
102
{ACAD_REACTORS
330
2A
102
}
330
2A
100
AcDbVisualStyle
  2
FlatWithEdges
 70
     1
 71
     2
 72
     1
 73
     1
 90
        2
 40
-0.6
 41
30.0
 62
     5
 63
     7
421
 16777215
 74
     1
 91
        4
 64
     7
 65
   257
 75
     1
175
     1
 42
1.0
 92
        0
 66
   257
 43
1.0
 76
     1
 77
     6
 78
     2
 67
     7
 79
     5
170
     0
171
     0
290
     0
174
     0
 93
       13
 44
0.0
173
     0
291
     1
 45
0.0
1001
ACAD
1000
AcDbSavedByObjectVersion
1070
     0
  0
VISUALSTYLE
  5
2D
102
{ACAD_REACTORS
330
2A
102
}
330
2A
100
AcDbVisualStyle
  2
Gouraud
 70
     2
 71
     2
 72
     2
 73
     1
 90
        2
 40
-0.6
 41
30.0
 62
     5
 63
     7
421
 16777215
 74
     0
 91
        4
 64
     7
 65
   257
 75
     1
175
     1
 42
1.0
 92
        0
 66
     7
 43
1.0
 76
     1
 77
     6
 78
     2
 67
     7
 79
     5
170
     0
171
     0
290
     0
174
     0
 93
       13
 44
0.0
173
     0
291
     1
 45
0.0
1001
ACAD
1000
AcDbSavedByObjectVersion
1070
     0
  0
VISUALSTYLE
  5
2E
102
{ACAD_REACTORS
330
2A
102
}
330
2A
100
AcDbVisualStyle
  2
GouraudWithEdges
 70
     3
 71
     2
 72
     2
 73
     1
 90
        2
 40
-0.6
 41
30.0
 62
     5
 63
     7
421
 16777215
 74
     1
 91
        4
 64
     7
 65
   257
 75
     1
175
     1
 42
1.0
 92
        0
 66
   257
 43
1.0
 76
     1
 77
     6
 78
     2
 67
     7
 79
     5
170
     0
171
     0
290
     0
174
     0
 93
       13
 44
0.0
173
     0
291
     1
 45
0.0
1001
ACAD
1000
AcDbSavedByObjectVersion
1070
     0
  0
VISUALSTYLE
  5
38
102
{ACAD_REACTORS
330
2A
102
}
330
2A
100
AcDbVisualStyle
  2
Linepattern
 70
    14
 71
     2
 72
     2
 73
     0
 90
        0
 40
-0.6
 41
-30.0
 62
     5
 63
     7
421
 16777215
 74
     1
 91
        4
 64
     7
 65
   257
 75
     7
175
     7
 42
1.0
 92
        8
 66
     7
 43
1.0
 76
     1
 77
     6
 78
     2
 67
     7
 79
     5
170
     0
171
     0
290
     0
174
     0
 93
        1
 44
0.0
173
     0
291
     1
 45
0.0
1001
ACAD
1000
AcDbSavedByObjectVersion
1070
     0
  0
VISUALSTYLE
  5
33
102
{ACAD_REACTORS
330
2A
102
}
330
2A
100
AcDbVisualStyle
  2
Realistic
 70
     8
 71
     2
 72
     2
 73
     0
 90
        0
 40
-0.6
 41
-30.0
 62
     5
 63
     7
421
 16777215
 74
     1
 91
        0
 64
     7
 65
   257
 75
     1
175
     1
 42
1.0
 92
        8
 66
     8
424
  7895160
 43
1.0
 76
     1
 77
     6
 78
     2
 67
     7
 79
     5
170
     0
171
     0
290
     0
174
     0
 93
       13
 44
0.0
173
     0
291
     0
 45
0.0
1001
ACAD
1000
AcDbSavedByObjectVersion
1070
     0
  0
VISUALSTYLE
  5
37
102
{ACAD_REACTORS
330
2A
102
}
330
2A
100
AcDbVisualStyle
  2
Thicken
 70
    13
 71
     2
 72
     2
 73
     0
 90
        0
 40
-0.6
 41
-30.0
 62
     5
 63
     7
421
 16777215
 74
     1
 91
        4
 64
     7
 65
   257
 75
     1
175
     1
 42
1.0
 92
       12
 66
     7
 43
1.0
 76
     1
 77
     6
 78
     2
 67
     7
 79
     5
170
     0
171
     0
290
     0
174
     0
 93
        1
 44
0.0
173
     0
291
     1
 45
0.0
1001
ACAD
1000
AcDbSavedByObjectVersion
1070
     0
  0
ENDSEC
  0
EOF
