  0
SECTION
  2
HEADER
  9
$ACADVER
  1
AC1018
  9
$ACADMAINTVER
 70
     0
  9
$DWGCODEPAGE
  3
ANSI_1252
  9
$INSBASE
 10
0.0
 20
0.0
 30
0.0
  9
$EXTMIN
 10
-108.9288004494447
 20
-34.20269272088732
 30
0.0
  9
$EXTMAX
 10
108.9288004494446
 20
34.20269272088732
 30
0.0
  9
$LIMMIN
 10
0.0
 20
0.0
  9
$LIMMAX
 10
12.0
 20
9.0
  9
$ORTHOMODE
 70
     0
  9
$REGENMODE
 70
     1
  9
$FILLMODE
 70
     1
  9
$QTEXTMODE
 70
     0
  9
$MIRRTEXT
 70
     1
  9
$LTSCALE
 40
0.0393700787401575
  9
$ATTMODE
 70
     1
  9
$TEXTSIZE
 40
0.2
  9
$TRACEWID
 40
0.05
  9
$TEXTSTYLE
  7
Standard
  9
$CLAYER
  8
SEATS
  9
$CELTYPE
  6
ByLayer
  9
$CECOLOR
 62
   256
  9
$CELTSCALE
 40
1.0
  9
$DISPSILH
 70
     0
  9
$DIMSCALE
 40
1.0
  9
$DIMASZ
 40
0.18
  9
$DIMEXO
 40
0.0625
  9
$DIMDLI
 40
0.38
  9
$DIMRND
 40
0.0
  9
$DIMDLE
 40
0.0
  9
$DIMEXE
 40
0.18
  9
$DIMTP
 40
0.0
  9
$DIMTM
 40
0.0
  9
$DIMTXT
 40
0.18
  9
$DIMCEN
 40
0.09
  9
$DIMTSZ
 40
0.0
  9
$DIMTOL
 70
     0
  9
$DIMLIM
 70
     0
  9
$DIMTIH
 70
     1
  9
$DIMTOH
 70
     1
  9
$DIMSE1
 70
     0
  9
$DIMSE2
 70
     0
  9
$DIMTAD
 70
     0
  9
$DIMZIN
 70
     0
  9
$DIMBLK
  1

  9
$DIMASO
 70
     1
  9
$DIMSHO
 70
     1
  9
$DIMPOST
  1

  9
$DIMAPOST
  1

  9
$DIMALT
 70
     0
  9
$DIMALTD
 70
     2
  9
$DIMALTF
 40
25.4
  9
$DIMLFAC
 40
1.0
  9
$DIMTOFL
 70
     0
  9
$DIMTVP
 40
0.0
  9
$DIMTIX
 70
     0
  9
$DIMSOXD
 70
     0
  9
$DIMSAH
 70
     0
  9
$DIMBLK1
  1

  9
$DIMBLK2
  1

  9
$DIMSTYLE
  2
Standard
  9
$DIMCLRD
 70
     0
  9
$DIMCLRE
 70
     0
  9
$DIMCLRT
 70
     0
  9
$DIMTFAC
 40
1.0
  9
$DIMGAP
 40
0.09
  9
$DIMJUST
 70
     0
  9
$DIMSD1
 70
     0
  9
$DIMSD2
 70
     0
  9
$DIMTOLJ
 70
     1
  9
$DIMTZIN
 70
     0
  9
$DIMALTZ
 70
     0
  9
$DIMALTTZ
 70
     0
  9
$DIMUPT
 70
     0
  9
$DIMDEC
 70
     4
  9
$DIMTDEC
 70
     4
  9
$DIMALTU
 70
     2
  9
$DIMALTTD
 70
     2
  9
$DIMTXSTY
  7
Standard
  9
$DIMAUNIT
 70
     0
  9
$DIMADEC
 70
     0
  9
$DIMALTRND
 40
0.0
  9
$DIMAZIN
 70
     0
  9
$DIMDSEP
 70
    46
  9
$DIMATFIT
 70
     3
  9
$DIMFRAC
 70
     0
  9
$DIMLDRBLK
  1

  9
$DIMLUNIT
 70
     2
  9
$DIMLWD
 70
    -2
  9
$DIMLWE
 70
    -2
  9
$DIMTMOVE
 70
     2
  9
$LUNITS
 70
     2
  9
$LUPREC
 70
     3
  9
$SKETCHINC
 40
0.1
  9
$FILLETRAD
 40
0.5
  9
$AUNITS
 70
     0
  9
$AUPREC
 70
     0
  9
$MENU
  1
.
  9
$ELEVATION
 40
0.0
  9
$PELEVATION
 40
0.0
  9
$THICKNESS
 40
0.0
  9
$LIMCHECK
 70
     0
  9
$CHAMFERA
 40
0.5
  9
$CHAMFERB
 40
0.5
  9
$CHAMFERC
 40
1.0
  9
$CHAMFERD
 40
0.0
  9
$SKPOLY
 70
     0
  9
$TDCREATE
 40
2457539.948465521
  9
$TDUCREATE
 40
2457540.115132187
  9
$TDUPDATE
 40
2457539.948465533
  9
$TDUUPDATE
 40
2457540.115132199
  9
$TDINDWG
 40
0.0000000116
  9
$TDUSRTIMER
 40
0.0000000116
  9
$USRTIMER
 70
     1
  9
$ANGBASE
 50
0.0
  9
$ANGDIR
 70
     0
  9
$PDMODE
 70
     0
  9
$PDSIZE
 40
0.0
  9
$PLINEWID
 40
0.0
  9
$SPLFRAME
 70
     0
  9
$SPLINETYPE
 70
     6
  9
$SPLINESEGS
 70
     8
  9
$HANDSEED
  5
C4
  9
$SURFTAB1
 70
     6
  9
$SURFTAB2
 70
     6
  9
$SURFTYPE
 70
     6
  9
$SURFU
 70
     6
  9
$SURFV
 70
     6
  9
$UCSBASE
  2

  9
$UCSNAME
  2

  9
$UCSORG
 10
0.0
 20
0.0
 30
0.0
  9
$UCSXDIR
 10
1.0
 20
0.0
 30
0.0
  9
$UCSYDIR
 10
0.0
 20
1.0
 30
0.0
  9
$UCSORTHOREF
  2

  9
$UCSORTHOVIEW
 70
     0
  9
$UCSORGTOP
 10
0.0
 20
0.0
 30
0.0
  9
$UCSORGBOTTOM
 10
0.0
 20
0.0
 30
0.0
  9
$UCSORGLEFT
 10
0.0
 20
0.0
 30
0.0
  9
$UCSORGRIGHT
 10
0.0
 20
0.0
 30
0.0
  9
$UCSORGFRONT
 10
0.0
 20
0.0
 30
0.0
  9
$UCSORGBACK
 10
0.0
 20
0.0
 30
0.0
  9
$PUCSBASE
  2

  9
$PUCSNAME
  2

  9
$PUCSORG
 10
0.0
 20
0.0
 30
0.0
  9
$PUCSXDIR
 10
1.0
 20
0.0
 30
0.0
  9
$PUCSYDIR
 10
0.0
 20
1.0
 30
0.0
  9
$PUCSORTHOREF
  2

  9
$PUCSORTHOVIEW
 70
     0
  9
$PUCSORGTOP
 10
0.0
 20
0.0
 30
0.0
  9
$PUCSORGBOTTOM
 10
0.0
 20
0.0
 30
0.0
  9
$PUCSORGLEFT
 10
0.0
 20
0.0
 30
0.0
  9
$PUCSORGRIGHT
 10
0.0
 20
0.0
 30
0.0
  9
$PUCSORGFRONT
 10
0.0
 20
0.0
 30
0.0
  9
$PUCSORGBACK
 10
0.0
 20
0.0
 30
0.0
  9
$USERI1
 70
     0
  9
$USERI2
 70
     0
  9
$USERI3
 70
     0
  9
$USERI4
 70
     0
  9
$USERI5
 70
     0
  9
$USERR1
 40
0.0
  9
$USERR2
 40
0.0
  9
$USERR3
 40
0.0
  9
$USERR4
 40
0.0
  9
$USERR5
 40
0.0
  9
$WORLDVIEW
 70
     1
  9
$SHADEDGE
 70
     3
  9
$SHADEDIF
 70
    70
  9
$TILEMODE
 70
     1
  9
$MAXACTVP
 70
    64
  9
$PINSBASE
 10
0.0
 20
0.0
 30
0.0
  9
$PLIMCHECK
 70
     0
  9
$PEXTMIN
 10
1.000000000000000E+20
 20
1.000000000000000E+20
 30
1.000000000000000E+20
  9
$PEXTMAX
 10
-1.000000000000000E+20
 20
-1.000000000000000E+20
 30
-1.000000000000000E+20
  9
$PLIMMIN
 10
0.0
 20
0.0
  9
$PLIMMAX
 10
12.0
 20
9.0
  9
$UNITMODE
 70
     0
  9
$VISRETAIN
 70
     1
  9
$PLINEGEN
 70
     0
  9
$PSLTSCALE
 70
     1
  9
$TREEDEPTH
 70
  3020
  9
$CMLSTYLE
  2
Standard
  9
$CMLJUST
 70
     0
  9
$CMLSCALE
 40
1.0
  9
$PROXYGRAPHICS
 70
     1
  9
$MEASUREMENT
 70
     0
  9
$CELWEIGHT
370
    -1
  9
$ENDCAPS
280
     0
  9
$JOINSTYLE
280
     0
  9
$LWDISPLAY
290
     0
  9
$INSUNITS
 70
     1
  9
$HYPERLINKBASE
  1

  9
$STYLESHEET
  1

  9
$XEDIT
290
     1
  9
$CEPSNTYPE
380
     0
  9
$PSTYLEMODE
290
     1
  9
$FINGERPRINTGUID
  2
{49C6A0E5-B424-4296-815A-497D77C747BE}
  9
$VERSIONGUID
  2
{FAEB1C32-E019-11D5-929B-00C0DF256EC4}
  9
$EXTNAMES
290
     1
  9
$PSVPSCALE
 40
0.0
  9
$OLESTARTUP
290
     0
  9
$SORTENTS
280
   127
  9
$INDEXCTL
280
     0
  9
$HIDETEXT
280
     1
  9
$XCLIPFRAME
290
     0
  9
$HALOGAP
280
     0
  9
$OBSCOLOR
 70
   257
  9
$OBSLTYPE
280
     0
  9
$INTERSECTIONDISPLAY
280
     0
  9
$INTERSECTIONCOLOR
 70
   257
  9
$DIMASSOC
280
     2
  9
$PROJECTNAME
  1

  0
ENDSEC
  0
SECTION
  2
CLASSES
  0
CLASS
  1
ACDBDICTIONARYWDFLT
  2
AcDbDictionaryWithDefault
  3
ObjectDBX Classes
 90
        0
 91
        4
280
     0
281
     0
  0
CLASS
  1
VISUALSTYLE
  2
AcDbVisualStyle
  3
ObjectDBX Classes
 90
     4095
 91
        4
280
     0
281
     0
  0
ENDSEC
  0
SECTION
  2
TABLES
  0
TABLE
  2
VPORT
  5
8
330
0
100
AcDbSymbolTable
 70
     1
  0
VPORT
  5
29
330
8
100
AcDbSymbolTableRecord
100
AcDbViewportTableRecord
  2
*Active
 70
     0
 10
0.0
 20
0.0
 11
1.0
 21
1.0
 12
0.0
 22
0.0
 13
0.0
 23
0.0
 14
0.5
 24
0.5
 15
0.5
 25
0.5
 16
0.0
 26
0.0
 36
1.0
 17
-0.0000000000000142
 27
0.0
 37
0.0
 40
69.77349315061014
 41
3.184801890844187
 42
50.0
 43
0.0
 44
0.0
 50
0.0
 51
0.0
 71
     0
 72
   100
 73
     1
 74
     3
 75
     0
 76
     0
 77
     0
 78
     0
281
     0
 65
     1
110
0.0
120
0.0
130
0.0
111
1.0
121
0.0
131
0.0
112
0.0
122
1.0
132
0.0
 79
     0
146
0.0
  0
ENDTAB
  0
TABLE
  2
LTYPE
  5
5
330
0
100
AcDbSymbolTable
 70
     1
  0
LTYPE
  5
14
330
5
100
AcDbSymbolTableRecord
100
AcDbLinetypeTableRecord
  2
ByBlock
 70
     0
  3

 72
    65
 73
     0
 40
0.0
  0
LTYPE
  5
15
330
5
100
AcDbSymbolTableRecord
100
AcDbLinetypeTableRecord
  2
ByLayer
 70
     0
  3

 72
    65
 73
     0
 40
0.0
  0
LTYPE
  5
16
330
5
100
AcDbSymbolTableRecord
100
AcDbLinetypeTableRecord
  2
Continuous
 70
     0
  3
Solid line
 72
    65
 73
     0
 40
0.0
  0
ENDTAB
  0
TABLE
  2
LAYER
  5
2
330
0
100
AcDbSymbolTable
 70
     4
  0
LAYER
  5
10
330
2
100
AcDbSymbolTableRecord
100
AcDbLayerTableRecord
  2
0
 70
     0
 62
     7
  6
Continuous
370
    -3
390
F
  0
LAYER
  5
3B
330
2
100
AcDbSymbolTableRecord
100
AcDbLayerTableRecord
  2
SEATS
 70
     0
 62
   251
  6
Continuous
370
    -3
390
F
  0
LAYER
  5
44
330
2
100
AcDbSymbolTableRecord
100
AcDbLayerTableRecord
  2
TABLE
 70
     0
 62
     7
  6
Continuous
370
    -3
390
F
  0
LAYER
  5
4D
330
2
100
AcDbSymbolTableRecord
100
AcDbLayerTableRecord
  2
FRAME
 70
     0
 62
    15
  6
Continuous
370
    -3
390
F
  0
ENDTAB
  0
TABLE
  2
STYLE
  5
3
330
0
100
AcDbSymbolTable
 70
     1
  0
STYLE
  5
11
330
3
100
AcDbSymbolTableRecord
100
AcDbTextStyleTableRecord
  2
Standard
 70
     0
 40
0.0
 41
1.0
 50
0.0
 71
     0
 42
0.2
  3
txt
  4

  0
ENDTAB
  0
TABLE
  2
VIEW
  5
6
330
0
100
AcDbSymbolTable
 70
     0
  0
ENDTAB
  0
TABLE
  2
UCS
  5
7
330
0
100
AcDbSymbolTable
 70
     0
  0
ENDTAB
  0
TABLE
  2
APPID
  5
9
330
0
100
AcDbSymbolTable
 70
     1
  0
APPID
  5
12
330
9
100
AcDbSymbolTableRecord
100
AcDbRegAppTableRecord
  2
ACAD
 70
     0
  0
ENDTAB
  0
TABLE
  2
DIMSTYLE
  5
A
330
0
100
AcDbSymbolTable
 70
     1
100
AcDbDimStyleTable
  0
DIMSTYLE
105
27
330
A
100
AcDbSymbolTableRecord
100
AcDbDimStyleTableRecord
  2
Standard
 70
     0
340
11
  0
ENDTAB
  0
TABLE
  2
BLOCK_RECORD
  5
1
330
0
100
AcDbSymbolTable
 70
     1
  0
BLOCK_RECORD
  5
1F
330
1
100
AcDbSymbolTableRecord
100
AcDbBlockTableRecord
  2
*Model_Space
340
22
  0
BLOCK_RECORD
  5
1B
330
1
100
AcDbSymbolTableRecord
100
AcDbBlockTableRecord
  2
*Paper_Space
340
1E
  0
BLOCK_RECORD
  5
23
330
1
100
AcDbSymbolTableRecord
100
AcDbBlockTableRecord
  2
*Paper_Space0
340
26
  0
ENDTAB
  0
ENDSEC
  0
SECTION
  2
BLOCKS
  0
BLOCK
  5
20
330
1F
100
AcDbEntity
  8
0
100
AcDbBlockBegin
  2
*Model_Space
 70
     0
 10
0.0
 20
0.0
 30
0.0
  3
*Model_Space
  1

  0
ENDBLK
  5
21
330
1F
100
AcDbEntity
  8
0
100
AcDbBlockEnd
  0
BLOCK
  5
1C
330
1B
100
AcDbEntity
 67
     1
  8
0
100
AcDbBlockBegin
  2
*Paper_Space
 70
     0
 10
0.0
 20
0.0
 30
0.0
  3
*Paper_Space
  1

  0
ENDBLK
  5
1D
330
1B
100
AcDbEntity
 67
     1
  8
0
100
AcDbBlockEnd
  0
BLOCK
  5
24
330
23
100
AcDbEntity
  8
0
100
AcDbBlockBegin
  2
*Paper_Space0
 70
     0
 10
0.0
 20
0.0
 30
0.0
  3
*Paper_Space0
  1

  0
ENDBLK
  5
25
330
23
100
AcDbEntity
  8
0
100
AcDbBlockEnd
  0
ENDSEC
  0
SECTION
  2
ENTITIES
  0
SPLINE
  5
3C
330
1F
100
AcDbEntity
  8
SEATS
100
AcDbSpline
210
0.0
220
0.0
230
1.0
 70
    24
 71
     2
 72
     6
 73
     3
 74
     0
 42
0.0000000001
 43
0.0000000001
 40
-61.0
 40
-61.0
 40
-61.0
 40
0.0
 40
0.0
 40
0.0
 10
107.9288004494446
 20
7.452692720887292
 30
0.0
 10
77.42880044944464
 20
7.452692720887306
 30
0.0
 10
46.92880044944464
 20
7.45269272088732
 30
0.0
  0
ARC
  5
3D
330
1F
100
AcDbEntity
  8
SEATS
100
AcDbCircle
 10
107.9288004494446
 20
8.45269272088732
 30
0.0
 40
1.0
100
AcDbArc
 50
270.0
 51
0.0
  0
SPLINE
  5
3E
330
1F
100
AcDbEntity
  8
SEATS
100
AcDbSpline
210
0.0
220
0.0
230
1.0
 70
    24
 71
     2
 72
     6
 73
     3
 74
     0
 42
0.0000000001
 43
0.0000000001
 40
0.0
 40
0.0
 40
0.0
 40
24.75
 40
24.75
 40
24.75
 10
108.9288004494446
 20
33.20269272088732
 30
0.0
 10
108.9288004494446
 20
20.82769272088732
 30
0.0
 10
108.9288004494446
 20
8.45269272088732
 30
0.0
  0
ARC
  5
3F
330
1F
100
AcDbEntity
  8
SEATS
100
AcDbCircle
 10
107.9288004494446
 20
33.20269272088732
 30
0.0
 40
1.0
100
AcDbArc
 50
0.0
 51
90.0
  0
SPLINE
  5
40
330
1F
100
AcDbEntity
  8
SEATS
100
AcDbSpline
210
0.0
220
0.0
230
1.0
 70
    24
 71
     2
 72
     6
 73
     3
 74
     0
 42
0.0000000001
 43
0.0000000001
 40
-61.0
 40
-61.0
 40
-61.0
 40
0.0
 40
0.0
 40
0.0
 10
46.92880044944464
 20
34.20269272088732
 30
0.0
 10
77.42880044944464
 20
34.20269272088732
 30
0.0
 10
107.9288004494446
 20
34.20269272088732
 30
0.0
  0
ARC
  5
41
330
1F
100
AcDbEntity
  8
SEATS
100
AcDbCircle
 10
46.92880044944464
 20
33.20269272088732
 30
0.0
 40
1.0
100
AcDbArc
 50
90.0
 51
180.0
  0
SPLINE
  5
42
330
1F
100
AcDbEntity
  8
SEATS
100
AcDbSpline
210
0.0
220
0.0
230
1.0
 70
    24
 71
     2
 72
     6
 73
     3
 74
     0
 42
0.0000000001
 43
0.0000000001
 40
0.0
 40
0.0
 40
0.0
 40
24.75
 40
24.75
 40
24.75
 10
45.92880044944464
 20
8.45269272088732
 30
0.0
 10
45.92880044944464
 20
20.82769272088732
 30
0.0
 10
45.92880044944464
 20
33.20269272088732
 30
0.0
  0
ARC
  5
43
330
1F
100
AcDbEntity
  8
SEATS
100
AcDbCircle
 10
46.92880044944464
 20
8.45269272088732
 30
0.0
 40
1.0
100
AcDbArc
 50
180.0
 51
270.0
  0
SPLINE
  5
45
330
1F
100
AcDbEntity
  8
TABLE
100
AcDbSpline
210
0.0
220
0.0
230
1.0
 70
    12
 71
     2
 72
     6
 73
     3
 74
     0
 42
0.0000000001
 43
0.0000000001
 40
0.0
 40
0.0
 40
0.0
 40
1.195718281020204
 40
1.195718281020204
 40
1.195718281020204
 10
44.98957132659082
 20
7.610601006916525
 30
0.0
 41
1.0
 10
45.73586238129243
 20
7.649618347340197
 30
0.0
 41
0.7253310832057916
 10
45.73586238129273
 20
8.39692865181977
 30
0.0
 41
1.0
  0
SPLINE
  5
46
330
1F
100
AcDbEntity
  8
TABLE
100
AcDbSpline
210
0.0
220
0.0
230
1.0
 70
    12
 71
     2
 72
     6
 73
     3
 74
     0
 42
0.0000000001
 43
0.0000000001
 40
-10.7259391888857
 40
-10.7259391888857
 40
-10.7259391888857
 40
0.0
 40
0.0
 40
0.0
 10
34.70478842945793
 20
4.854767867543671
 30
0.0
 41
1.0
 10
39.55410911286302
 20
7.326425981345091
 30
0.0
 41
0.9781208052593975
 10
44.98957132659082
 20
7.610601006916525
 30
0.0
 41
1.0
  0
SPLINE
  5
47
330
1F
100
AcDbEntity
  8
TABLE
100
AcDbSpline
210
0.0
220
0.0
230
1.0
 70
    12
 71
     2
 72
     6
 73
     3
 74
     0
 42
0.0000000001
 43
0.0000000001
 40
0.0
 40
0.0
 40
0.0
 40
1.195718281020405
 40
1.195718281020405
 40
1.195718281020405
 10
33.66531570345423
 20
5.162595669020284
 30
0.0
 41
1.0
 10
34.03897483254504
 20
4.515408256883084
 30
0.0
 41
0.7253310832056451
 10
34.70478842945793
 20
4.854767867543671
 30
0.0
 41
1.0
  0
SPLINE
  5
48
330
1F
100
AcDbEntity
  8
TABLE
100
AcDbSpline
210
0.0
220
0.0
230
1.0
 70
    24
 71
     2
 72
     6
 73
     3
 74
     0
 42
0.0000000001
 43
0.0000000001
 40
0.0
 40
0.0
 40
0.0
 40
24.0295076701127
 40
24.0295076701127
 40
24.0295076701127
 10
21.65043399411162
 20
25.97268592299347
 30
0.0
 10
27.65787484878292
 20
15.56764079600687
 30
0.0
 10
33.66531570345423
 20
5.162595669020284
 30
0.0
  0
SPLINE
  5
49
330
1F
100
AcDbEntity
  8
TABLE
100
AcDbSpline
210
0.0
220
0.0
230
1.0
 70
    12
 71
     2
 72
     8
 73
     5
 74
     0
 42
0.0000000001
 43
0.0000000001
 40
0.0
 40
0.0
 40
0.0
 40
0.6291915737987586
 40
0.6291915737987586
 40
1.258383147597517
 40
1.258383147597517
 40
1.258383147597517
 10
21.95743163327693
 20
27.05880981323038
 30
0.0
 41
1.0
 10
21.66505972135842
 20
26.90050525766294
 30
0.0
 41
0.9212413323606873
 10
21.57462645552464
 20
26.5805623070875
 30
0.0
 41
1.0
 10
21.48419318969083
 20
26.26061935651205
 30
0.0
 41
0.9212413323606873
 10
21.65043399411162
 20
25.97268592299347
 30
0.0
 41
1.0
  0
SPLINE
  5
4A
330
1F
100
AcDbEntity
  8
TABLE
100
AcDbSpline
210
0.0
220
0.0
230
1.0
 70
    12
 71
     2
 72
     6
 73
     3
 74
     0
 42
0.0000000001
 43
0.0000000001
 40
0.0
 40
0.0
 40
0.0
 40
23.99905102550241
 40
23.99905102550241
 40
23.99905102550241
 10
44.92692784511364
 20
33.21354341221792
 30
0.0
 41
1.0
 10
32.70716739959792
 20
32.87924629697688
 30
0.0
 41
0.9726417492228905
 10
21.95743163327693
 20
27.05880981323038
 30
0.0
 41
1.0
  0
SPLINE
  5
4B
330
1F
100
AcDbEntity
  8
TABLE
100
AcDbSpline
210
0.0
220
0.0
230
1.0
 70
    12
 71
     2
 72
     8
 73
     5
 74
     0
 42
0.0000000001
 43
0.0000000001
 40
0.0
 40
0.0
 40
0.0
 40
0.6291915737988328
 40
0.6291915737988328
 40
1.258383147597666
 40
1.258383147597666
 40
1.258383147597666
 10
45.73586238129063
 20
32.42643632193336
 30
0.0
 41
1.0
 10
45.73586238129062
 20
32.7589143921761
 30
0.0
 41
0.921241332360536
 10
45.49757197569933
 20
32.99077501797418
 30
0.0
 41
1.0
 10
45.25928157010804
 20
33.22263564377225
 30
0.0
 41
0.921241332360536
 10
44.92692784511364
 20
33.21354341221789
 30
0.0
 41
1.0
  0
SPLINE
  5
4C
330
1F
100
AcDbEntity
  8
TABLE
100
AcDbSpline
210
0.0
220
0.0
230
1.0
 70
    24
 71
     2
 72
     6
 73
     3
 74
     0
 42
0.0000000001
 43
0.0000000001
 40
0.0
 40
0.0
 40
0.0
 40
24.02950767011359
 40
24.02950767011359
 40
24.02950767011359
 10
45.73586238129273
 20
8.39692865181977
 30
0.0
 10
45.73586238129162
 20
20.41168248687656
 30
0.0
 10
45.73586238129063
 20
32.42643632193336
 30
0.0
  0
POLYLINE
  5
4E
330
1F
100
AcDbEntity
  8
FRAME
100
AcDb2dPolyline
 66
     1
 10
0.0
 20
0.0
 30
0.0
  0
VERTEX
  5
4F
330
4E
100
AcDbEntity
  8
FRAME
100
AcDbVertex
100
AcDb2dVertex
 10
45.92880044944464
 20
24.71932875894844
 30
0.0
  0
VERTEX
  5
50
330
4E
100
AcDbEntity
  8
FRAME
100
AcDbVertex
100
AcDb2dVertex
 10
45.73586238129123
 20
24.69610631779148
 30
0.0
  0
SEQEND
  5
51
330
4E
100
AcDbEntity
  8
FRAME
  0
SPLINE
  5
52
330
1F
100
AcDbEntity
  8
FRAME
100
AcDbSpline
210
0.0
220
0.0
230
1.0
 70
    28
 71
     2
 72
     6
 73
     3
 74
     0
 42
0.0000000001
 43
0.0000000001
 40
17.04440055473261
 40
17.04440055473261
 40
17.04440055473261
 40
17.837432364856
 40
17.837432364856
 40
17.837432364856
 10
45.92880044946823
 20
23.92629694882503
 30
0.0
 41
1.0
 10
45.92880044944464
 20
24.32281285388673
 30
0.0
 41
1.0
 10
45.92880044944464
 20
24.71932875894844
 30
0.0
 41
1.0
  0
POLYLINE
  5
53
330
1F
100
AcDbEntity
  8
FRAME
100
AcDb2dPolyline
 66
     1
 10
0.0
 20
0.0
 30
0.0
  0
VERTEX
  5
54
330
53
100
AcDbEntity
  8
FRAME
100
AcDbVertex
100
AcDb2dVertex
 10
45.73586238130672
 20
23.90282774888536
 30
0.0
  0
VERTEX
  5
55
330
53
100
AcDbEntity
  8
FRAME
100
AcDbVertex
100
AcDb2dVertex
 10
45.92880044946823
 20
23.92629694882503
 30
0.0
  0
SEQEND
  5
56
330
53
100
AcDbEntity
  8
FRAME
  0
SPLINE
  5
57
330
1F
100
AcDbEntity
  8
FRAME
100
AcDbSpline
210
0.0
220
0.0
230
1.0
 70
    28
 71
     2
 72
     6
 73
     3
 74
     0
 42
0.0000000001
 43
0.0000000001
 40
-78.70349526011066
 40
-78.70349526011066
 40
-78.70349526011066
 40
-77.91021669120454
 40
-77.91021669120454
 40
-77.91021669120454
 10
45.73586238129123
 20
24.69610631779148
 30
0.0
 41
1.0
 10
45.73586238129131
 20
24.29946703333842
 30
0.0
 41
1.0
 10
45.73586238130672
 20
23.90282774888536
 30
0.0
 41
1.0
  0
POLYLINE
  5
58
330
1F
100
AcDbEntity
  8
FRAME
100
AcDb2dPolyline
 66
     1
 10
0.0
 20
0.0
 30
0.0
  0
VERTEX
  5
59
330
58
100
AcDbEntity
  8
FRAME
100
AcDbVertex
100
AcDb2dVertex
 10
45.92880044944464
 20
16.58462897768863
 30
0.0
  0
VERTEX
  5
5A
330
58
100
AcDbEntity
  8
FRAME
100
AcDbVertex
100
AcDb2dVertex
 10
45.73586238131413
 20
16.55862263301859
 30
0.0
  0
SEQEND
  5
5B
330
58
100
AcDbEntity
  8
FRAME
  0
SPLINE
  5
5C
330
1F
100
AcDbEntity
  8
FRAME
100
AcDbSpline
210
0.0
220
0.0
230
1.0
 70
    28
 71
     2
 72
     6
 73
     3
 74
     0
 42
0.0000000001
 43
0.0000000001
 40
8.908308781431044
 40
8.908308781431044
 40
8.908308781431044
 40
9.702732583596205
 40
9.702732583596205
 40
9.702732583596205
 10
45.92880044946632
 20
15.79020517552346
 30
0.0
 41
1.0
 10
45.92880044944464
 20
16.18741707660605
 30
0.0
 41
1.0
 10
45.92880044944464
 20
16.58462897768863
 30
0.0
 41
1.0
  0
POLYLINE
  5
5D
330
1F
100
AcDbEntity
  8
FRAME
100
AcDb2dPolyline
 66
     1
 10
0.0
 20
0.0
 30
0.0
  0
VERTEX
  5
5E
330
5D
100
AcDbEntity
  8
FRAME
100
AcDbVertex
100
AcDb2dVertex
 10
45.73586238129214
 20
15.76388686196456
 30
0.0
  0
VERTEX
  5
5F
330
5D
100
AcDbEntity
  8
FRAME
100
AcDbVertex
100
AcDb2dVertex
 10
45.92880044946632
 20
15.79020517552346
 30
0.0
  0
SEQEND
  5
60
330
5D
100
AcDbEntity
  8
FRAME
  0
SPLINE
  5
61
330
1F
100
AcDbEntity
  8
FRAME
100
AcDbSpline
210
0.0
220
0.0
230
1.0
 70
    28
 71
     2
 72
     6
 73
     3
 74
     0
 42
0.0000000001
 43
0.0000000001
 40
-70.56601157533777
 40
-70.56601157533777
 40
-70.56601157533777
 40
-69.77127580428373
 40
-69.77127580428373
 40
-69.77127580428373
 10
45.73586238131413
 20
16.55862263301859
 30
0.0
 41
1.0
 10
45.73586238129202
 20
16.16125474749158
 30
0.0
 41
1.0
 10
45.73586238129214
 20
15.76388686196456
 30
0.0
 41
1.0
  0
POLYLINE
  5
62
330
1F
100
AcDbEntity
  8
FRAME
100
AcDb2dPolyline
 66
     1
 10
0.0
 20
0.0
 30
0.0
  0
VERTEX
  5
63
330
62
100
AcDbEntity
  8
FRAME
100
AcDbVertex
100
AcDb2dVertex
 10
29.40433329365221
 20
12.1568569329237
 30
0.0
  0
VERTEX
  5
64
330
62
100
AcDbEntity
  8
FRAME
100
AcDbVertex
100
AcDb2dVertex
 10
29.80154942448424
 20
11.46886817590438
 30
0.0
  0
SEQEND
  5
65
330
62
100
AcDbEntity
  8
FRAME
  0
POLYLINE
  5
66
330
1F
100
AcDbEntity
  8
FRAME
100
AcDb2dPolyline
 66
     1
 10
0.0
 20
0.0
 30
0.0
  0
VERTEX
  5
67
330
66
100
AcDbEntity
  8
FRAME
100
AcDbVertex
100
AcDb2dVertex
 10
29.58442527995241
 20
12.23080491847765
 30
0.0
  0
VERTEX
  5
68
330
66
100
AcDbEntity
  8
FRAME
100
AcDbVertex
100
AcDb2dVertex
 10
29.40433329365221
 20
12.1568569329237
 30
0.0
  0
SEQEND
  5
69
330
66
100
AcDbEntity
  8
FRAME
  0
SPLINE
  5
6A
330
1F
100
AcDbEntity
  8
FRAME
100
AcDbSpline
210
0.0
220
0.0
230
1.0
 70
    28
 71
     2
 72
     6
 73
     3
 74
     0
 42
0.0000000001
 43
0.0000000001
 40
-129.6121920495864
 40
-129.6121920495864
 40
-129.6121920495864
 40
-128.8174562738636
 40
-128.8174562738636
 40
-128.8174562738636
 10
29.98179739706113
 20
11.54254598917974
 30
0.0
 41
1.0
 10
29.78311133851652
 20
11.88667545383434
 30
0.0
 41
1.0
 10
29.58442527995241
 20
12.23080491847765
 30
0.0
 41
1.0
  0
POLYLINE
  5
6B
330
1F
100
AcDbEntity
  8
FRAME
100
AcDb2dPolyline
 66
     1
 10
0.0
 20
0.0
 30
0.0
  0
VERTEX
  5
6C
330
6B
100
AcDbEntity
  8
FRAME
100
AcDbVertex
100
AcDb2dVertex
 10
29.80154942448424
 20
11.46886817590438
 30
0.0
  0
VERTEX
  5
6D
330
6B
100
AcDbEntity
  8
FRAME
100
AcDbVertex
100
AcDb2dVertex
 10
29.98179739706113
 20
11.54254598917974
 30
0.0
  0
SEQEND
  5
6E
330
6B
100
AcDbEntity
  8
FRAME
  0
POLYLINE
  5
6F
330
1F
100
AcDbEntity
  8
FRAME
100
AcDb2dPolyline
 66
     1
 10
0.0
 20
0.0
 30
0.0
  0
VERTEX
  5
70
330
6F
100
AcDbEntity
  8
FRAME
100
AcDbVertex
100
AcDb2dVertex
 10
25.33693996899662
 20
19.20168885321262
 30
0.0
  0
VERTEX
  5
71
330
6F
100
AcDbEntity
  8
FRAME
100
AcDbVertex
100
AcDb2dVertex
 10
25.73346023901483
 20
18.51490534537428
 30
0.0
  0
SEQEND
  5
72
330
6F
100
AcDbEntity
  8
FRAME
  0
POLYLINE
  5
73
330
1F
100
AcDbEntity
  8
FRAME
100
AcDb2dPolyline
 66
     1
 10
0.0
 20
0.0
 30
0.0
  0
VERTEX
  5
74
330
73
100
AcDbEntity
  8
FRAME
100
AcDbVertex
100
AcDb2dVertex
 10
25.51563999115102
 20
19.27804775722248
 30
0.0
  0
VERTEX
  5
75
330
73
100
AcDbEntity
  8
FRAME
100
AcDbVertex
100
AcDb2dVertex
 10
25.33693996899662
 20
19.20168885321262
 30
0.0
  0
SEQEND
  5
76
330
73
100
AcDbEntity
  8
FRAME
  0
SPLINE
  5
77
330
1F
100
AcDbEntity
  8
FRAME
100
AcDbSpline
210
0.0
220
0.0
230
1.0
 70
    28
 71
     2
 72
     6
 73
     3
 74
     0
 42
0.0000000001
 43
0.0000000001
 40
-121.4732511579966
 40
-121.4732511579966
 40
-121.4732511579966
 40
-120.6799723043183
 40
-120.6799723043183
 40
-120.6799723043183
 10
25.91228363945173
 20
18.59105055493134
 30
0.0
 41
1.0
 10
25.71396181530814
 20
18.93454915608081
 30
0.0
 41
1.0
 10
25.51563999115102
 20
19.27804775722248
 30
0.0
 41
1.0
  0
POLYLINE
  5
78
330
1F
100
AcDbEntity
  8
FRAME
100
AcDb2dPolyline
 66
     1
 10
0.0
 20
0.0
 30
0.0
  0
VERTEX
  5
79
330
78
100
AcDbEntity
  8
FRAME
100
AcDbVertex
100
AcDb2dVertex
 10
25.73346023901483
 20
18.51490534537428
 30
0.0
  0
VERTEX
  5
7A
330
78
100
AcDbEntity
  8
FRAME
100
AcDbVertex
100
AcDb2dVertex
 10
25.91228363945173
 20
18.59105055493134
 30
0.0
  0
SEQEND
  5
7B
330
78
100
AcDbEntity
  8
FRAME
  0
SPLINE
  5
7C
330
1F
100
AcDbEntity
  8
SEATS
100
AcDbSpline
210
0.0
220
0.0
230
1.0
 70
    24
 71
     2
 72
     6
 73
     3
 74
     0
 42
0.0000000001
 43
0.0000000001
 40
-61.0
 40
-61.0
 40
-61.0
 40
0.0
 40
0.0
 40
0.0
 10
-46.92880044944467
 20
-34.20269272088732
 30
0.0
 10
-77.42880044944467
 20
-34.20269272088731
 30
0.0
 10
-107.9288004494447
 20
-34.20269272088729
 30
0.0
  0
ARC
  5
7D
330
1F
100
AcDbEntity
  8
SEATS
100
AcDbCircle
 10
-46.92880044944467
 20
-33.20269272088729
 30
0.0
 40
1.0
100
AcDbArc
 50
270.0
 51
0.0
  0
SPLINE
  5
7E
330
1F
100
AcDbEntity
  8
SEATS
100
AcDbSpline
210
0.0
220
0.0
230
1.0
 70
    24
 71
     2
 72
     6
 73
     3
 74
     0
 42
0.0000000001
 43
0.0000000001
 40
0.0
 40
0.0
 40
0.0
 40
24.75
 40
24.75
 40
24.75
 10
-45.92880044944467
 20
-8.452692720887288
 30
0.0
 10
-45.92880044944467
 20
-20.82769272088728
 30
0.0
 10
-45.92880044944467
 20
-33.20269272088729
 30
0.0
  0
ARC
  5
7F
330
1F
100
AcDbEntity
  8
SEATS
100
AcDbCircle
 10
-46.92880044944467
 20
-8.452692720887288
 30
0.0
 40
1.0
100
AcDbArc
 50
0.0
 51
90.0
  0
SPLINE
  5
80
330
1F
100
AcDbEntity
  8
SEATS
100
AcDbSpline
210
0.0
220
0.0
230
1.0
 70
    24
 71
     2
 72
     6
 73
     3
 74
     0
 42
0.0000000001
 43
0.0000000001
 40
-61.0
 40
-61.0
 40
-61.0
 40
0.0
 40
0.0
 40
0.0
 10
-107.9288004494447
 20
-7.452692720887288
 30
0.0
 10
-77.42880044944467
 20
-7.452692720887288
 30
0.0
 10
-46.92880044944467
 20
-7.452692720887288
 30
0.0
  0
ARC
  5
81
330
1F
100
AcDbEntity
  8
SEATS
100
AcDbCircle
 10
-107.9288004494447
 20
-8.452692720887288
 30
0.0
 40
1.0
100
AcDbArc
 50
90.0
 51
180.0
  0
SPLINE
  5
82
330
1F
100
AcDbEntity
  8
SEATS
100
AcDbSpline
210
0.0
220
0.0
230
1.0
 70
    24
 71
     2
 72
     6
 73
     3
 74
     0
 42
0.0000000001
 43
0.0000000001
 40
0.0
 40
0.0
 40
0.0
 40
24.75
 40
24.75
 40
24.75
 10
-108.9288004494447
 20
-33.20269272088729
 30
0.0
 10
-108.9288004494447
 20
-20.82769272088728
 30
0.0
 10
-108.9288004494447
 20
-8.452692720887288
 30
0.0
  0
ARC
  5
83
330
1F
100
AcDbEntity
  8
SEATS
100
AcDbCircle
 10
-107.9288004494447
 20
-33.20269272088729
 30
0.0
 40
1.0
100
AcDbArc
 50
180.0
 51
270.0
  0
SPLINE
  5
84
330
1F
100
AcDbEntity
  8
SEATS
100
AcDbSpline
210
0.0
220
0.0
230
1.0
 70
    24
 71
     2
 72
     6
 73
     3
 74
     0
 42
0.0000000001
 43
0.0000000001
 40
-61.0
 40
-61.0
 40
-61.0
 40
0.0
 40
0.0
 40
0.0
 10
33.10432768676914
 20
3.74839088439866
 30
0.0
 10
6.690646580202824
 20
-11.50177142295461
 30
0.0
 10
-19.72303452636358
 20
-26.75193373030788
 30
0.0
  0
ARC
  5
85
330
1F
100
AcDbEntity
  8
SEATS
100
AcDbCircle
 10
32.60432236521662
 20
4.614413215761516
 30
0.0
 40
1.0
100
AcDbArc
 50
300.0003520717073
 51
30.0003520717073
  0
SPLINE
  5
86
330
1F
100
AcDbEntity
  8
SEATS
100
AcDbSpline
210
0.0
220
0.0
230
1.0
 70
    24
 71
     2
 72
     6
 73
     3
 74
     0
 42
0.0000000001
 43
0.0000000001
 40
0.0
 40
0.0
 40
0.0
 40
24.75
 40
24.75
 40
24.75
 10
21.09521298815342
 20
26.54847123854417
 30
0.0
 10
27.28277884236643
 20
15.83144488792913
 30
0.0
 10
33.47034469657943
 20
5.11441853731408
 30
0.0
  0
ARC
  5
87
330
1F
100
AcDbEntity
  8
SEATS
100
AcDbCircle
 10
20.22919065679064
 20
26.0484659169916
 30
0.0
 40
1.0
100
AcDbArc
 50
30.00035207170976
 51
120.0003520717098
  0
SPLINE
  5
88
330
1F
100
AcDbEntity
  8
SEATS
100
AcDbSpline
210
0.0
220
0.0
230
1.0
 70
    24
 71
     2
 72
     6
 73
     3
 74
     0
 42
0.0000000001
 43
0.0000000001
 40
-61.0
 40
-61.0
 40
-61.0
 40
0.0
 40
0.0
 40
0.0
 10
-33.09817687789474
 20
-3.585836366352126
 30
0.0
 10
-6.684495771328372
 20
11.66432594100115
 30
0.0
 10
19.72918533523803
 20
26.91448824835444
 30
0.0
  0
ARC
  5
89
330
1F
100
AcDbEntity
  8
SEATS
100
AcDbCircle
 10
-32.59817155634217
 20
-4.451858697714957
 30
0.0
 40
1.0
100
AcDbArc
 50
120.0003520717091
 51
210.0003520717088
  0
SPLINE
  5
8A
330
1F
100
AcDbEntity
  8
SEATS
100
AcDbSpline
210
0.0
220
0.0
230
1.0
 70
    24
 71
     2
 72
     6
 73
     3
 74
     0
 42
0.0000000001
 43
0.0000000001
 40
0.0
 40
0.0
 40
0.0
 40
24.75
 40
24.75
 40
24.75
 10
-21.08906217927898
 20
-26.38591672049761
 30
0.0
 10
-27.27662803349199
 20
-15.66889036988257
 30
0.0
 10
-33.46419388770501
 20
-4.951864019267529
 30
0.0
  0
ARC
  5
8B
330
1F
100
AcDbEntity
  8
SEATS
100
AcDbCircle
 10
-20.22303984791614
 20
-25.88591139894505
 30
0.0
 40
1.0
100
AcDbArc
 50
210.0003520717084
 51
300.0003520717084
  0
SPLINE
  5
8C
330
1F
100
AcDbEntity
  8
TABLE
100
AcDbSpline
210
0.0
220
0.0
230
1.0
 70
    12
 71
     2
 72
     6
 73
     3
 74
     0
 42
0.0000000001
 43
0.0000000001
 40
0.0
 40
0.0
 40
0.0
 40
1.195718281020204
 40
1.195718281020204
 40
1.195718281020204
 10
-44.98342051771642
 20
-7.448046488869949
 30
0.0
 41
1.0
 10
-45.72971157241803
 20
-7.487063829293616
 30
0.0
 41
0.7253310832057916
 10
-45.72971157241833
 20
-8.234374133773187
 30
0.0
 41
1.0
  0
SPLINE
  5
8D
330
1F
100
AcDbEntity
  8
TABLE
100
AcDbSpline
210
0.0
220
0.0
230
1.0
 70
    12
 71
     2
 72
     6
 73
     3
 74
     0
 42
0.0000000001
 43
0.0000000001
 40
-10.7259391888857
 40
-10.7259391888857
 40
-10.7259391888857
 40
0.0
 40
0.0
 40
0.0
 10
-34.69863762058354
 20
-4.692213349497088
 30
0.0
 41
1.0
 10
-39.5479583039886
 20
-7.163871463298505
 30
0.0
 41
0.9781208052593975
 10
-44.98342051771642
 20
-7.448046488869949
 30
0.0
 41
1.0
  0
SPLINE
  5
8E
330
1F
100
AcDbEntity
  8
TABLE
100
AcDbSpline
210
0.0
220
0.0
230
1.0
 70
    12
 71
     2
 72
     6
 73
     3
 74
     0
 42
0.0000000001
 43
0.0000000001
 40
0.0
 40
0.0
 40
0.0
 40
1.195718281020405
 40
1.195718281020405
 40
1.195718281020405
 10
-33.65916489457983
 20
-5.000041150973708
 30
0.0
 41
1.0
 10
-34.03282402367064
 20
-4.352853738836506
 30
0.0
 41
0.7253310832056451
 10
-34.69863762058354
 20
-4.692213349497088
 30
0.0
 41
1.0
  0
SPLINE
  5
8F
330
1F
100
AcDbEntity
  8
TABLE
100
AcDbSpline
210
0.0
220
0.0
230
1.0
 70
    24
 71
     2
 72
     6
 73
     3
 74
     0
 42
0.0000000001
 43
0.0000000001
 40
0.0
 40
0.0
 40
0.0
 40
24.0295076701127
 40
24.0295076701127
 40
24.0295076701127
 10
-21.64428318523723
 20
-25.81013140494689
 30
0.0
 10
-27.65172403990853
 20
-15.4050862779603
 30
0.0
 10
-33.65916489457983
 20
-5.000041150973708
 30
0.0
  0
SPLINE
  5
90
330
1F
100
AcDbEntity
  8
TABLE
100
AcDbSpline
210
0.0
220
0.0
230
1.0
 70
    12
 71
     2
 72
     8
 73
     5
 74
     0
 42
0.0000000001
 43
0.0000000001
 40
0.0
 40
0.0
 40
0.0
 40
0.6291915737987586
 40
0.6291915737987586
 40
1.258383147597517
 40
1.258383147597517
 40
1.258383147597517
 10
-21.95128082440253
 20
-26.89625529518381
 30
0.0
 41
1.0
 10
-21.65890891248402
 20
-26.73795073961635
 30
0.0
 41
0.9212413323606873
 10
-21.56847564665024
 20
-26.41800778904092
 30
0.0
 41
1.0
 10
-21.47804238081643
 20
-26.09806483846547
 30
0.0
 41
0.9212413323606873
 10
-21.64428318523723
 20
-25.81013140494689
 30
0.0
 41
1.0
  0
SPLINE
  5
91
330
1F
100
AcDbEntity
  8
TABLE
100
AcDbSpline
210
0.0
220
0.0
230
1.0
 70
    12
 71
     2
 72
     6
 73
     3
 74
     0
 42
0.0000000001
 43
0.0000000001
 40
0.0
 40
0.0
 40
0.0
 40
23.99905102550241
 40
23.99905102550241
 40
23.99905102550241
 10
-44.92077703623924
 20
-33.05098889417135
 30
0.0
 41
1.0
 10
-32.70101659072352
 20
-32.7166917789303
 30
0.0
 41
0.9726417492228905
 10
-21.95128082440253
 20
-26.89625529518381
 30
0.0
 41
1.0
  0
SPLINE
  5
92
330
1F
100
AcDbEntity
  8
TABLE
100
AcDbSpline
210
0.0
220
0.0
230
1.0
 70
    12
 71
     2
 72
     8
 73
     5
 74
     0
 42
0.0000000001
 43
0.0000000001
 40
0.0
 40
0.0
 40
0.0
 40
0.6291915737988328
 40
0.6291915737988328
 40
1.258383147597666
 40
1.258383147597666
 40
1.258383147597666
 10
-45.72971157241623
 20
-32.26388180388678
 30
0.0
 41
1.0
 10
-45.72971157241623
 20
-32.59635987412952
 30
0.0
 41
0.921241332360536
 10
-45.49142116682493
 20
-32.8282204999276
 30
0.0
 41
1.0
 10
-45.25313076123363
 20
-33.06008112572567
 30
0.0
 41
0.921241332360536
 10
-44.92077703623924
 20
-33.05098889417131
 30
0.0
 41
1.0
  0
SPLINE
  5
93
330
1F
100
AcDbEntity
  8
TABLE
100
AcDbSpline
210
0.0
220
0.0
230
1.0
 70
    24
 71
     2
 72
     6
 73
     3
 74
     0
 42
0.0000000001
 43
0.0000000001
 40
0.0
 40
0.0
 40
0.0
 40
24.02950767011359
 40
24.02950767011359
 40
24.02950767011359
 10
-45.72971157241833
 20
-8.234374133773187
 30
0.0
 10
-45.72971157241722
 20
-20.24912796882998
 30
0.0
 10
-45.72971157241623
 20
-32.26388180388678
 30
0.0
  0
POLYLINE
  5
94
330
1F
100
AcDbEntity
  8
FRAME
100
AcDb2dPolyline
 66
     1
 10
0.0
 20
0.0
 30
0.0
  0
VERTEX
  5
95
330
94
100
AcDbEntity
  8
FRAME
100
AcDbVertex
100
AcDb2dVertex
 10
-45.92264964057024
 20
-24.55677424090185
 30
0.0
  0
VERTEX
  5
96
330
94
100
AcDbEntity
  8
FRAME
100
AcDbVertex
100
AcDb2dVertex
 10
-45.7297115724168
 20
-24.5335517997449
 30
0.0
  0
SEQEND
  5
97
330
94
100
AcDbEntity
  8
FRAME
  0
SPLINE
  5
98
330
1F
100
AcDbEntity
  8
FRAME
100
AcDbSpline
210
0.0
220
0.0
230
1.0
 70
    28
 71
     2
 72
     6
 73
     3
 74
     0
 42
0.0000000001
 43
0.0000000001
 40
17.04440055473261
 40
17.04440055473261
 40
17.04440055473261
 40
17.837432364856
 40
17.837432364856
 40
17.837432364856
 10
-45.92264964059382
 20
-23.76374243077845
 30
0.0
 41
1.0
 10
-45.92264964057023
 20
-24.16025833584015
 30
0.0
 41
1.0
 10
-45.92264964057024
 20
-24.55677424090185
 30
0.0
 41
1.0
  0
POLYLINE
  5
99
330
1F
100
AcDbEntity
  8
FRAME
100
AcDb2dPolyline
 66
     1
 10
0.0
 20
0.0
 30
0.0
  0
VERTEX
  5
9A
330
99
100
AcDbEntity
  8
FRAME
100
AcDbVertex
100
AcDb2dVertex
 10
-45.72971157243234
 20
-23.74027323083879
 30
0.0
  0
VERTEX
  5
9B
330
99
100
AcDbEntity
  8
FRAME
100
AcDbVertex
100
AcDb2dVertex
 10
-45.92264964059382
 20
-23.76374243077845
 30
0.0
  0
SEQEND
  5
9C
330
99
100
AcDbEntity
  8
FRAME
  0
SPLINE
  5
9D
330
1F
100
AcDbEntity
  8
FRAME
100
AcDbSpline
210
0.0
220
0.0
230
1.0
 70
    28
 71
     2
 72
     6
 73
     3
 74
     0
 42
0.0000000001
 43
0.0000000001
 40
-78.70349526011066
 40
-78.70349526011066
 40
-78.70349526011066
 40
-77.91021669120454
 40
-77.91021669120454
 40
-77.91021669120454
 10
-45.7297115724168
 20
-24.5335517997449
 30
0.0
 41
1.0
 10
-45.72971157241692
 20
-24.13691251529185
 30
0.0
 41
1.0
 10
-45.72971157243234
 20
-23.74027323083879
 30
0.0
 41
1.0
  0
POLYLINE
  5
9E
330
1F
100
AcDbEntity
  8
FRAME
100
AcDb2dPolyline
 66
     1
 10
0.0
 20
0.0
 30
0.0
  0
VERTEX
  5
9F
330
9E
100
AcDbEntity
  8
FRAME
100
AcDbVertex
100
AcDb2dVertex
 10
-45.92264964057023
 20
-16.42207445964205
 30
0.0
  0
VERTEX
  5
A0
330
9E
100
AcDbEntity
  8
FRAME
100
AcDbVertex
100
AcDb2dVertex
 10
-45.72971157243976
 20
-16.39606811497202
 30
0.0
  0
SEQEND
  5
A1
330
9E
100
AcDbEntity
  8
FRAME
  0
SPLINE
  5
A2
330
1F
100
AcDbEntity
  8
FRAME
100
AcDbSpline
210
0.0
220
0.0
230
1.0
 70
    28
 71
     2
 72
     6
 73
     3
 74
     0
 42
0.0000000001
 43
0.0000000001
 40
8.908308781431044
 40
8.908308781431044
 40
8.908308781431044
 40
9.702732583596205
 40
9.702732583596205
 40
9.702732583596205
 10
-45.92264964059189
 20
-15.62765065747688
 30
0.0
 41
1.0
 10
-45.92264964057023
 20
-16.02486255855948
 30
0.0
 41
1.0
 10
-45.92264964057023
 20
-16.42207445964205
 30
0.0
 41
1.0
  0
POLYLINE
  5
A3
330
1F
100
AcDbEntity
  8
FRAME
100
AcDb2dPolyline
 66
     1
 10
0.0
 20
0.0
 30
0.0
  0
VERTEX
  5
A4
330
A3
100
AcDbEntity
  8
FRAME
100
AcDbVertex
100
AcDb2dVertex
 10
-45.72971157241768
 20
-15.60133234391799
 30
0.0
  0
VERTEX
  5
A5
330
A3
100
AcDbEntity
  8
FRAME
100
AcDbVertex
100
AcDb2dVertex
 10
-45.92264964059189
 20
-15.62765065747688
 30
0.0
  0
SEQEND
  5
A6
330
A3
100
AcDbEntity
  8
FRAME
  0
SPLINE
  5
A7
330
1F
100
AcDbEntity
  8
FRAME
100
AcDbSpline
210
0.0
220
0.0
230
1.0
 70
    28
 71
     2
 72
     6
 73
     3
 74
     0
 42
0.0000000001
 43
0.0000000001
 40
-70.56601157533777
 40
-70.56601157533777
 40
-70.56601157533777
 40
-69.77127580428373
 40
-69.77127580428373
 40
-69.77127580428373
 10
-45.72971157243976
 20
-16.39606811497202
 30
0.0
 41
1.0
 10
-45.72971157241763
 20
-15.998700229445
 30
0.0
 41
1.0
 10
-45.72971157241768
 20
-15.60133234391799
 30
0.0
 41
1.0
  0
POLYLINE
  5
A8
330
1F
100
AcDbEntity
  8
FRAME
100
AcDb2dPolyline
 66
     1
 10
0.0
 20
0.0
 30
0.0
  0
VERTEX
  5
A9
330
A8
100
AcDbEntity
  8
FRAME
100
AcDbVertex
100
AcDb2dVertex
 10
-29.39818248477788
 20
-11.99430241487712
 30
0.0
  0
VERTEX
  5
AA
330
A8
100
AcDbEntity
  8
FRAME
100
AcDbVertex
100
AcDb2dVertex
 10
-29.79539861560977
 20
-11.30631365785779
 30
0.0
  0
SEQEND
  5
AB
330
A8
100
AcDbEntity
  8
FRAME
  0
POLYLINE
  5
AC
330
1F
100
AcDbEntity
  8
FRAME
100
AcDb2dPolyline
 66
     1
 10
0.0
 20
0.0
 30
0.0
  0
VERTEX
  5
AD
330
AC
100
AcDbEntity
  8
FRAME
100
AcDbVertex
100
AcDb2dVertex
 10
-29.57827447107802
 20
-12.06825040043108
 30
0.0
  0
VERTEX
  5
AE
330
AC
100
AcDbEntity
  8
FRAME
100
AcDbVertex
100
AcDb2dVertex
 10
-29.39818248477788
 20
-11.99430241487712
 30
0.0
  0
SEQEND
  5
AF
330
AC
100
AcDbEntity
  8
FRAME
  0
SPLINE
  5
B0
330
1F
100
AcDbEntity
  8
FRAME
100
AcDbSpline
210
0.0
220
0.0
230
1.0
 70
    28
 71
     2
 72
     6
 73
     3
 74
     0
 42
0.0000000001
 43
0.0000000001
 40
-129.6121920495864
 40
-129.6121920495864
 40
-129.6121920495864
 40
-128.8174562738636
 40
-128.8174562738636
 40
-128.8174562738636
 10
-29.97564658818671
 20
-11.37999147113317
 30
0.0
 41
1.0
 10
-29.77696052964208
 20
-11.72412093578775
 30
0.0
 41
1.0
 10
-29.57827447107802
 20
-12.06825040043108
 30
0.0
 41
1.0
  0
POLYLINE
  5
B1
330
1F
100
AcDbEntity
  8
FRAME
100
AcDb2dPolyline
 66
     1
 10
0.0
 20
0.0
 30
0.0
  0
VERTEX
  5
B2
330
B1
100
AcDbEntity
  8
FRAME
100
AcDbVertex
100
AcDb2dVertex
 10
-29.79539861560977
 20
-11.30631365785779
 30
0.0
  0
VERTEX
  5
B3
330
B1
100
AcDbEntity
  8
FRAME
100
AcDbVertex
100
AcDb2dVertex
 10
-29.97564658818671
 20
-11.37999147113317
 30
0.0
  0
SEQEND
  5
B4
330
B1
100
AcDbEntity
  8
FRAME
  0
POLYLINE
  5
B5
330
1F
100
AcDbEntity
  8
FRAME
100
AcDb2dPolyline
 66
     1
 10
0.0
 20
0.0
 30
0.0
  0
VERTEX
  5
B6
330
B5
100
AcDbEntity
  8
FRAME
100
AcDbVertex
100
AcDb2dVertex
 10
-25.33078916012228
 20
-19.03913433516604
 30
0.0
  0
VERTEX
  5
B7
330
B5
100
AcDbEntity
  8
FRAME
100
AcDbVertex
100
AcDb2dVertex
 10
-25.72730943014041
 20
-18.35235082732771
 30
0.0
  0
SEQEND
  5
B8
330
B5
100
AcDbEntity
  8
FRAME
  0
POLYLINE
  5
B9
330
1F
100
AcDbEntity
  8
FRAME
100
AcDb2dPolyline
 66
     1
 10
0.0
 20
0.0
 30
0.0
  0
VERTEX
  5
BA
330
B9
100
AcDbEntity
  8
FRAME
100
AcDbVertex
100
AcDb2dVertex
 10
-25.5094891822766
 20
-19.1154932391759
 30
0.0
  0
VERTEX
  5
BB
330
B9
100
AcDbEntity
  8
FRAME
100
AcDbVertex
100
AcDb2dVertex
 10
-25.33078916012228
 20
-19.03913433516604
 30
0.0
  0
SEQEND
  5
BC
330
B9
100
AcDbEntity
  8
FRAME
  0
SPLINE
  5
BD
330
1F
100
AcDbEntity
  8
FRAME
100
AcDbSpline
210
0.0
220
0.0
230
1.0
 70
    28
 71
     2
 72
     6
 73
     3
 74
     0
 42
0.0000000001
 43
0.0000000001
 40
-121.4732511579966
 40
-121.4732511579966
 40
-121.4732511579966
 40
-120.6799723043183
 40
-120.6799723043183
 40
-120.6799723043183
 10
-25.90613283057736
 20
-18.42849603688475
 30
0.0
 41
1.0
 10
-25.7078110064337
 20
-18.77199463803423
 30
0.0
 41
1.0
 10
-25.5094891822766
 20
-19.1154932391759
 30
0.0
 41
1.0
  0
POLYLINE
  5
BE
330
1F
100
AcDbEntity
  8
FRAME
100
AcDb2dPolyline
 66
     1
 10
0.0
 20
0.0
 30
0.0
  0
VERTEX
  5
BF
330
BE
100
AcDbEntity
  8
FRAME
100
AcDbVertex
100
AcDb2dVertex
 10
-25.72730943014041
 20
-18.35235082732771
 30
0.0
  0
VERTEX
  5
C0
330
BE
100
AcDbEntity
  8
FRAME
100
AcDbVertex
100
AcDb2dVertex
 10
-25.90613283057736
 20
-18.42849603688475
 30
0.0
  0
SEQEND
  5
C1
330
BE
100
AcDbEntity
  8
FRAME
  0
ENDSEC
  0
SECTION
  2
OBJECTS
  0
DICTIONARY
  5
C
330
0
100
AcDbDictionary
281
     1
  3
ACAD_GROUP
350
D
  3
ACAD_LAYOUT
350
1A
  3
ACAD_MLEADERSTYLE
350
C3
  3
ACAD_MLINESTYLE
350
17
  3
ACAD_PLOTSETTINGS
350
19
  3
ACAD_PLOTSTYLENAME
350
E
  3
ACAD_TABLESTYLE
350
C2
  3
ACAD_VISUALSTYLE
350
2A
  0
DICTIONARY
  5
D
102
{ACAD_REACTORS
330
C
102
}
330
C
100
AcDbDictionary
281
     1
  0
DICTIONARY
  5
1A
102
{ACAD_REACTORS
330
C
102
}
330
C
100
AcDbDictionary
281
     1
  3
Layout1
350
1E
  3
Layout2
350
26
  3
Model
350
22
  0
DICTIONARY
  5
C3
102
{ACAD_REACTORS
330
C
102
}
330
C
100
AcDbDictionary
281
     1
  0
DICTIONARY
  5
17
102
{ACAD_REACTORS
330
C
102
}
330
C
100
AcDbDictionary
281
     1
  3
Standard
350
18
  0
DICTIONARY
  5
19
102
{ACAD_REACTORS
330
C
102
}
330
C
100
AcDbDictionary
281
     1
  0
ACDBDICTIONARYWDFLT
  5
E
102
{ACAD_REACTORS
330
C
102
}
330
C
100
AcDbDictionary
281
     1
  3
Normal
350
F
100
AcDbDictionaryWithDefault
340
F
  0
DICTIONARY
  5
C2
102
{ACAD_REACTORS
330
C
102
}
330
C
100
AcDbDictionary
281
     1
  0
DICTIONARY
  5
2A
102
{ACAD_REACTORS
330
C
102
}
330
C
100
AcDbDictionary
281
     1
  3
2dWireframe
350
2F
  3
3D Hidden
350
31
  3
3dWireframe
350
30
  3
Basic
350
32
  3
Brighten
350
36
  3
ColorChange
350
3A
  3
Conceptual
350
34
  3
Dim
350
35
  3
Facepattern
350
39
  3
Flat
350
2B
  3
FlatWithEdges
350
2C
  3
Gouraud
350
2D
  3
GouraudWithEdges
350
2E
  3
Linepattern
350
38
  3
Realistic
350
33
  3
Thicken
350
37
  0
LAYOUT
  5
1E
102
{ACAD_REACTORS
330
1A
102
}
330
1A
100
AcDbPlotSettings
  1

  2
none_device
  4

  6

 40
0.0
 41
0.0
 42
0.0
 43
0.0
 44
0.0
 45
0.0
 46
0.0
 47
0.0
 48
0.0
 49
0.0
140
0.0
141
0.0
142
1.0
143
1.0
 70
   688
 72
     0
 73
     0
 74
     5
  7

 75
    16
 76
     0
 77
     2
 78
   300
147
1.0
148
0.0
149
0.0
100
AcDbLayout
  1
Layout1
 70
     1
 71
     1
 10
0.0
 20
0.0
 11
12.0
 21
9.0
 12
0.0
 22
0.0
 32
0.0
 14
1.000000000000000E+20
 24
1.000000000000000E+20
 34
1.000000000000000E+20
 15
-1.000000000000000E+20
 25
-1.000000000000000E+20
 35
-1.000000000000000E+20
146
0.0
 13
0.0
 23
0.0
 33
0.0
 16
1.0
 26
0.0
 36
0.0
 17
0.0
 27
1.0
 37
0.0
 76
     0
330
1B
  0
LAYOUT
  5
26
102
{ACAD_REACTORS
330
1A
102
}
330
1A
100
AcDbPlotSettings
  1

  2
none_device
  4

  6

 40
0.0
 41
0.0
 42
0.0
 43
0.0
 44
0.0
 45
0.0
 46
0.0
 47
0.0
 48
0.0
 49
0.0
140
0.0
141
0.0
142
1.0
143
1.0
 70
   688
 72
     0
 73
     0
 74
     5
  7

 75
    16
 76
     0
 77
     2
 78
   300
147
1.0
148
0.0
149
0.0
100
AcDbLayout
  1
Layout2
 70
     1
 71
     2
 10
0.0
 20
0.0
 11
0.0
 21
0.0
 12
0.0
 22
0.0
 32
0.0
 14
0.0
 24
0.0
 34
0.0
 15
0.0
 25
0.0
 35
0.0
146
0.0
 13
0.0
 23
0.0
 33
0.0
 16
1.0
 26
0.0
 36
0.0
 17
0.0
 27
1.0
 37
0.0
 76
     0
330
23
  0
LAYOUT
  5
22
102
{ACAD_REACTORS
330
1A
102
}
330
1A
100
AcDbPlotSettings
  1

  2
none_device
  4

  6

 40
0.0
 41
0.0
 42
0.0
 43
0.0
 44
0.0
 45
0.0
 46
0.0
 47
0.0
 48
0.0
 49
0.0
140
0.0
141
0.0
142
1.0
143
1.0
 70
  1712
 72
     0
 73
     0
 74
     0
  7

 75
     0
 76
     0
 77
     2
 78
   300
147
1.0
148
0.0
149
0.0
100
AcDbLayout
  1
Model
 70
     1
 71
     0
 10
0.0
 20
0.0
 11
12.0
 21
9.0
 12
0.0
 22
0.0
 32
0.0
 14
-108.9288004494447
 24
-34.20269272088732
 34
0.0
 15
108.9288004494446
 25
34.20269272088732
 35
0.0
146
0.0
 13
0.0
 23
0.0
 33
0.0
 16
1.0
 26
0.0
 36
0.0
 17
0.0
 27
1.0
 37
0.0
 76
     0
330
1F
331
29
  0
MLINESTYLE
  5
18
102
{ACAD_REACTORS
330
17
102
}
330
17
100
AcDbMlineStyle
  2
Standard
 70
     0
  3

 62
   256
 51
90.0
 52
90.0
 71
     2
 49
0.5
 62
   256
  6
BYLAYER
 49
-0.5
 62
   256
  6
BYLAYER
  0
ACDBPLACEHOLDER
  5
F
102
{ACAD_REACTORS
330
E
102
}
330
E
  0
VISUALSTYLE
  5
2F
102
{ACAD_REACTORS
330
2A
102
}
330
2A
100
AcDbVisualStyle
  2
2dWireframe
 70
     4
 71
     0
 72
     2
 73
     0
 90
        0
 40
-0.6
 41
-30.0
 62
     5
 63
     7
421
 16777215
 74
     1
 91
        4
 64
     7
 65
   257
 75
     1
175
     1
 42
1.0
 92
        0
 66
   257
 43
1.0
 76
     1
 77
     6
 78
     2
 67
     7
 79
     5
170
     0
171
     0
290
     0
174
     0
 93
        1
 44
0.0
173
     0
291
     0
 45
0.0
1001
ACAD
1000
AcDbSavedByObjectVersion
1070
     0
  0
VISUALSTYLE
  5
31
102
{ACAD_REACTORS
330
2A
102
}
330
2A
100
AcDbVisualStyle
  2
3D Hidden
 70
     6
 71
     1
 72
     2
 73
     2
 90
        0
 40
-0.6
 41
-30.0
 62
     5
 63
     7
421
 16777215
 74
     2
 91
        2
 64
     7
 65
   257
 75
     2
175
     1
 42
40.0
 92
        0
 66
   257
 43
1.0
 76
     1
 77
     6
 78
     2
 67
     7
 79
     3
170
     0
171
     0
290
     0
174
     0
 93
        1
 44
0.0
173
     0
291
     0
 45
0.0
1001
ACAD
1000
AcDbSavedByObjectVersion
1070
     0
  0
VISUALSTYLE
  5
30
102
{ACAD_REACTORS
330
2A
102
}
330
2A
100
AcDbVisualStyle
  2
3dWireframe
 70
     5
 71
     0
 72
     2
 73
     0
 90
        0
 40
-0.6
 41
-30.0
 62
     5
 63
     7
421
 16777215
 74
     1
 91
        4
 64
     7
 65
   257
 75
     1
175
     1
 42
1.0
 92
        0
 66
   257
 43
1.0
 76
     1
 77
     6
 78
     2
 67
     7
 79
     5
170
     0
171
     0
290
     0
174
     0
 93
        1
 44
0.0
173
     0
291
     0
 45
0.0
1001
ACAD
1000
AcDbSavedByObjectVersion
1070
     0
  0
VISUALSTYLE
  5
32
102
{ACAD_REACTORS
330
2A
102
}
330
2A
100
AcDbVisualStyle
  2
Basic
 70
     7
 71
     1
 72
     0
 73
     1
 90
        0
 40
-0.6
 41
-30.0
 62
     5
 63
     7
421
 16777215
 74
     0
 91
        4
 64
     7
 65
   257
 75
     1
175
     1
 42
1.0
 92
        8
 66
     7
 43
1.0
 76
     1
 77
     6
 78
     2
 67
     7
 79
     5
170
     0
171
     0
290
     0
174
     0
 93
        1
 44
0.0
173
     0
291
     1
 45
0.0
1001
ACAD
1000
AcDbSavedByObjectVersion
1070
     0
  0
VISUALSTYLE
  5
36
102
{ACAD_REACTORS
330
2A
102
}
330
2A
100
AcDbVisualStyle
  2
Brighten
 70
    12
 71
     2
 72
     2
 73
     0
 90
        0
 40
-0.6
 41
-30.0
 62
     5
 63
     7
421
 16777215
 74
     1
 91
        4
 64
     7
 65
   257
 75
     1
175
     1
 42
1.0
 92
        8
 66
     7
 43
1.0
 76
     1
 77
     6
 78
     2
 67
     7
 79
     5
170
     0
171
     0
290
     0
174
     0
 93
        1
 44
50.0
173
     0
291
     1
 45
0.0
1001
ACAD
1000
AcDbSavedByObjectVersion
1070
     0
  0
VISUALSTYLE
  5
3A
102
{ACAD_REACTORS
330
2A
102
}
330
2A
100
AcDbVisualStyle
  2
ColorChange
 70
    16
 71
     2
 72
     2
 73
     3
 90
        0
 40
-0.6
 41
-30.0
 62
     5
 63
     8
421
  8421504
 74
     1
 91
        4
 64
     7
 65
   257
 75
     1
175
     1
 42
1.0
 92
        8
 66
     8
424
  8421504
 43
1.0
 76
     1
 77
     6
 78
     2
 67
     7
 79
     5
170
     0
171
     0
290
     0
174
     0
 93
        1
 44
0.0
173
     0
291
     1
 45
0.0
1001
ACAD
1000
AcDbSavedByObjectVersion
1070
     0
  0
VISUALSTYLE
  5
34
102
{ACAD_REACTORS
330
2A
102
}
330
2A
100
AcDbVisualStyle
  2
Conceptual
 70
     9
 71
     3
 72
     2
 73
     0
 90
        0
 40
-0.6
 41
-30.0
 62
     5
 63
     7
421
 16777215
 74
     2
 91
        2
 64
     7
 65
   257
 75
     1
175
     1
 42
40.0
 92
        8
 66
     7
 43
1.0
 76
     1
 77
     6
 78
     2
 67
     7
 79
     3
170
     0
171
     0
290
     0
174
     0
 93
        1
 44
0.0
173
     0
291
     0
 45
0.0
1001
ACAD
1000
AcDbSavedByObjectVersion
1070
     0
  0
VISUALSTYLE
  5
35
102
{ACAD_REACTORS
330
2A
102
}
330
2A
100
AcDbVisualStyle
  2
Dim
 70
    11
 71
     2
 72
     2
 73
     0
 90
        0
 40
-0.6
 41
-30.0
 62
     5
 63
     7
421
 16777215
 74
     1
 91
        4
 64
     7
 65
   257
 75
     1
175
     1
 42
1.0
 92
        8
 66
     7
 43
1.0
 76
     1
 77
     6
 78
     2
 67
     7
 79
     5
170
     0
171
     0
290
     0
174
     0
 93
        1
 44
-50.0
173
     0
291
     1
 45
0.0
1001
ACAD
1000
AcDbSavedByObjectVersion
1070
     0
  0
VISUALSTYLE
  5
39
102
{ACAD_REACTORS
330
2A
102
}
330
2A
100
AcDbVisualStyle
  2
Facepattern
 70
    15
 71
     2
 72
     2
 73
     0
 90
        0
 40
-0.6
 41
-30.0
 62
     5
 63
     7
421
 16777215
 74
     1
 91
        4
 64
     7
 65
   257
 75
     1
175
     1
 42
1.0
 92
        8
 66
     7
 43
1.0
 76
     1
 77
     6
 78
     2
 67
     7
 79
     5
170
     0
171
     0
290
     0
174
     0
 93
        1
 44
0.0
173
     0
291
     1
 45
0.0
1001
ACAD
1000
AcDbSavedByObjectVersion
1070
     0
  0
VISUALSTYLE
  5
2B
102
{ACAD_REACTORS
330
2A
102
}
330
2A
100
AcDbVisualStyle
  2
Flat
 70
     0
 71
     2
 72
     1
 73
     1
 90
        2
 40
-0.6
 41
30.0
 62
     5
 63
     7
421
 16777215
 74
     0
 91
        4
 64
     7
 65
   257
 75
     1
175
     1
 42
1.0
 92
        8
 66
     7
 43
1.0
 76
     1
 77
     6
 78
     2
 67
     7
 79
     5
170
     0
171
     0
290
     0
174
     0
 93
       13
 44
0.0
173
     0
291
     1
 45
0.0
1001
ACAD
1000
AcDbSavedByObjectVersion
1070
     0
  0
VISUALSTYLE
  5
2C
102
{ACAD_REACTORS
330
2A
102
}
330
2A
100
AcDbVisualStyle
  2
FlatWithEdges
 70
     1
 71
     2
 72
     1
 73
     1
 90
        2
 40
-0.6
 41
30.0
 62
     5
 63
     7
421
 16777215
 74
     1
 91
        4
 64
     7
 65
   257
 75
     1
175
     1
 42
1.0
 92
        0
 66
   257
 43
1.0
 76
     1
 77
     6
 78
     2
 67
     7
 79
     5
170
     0
171
     0
290
     0
174
     0
 93
       13
 44
0.0
173
     0
291
     1
 45
0.0
1001
ACAD
1000
AcDbSavedByObjectVersion
1070
     0
  0
VISUALSTYLE
  5
2D
102
{ACAD_REACTORS
330
2A
102
}
330
2A
100
AcDbVisualStyle
  2
Gouraud
 70
     2
 71
     2
 72
     2
 73
     1
 90
        2
 40
-0.6
 41
30.0
 62
     5
 63
     7
421
 16777215
 74
     0
 91
        4
 64
     7
 65
   257
 75
     1
175
     1
 42
1.0
 92
        0
 66
     7
 43
1.0
 76
     1
 77
     6
 78
     2
 67
     7
 79
     5
170
     0
171
     0
290
     0
174
     0
 93
       13
 44
0.0
173
     0
291
     1
 45
0.0
1001
ACAD
1000
AcDbSavedByObjectVersion
1070
     0
  0
VISUALSTYLE
  5
2E
102
{ACAD_REACTORS
330
2A
102
}
330
2A
100
AcDbVisualStyle
  2
GouraudWithEdges
 70
     3
 71
     2
 72
     2
 73
     1
 90
        2
 40
-0.6
 41
30.0
 62
     5
 63
     7
421
 16777215
 74
     1
 91
        4
 64
     7
 65
   257
 75
     1
175
     1
 42
1.0
 92
        0
 66
   257
 43
1.0
 76
     1
 77
     6
 78
     2
 67
     7
 79
     5
170
     0
171
     0
290
     0
174
     0
 93
       13
 44
0.0
173
     0
291
     1
 45
0.0
1001
ACAD
1000
AcDbSavedByObjectVersion
1070
     0
  0
VISUALSTYLE
  5
38
102
{ACAD_REACTORS
330
2A
102
}
330
2A
100
AcDbVisualStyle
  2
Linepattern
 70
    14
 71
     2
 72
     2
 73
     0
 90
        0
 40
-0.6
 41
-30.0
 62
     5
 63
     7
421
 16777215
 74
     1
 91
        4
 64
     7
 65
   257
 75
     7
175
     7
 42
1.0
 92
        8
 66
     7
 43
1.0
 76
     1
 77
     6
 78
     2
 67
     7
 79
     5
170
     0
171
     0
290
     0
174
     0
 93
        1
 44
0.0
173
     0
291
     1
 45
0.0
1001
ACAD
1000
AcDbSavedByObjectVersion
1070
     0
  0
VISUALSTYLE
  5
33
102
{ACAD_REACTORS
330
2A
102
}
330
2A
100
AcDbVisualStyle
  2
Realistic
 70
     8
 71
     2
 72
     2
 73
     0
 90
        0
 40
-0.6
 41
-30.0
 62
     5
 63
     7
421
 16777215
 74
     1
 91
        0
 64
     7
 65
   257
 75
     1
175
     1
 42
1.0
 92
        8
 66
     8
424
  7895160
 43
1.0
 76
     1
 77
     6
 78
     2
 67
     7
 79
     5
170
     0
171
     0
290
     0
174
     0
 93
       13
 44
0.0
173
     0
291
     0
 45
0.0
1001
ACAD
1000
AcDbSavedByObjectVersion
1070
     0
  0
VISUALSTYLE
  5
37
102
{ACAD_REACTORS
330
2A
102
}
330
2A
100
AcDbVisualStyle
  2
Thicken
 70
    13
 71
     2
 72
     2
 73
     0
 90
        0
 40
-0.6
 41
-30.0
 62
     5
 63
     7
421
 16777215
 74
     1
 91
        4
 64
     7
 65
   257
 75
     1
175
     1
 42
1.0
 92
       12
 66
     7
 43
1.0
 76
     1
 77
     6
 78
     2
 67
     7
 79
     5
170
     0
171
     0
290
     0
174
     0
 93
        1
 44
0.0
173
     0
291
     1
 45
0.0
1001
ACAD
1000
AcDbSavedByObjectVersion
1070
     0
  0
ENDSEC
  0
EOF
