  0
SECTION
  2
HEADER
  9
$ACADVER
  1
AC1018
  9
$ACADMAINTVER
 70
     0
  9
$DWGCODEPAGE
  3
ANSI_1252
  9
$INSBASE
 10
0.0
 20
0.0
 30
0.0
  9
$EXTMIN
 10
-65.82837213200882
 20
-67.17314208098969
 30
0.0
  9
$EXTMAX
 10
65.82837213166157
 20
67.1731420809777
 30
0.0
  9
$LIMMIN
 10
0.0
 20
0.0
  9
$LIMMAX
 10
12.0
 20
9.0
  9
$ORTHOMODE
 70
     0
  9
$REGENMODE
 70
     1
  9
$FILLMODE
 70
     1
  9
$QTEXTMODE
 70
     0
  9
$MIRRTEXT
 70
     1
  9
$LTSCALE
 40
0.0393700787401575
  9
$ATTMODE
 70
     1
  9
$TEXTSIZE
 40
0.2
  9
$TRACEWID
 40
0.05
  9
$TEXTSTYLE
  7
Standard
  9
$CLAYER
  8
SEATS
  9
$CELTYPE
  6
ByLayer
  9
$CECOLOR
 62
   256
  9
$CELTSCALE
 40
1.0
  9
$DISPSILH
 70
     0
  9
$DIMSCALE
 40
1.0
  9
$DIMASZ
 40
0.18
  9
$DIMEXO
 40
0.0625
  9
$DIMDLI
 40
0.38
  9
$DIMRND
 40
0.0
  9
$DIMDLE
 40
0.0
  9
$DIMEXE
 40
0.18
  9
$DIMTP
 40
0.0
  9
$DIMTM
 40
0.0
  9
$DIMTXT
 40
0.18
  9
$DIMCEN
 40
0.09
  9
$DIMTSZ
 40
0.0
  9
$DIMTOL
 70
     0
  9
$DIMLIM
 70
     0
  9
$DIMTIH
 70
     1
  9
$DIMTOH
 70
     1
  9
$DIMSE1
 70
     0
  9
$DIMSE2
 70
     0
  9
$DIMTAD
 70
     0
  9
$DIMZIN
 70
     0
  9
$DIMBLK
  1

  9
$DIMASO
 70
     1
  9
$DIMSHO
 70
     1
  9
$DIMPOST
  1

  9
$DIMAPOST
  1

  9
$DIMALT
 70
     0
  9
$DIMALTD
 70
     2
  9
$DIMALTF
 40
25.4
  9
$DIMLFAC
 40
1.0
  9
$DIMTOFL
 70
     0
  9
$DIMTVP
 40
0.0
  9
$DIMTIX
 70
     0
  9
$DIMSOXD
 70
     0
  9
$DIMSAH
 70
     0
  9
$DIMBLK1
  1

  9
$DIMBLK2
  1

  9
$DIMSTYLE
  2
Standard
  9
$DIMCLRD
 70
     0
  9
$DIMCLRE
 70
     0
  9
$DIMCLRT
 70
     0
  9
$DIMTFAC
 40
1.0
  9
$DIMGAP
 40
0.09
  9
$DIMJUST
 70
     0
  9
$DIMSD1
 70
     0
  9
$DIMSD2
 70
     0
  9
$DIMTOLJ
 70
     1
  9
$DIMTZIN
 70
     0
  9
$DIMALTZ
 70
     0
  9
$DIMALTTZ
 70
     0
  9
$DIMUPT
 70
     0
  9
$DIMDEC
 70
     4
  9
$DIMTDEC
 70
     4
  9
$DIMALTU
 70
     2
  9
$DIMALTTD
 70
     2
  9
$DIMTXSTY
  7
Standard
  9
$DIMAUNIT
 70
     0
  9
$DIMADEC
 70
     0
  9
$DIMALTRND
 40
0.0
  9
$DIMAZIN
 70
     0
  9
$DIMDSEP
 70
    46
  9
$DIMATFIT
 70
     3
  9
$DIMFRAC
 70
     0
  9
$DIMLDRBLK
  1

  9
$DIMLUNIT
 70
     2
  9
$DIMLWD
 70
    -2
  9
$DIMLWE
 70
    -2
  9
$DIMTMOVE
 70
     2
  9
$LUNITS
 70
     2
  9
$LUPREC
 70
     3
  9
$SKETCHINC
 40
0.1
  9
$FILLETRAD
 40
0.5
  9
$AUNITS
 70
     0
  9
$AUPREC
 70
     0
  9
$MENU
  1
.
  9
$ELEVATION
 40
0.0
  9
$PELEVATION
 40
0.0
  9
$THICKNESS
 40
0.0
  9
$LIMCHECK
 70
     0
  9
$CHAMFERA
 40
0.5
  9
$CHAMFERB
 40
0.5
  9
$CHAMFERC
 40
1.0
  9
$CHAMFERD
 40
0.0
  9
$SKPOLY
 70
     0
  9
$TDCREATE
 40
2457539.949479317
  9
$TDUCREATE
 40
2457540.116145984
  9
$TDUPDATE
 40
2457539.949479329
  9
$TDUUPDATE
 40
2457540.116145995
  9
$TDINDWG
 40
0.0000000116
  9
$TDUSRTIMER
 40
0.0000000116
  9
$USRTIMER
 70
     1
  9
$ANGBASE
 50
0.0
  9
$ANGDIR
 70
     0
  9
$PDMODE
 70
     0
  9
$PDSIZE
 40
0.0
  9
$PLINEWID
 40
0.0
  9
$SPLFRAME
 70
     0
  9
$SPLINETYPE
 70
     6
  9
$SPLINESEGS
 70
     8
  9
$HANDSEED
  5
150
  9
$SURFTAB1
 70
     6
  9
$SURFTAB2
 70
     6
  9
$SURFTYPE
 70
     6
  9
$SURFU
 70
     6
  9
$SURFV
 70
     6
  9
$UCSBASE
  2

  9
$UCSNAME
  2

  9
$UCSORG
 10
0.0
 20
0.0
 30
0.0
  9
$UCSXDIR
 10
1.0
 20
0.0
 30
0.0
  9
$UCSYDIR
 10
0.0
 20
1.0
 30
0.0
  9
$UCSORTHOREF
  2

  9
$UCSORTHOVIEW
 70
     0
  9
$UCSORGTOP
 10
0.0
 20
0.0
 30
0.0
  9
$UCSORGBOTTOM
 10
0.0
 20
0.0
 30
0.0
  9
$UCSORGLEFT
 10
0.0
 20
0.0
 30
0.0
  9
$UCSORGRIGHT
 10
0.0
 20
0.0
 30
0.0
  9
$UCSORGFRONT
 10
0.0
 20
0.0
 30
0.0
  9
$UCSORGBACK
 10
0.0
 20
0.0
 30
0.0
  9
$PUCSBASE
  2

  9
$PUCSNAME
  2

  9
$PUCSORG
 10
0.0
 20
0.0
 30
0.0
  9
$PUCSXDIR
 10
1.0
 20
0.0
 30
0.0
  9
$PUCSYDIR
 10
0.0
 20
1.0
 30
0.0
  9
$PUCSORTHOREF
  2

  9
$PUCSORTHOVIEW
 70
     0
  9
$PUCSORGTOP
 10
0.0
 20
0.0
 30
0.0
  9
$PUCSORGBOTTOM
 10
0.0
 20
0.0
 30
0.0
  9
$PUCSORGLEFT
 10
0.0
 20
0.0
 30
0.0
  9
$PUCSORGRIGHT
 10
0.0
 20
0.0
 30
0.0
  9
$PUCSORGFRONT
 10
0.0
 20
0.0
 30
0.0
  9
$PUCSORGBACK
 10
0.0
 20
0.0
 30
0.0
  9
$USERI1
 70
     0
  9
$USERI2
 70
     0
  9
$USERI3
 70
     0
  9
$USERI4
 70
     0
  9
$USERI5
 70
     0
  9
$USERR1
 40
0.0
  9
$USERR2
 40
0.0
  9
$USERR3
 40
0.0
  9
$USERR4
 40
0.0
  9
$USERR5
 40
0.0
  9
$WORLDVIEW
 70
     1
  9
$SHADEDGE
 70
     3
  9
$SHADEDIF
 70
    70
  9
$TILEMODE
 70
     1
  9
$MAXACTVP
 70
    64
  9
$PINSBASE
 10
0.0
 20
0.0
 30
0.0
  9
$PLIMCHECK
 70
     0
  9
$PEXTMIN
 10
1.000000000000000E+20
 20
1.000000000000000E+20
 30
1.000000000000000E+20
  9
$PEXTMAX
 10
-1.000000000000000E+20
 20
-1.000000000000000E+20
 30
-1.000000000000000E+20
  9
$PLIMMIN
 10
0.0
 20
0.0
  9
$PLIMMAX
 10
12.0
 20
9.0
  9
$UNITMODE
 70
     0
  9
$VISRETAIN
 70
     1
  9
$PLINEGEN
 70
     0
  9
$PSLTSCALE
 70
     1
  9
$TREEDEPTH
 70
  3020
  9
$CMLSTYLE
  2
Standard
  9
$CMLJUST
 70
     0
  9
$CMLSCALE
 40
1.0
  9
$PROXYGRAPHICS
 70
     1
  9
$MEASUREMENT
 70
     0
  9
$CELWEIGHT
370
    -1
  9
$ENDCAPS
280
     0
  9
$JOINSTYLE
280
     0
  9
$LWDISPLAY
290
     0
  9
$INSUNITS
 70
     1
  9
$HYPERLINKBASE
  1

  9
$STYLESHEET
  1

  9
$XEDIT
290
     1
  9
$CEPSNTYPE
380
     0
  9
$PSTYLEMODE
290
     1
  9
$FINGERPRINTGUID
  2
{ACE5315A-EA20-40C3-AD3B-020296313B80}
  9
$VERSIONGUID
  2
{FAEB1C32-E019-11D5-929B-00C0DF256EC4}
  9
$EXTNAMES
290
     1
  9
$PSVPSCALE
 40
0.0
  9
$OLESTARTUP
290
     0
  9
$SORTENTS
280
   127
  9
$INDEXCTL
280
     0
  9
$HIDETEXT
280
     1
  9
$XCLIPFRAME
290
     0
  9
$HALOGAP
280
     0
  9
$OBSCOLOR
 70
   257
  9
$OBSLTYPE
280
     0
  9
$INTERSECTIONDISPLAY
280
     0
  9
$INTERSECTIONCOLOR
 70
   257
  9
$DIMASSOC
280
     2
  9
$PROJECTNAME
  1

  0
ENDSEC
  0
SECTION
  2
CLASSES
  0
CLASS
  1
ACDBDICTIONARYWDFLT
  2
AcDbDictionaryWithDefault
  3
ObjectDBX Classes
 90
        0
 91
        4
280
     0
281
     0
  0
CLASS
  1
VISUALSTYLE
  2
AcDbVisualStyle
  3
ObjectDBX Classes
 90
     4095
 91
        4
280
     0
281
     0
  0
ENDSEC
  0
SECTION
  2
TABLES
  0
TABLE
  2
VPORT
  5
8
330
0
100
AcDbSymbolTable
 70
     1
  0
VPORT
  5
29
330
8
100
AcDbSymbolTableRecord
100
AcDbViewportTableRecord
  2
*Active
 70
     0
 10
0.0
 20
0.0
 11
1.0
 21
1.0
 12
-0.0000000001736282
 22
-0.000000000005997
 13
0.0
 23
0.0
 14
0.5
 24
0.5
 15
0.5
 25
0.5
 16
0.0
 26
0.0
 36
1.0
 17
0.0
 27
0.0
 37
0.0
 40
137.0332098452067
 41
0.979980541217988
 42
50.0
 43
0.0
 44
0.0
 50
0.0
 51
0.0
 71
     0
 72
   100
 73
     1
 74
     3
 75
     0
 76
     0
 77
     0
 78
     0
281
     0
 65
     1
110
0.0
120
0.0
130
0.0
111
1.0
121
0.0
131
0.0
112
0.0
122
1.0
132
0.0
 79
     0
146
0.0
  0
ENDTAB
  0
TABLE
  2
LTYPE
  5
5
330
0
100
AcDbSymbolTable
 70
     1
  0
LTYPE
  5
14
330
5
100
AcDbSymbolTableRecord
100
AcDbLinetypeTableRecord
  2
ByBlock
 70
     0
  3

 72
    65
 73
     0
 40
0.0
  0
LTYPE
  5
15
330
5
100
AcDbSymbolTableRecord
100
AcDbLinetypeTableRecord
  2
ByLayer
 70
     0
  3

 72
    65
 73
     0
 40
0.0
  0
LTYPE
  5
16
330
5
100
AcDbSymbolTableRecord
100
AcDbLinetypeTableRecord
  2
Continuous
 70
     0
  3
Solid line
 72
    65
 73
     0
 40
0.0
  0
ENDTAB
  0
TABLE
  2
LAYER
  5
2
330
0
100
AcDbSymbolTable
 70
     7
  0
LAYER
  5
10
330
2
100
AcDbSymbolTableRecord
100
AcDbLayerTableRecord
  2
0
 70
     0
 62
     7
  6
Continuous
370
    -3
390
F
  0
LAYER
  5
3B
330
2
100
AcDbSymbolTableRecord
100
AcDbLayerTableRecord
  2
Make2D visible lines
 70
     0
 62
     7
  6
Continuous
370
    -3
390
F
  0
LAYER
  5
3D
330
2
100
AcDbSymbolTableRecord
100
AcDbLayerTableRecord
  2
STOOL
 70
     0
 62
    33
  6
Continuous
370
    -3
390
F
  0
LAYER
  5
54
330
2
100
AcDbSymbolTableRecord
100
AcDbLayerTableRecord
  2
TABLE
 70
     0
 62
     7
  6
Continuous
370
    -3
390
F
  0
LAYER
  5
5D
330
2
100
AcDbSymbolTableRecord
100
AcDbLayerTableRecord
  2
SEATS
 70
     0
 62
   251
  6
Continuous
370
    -3
390
F
  0
LAYER
  5
6A
330
2
100
AcDbSymbolTableRecord
100
AcDbLayerTableRecord
  2
BACKS
 70
     0
 62
   253
  6
Continuous
370
    -3
390
F
  0
LAYER
  5
74
330
2
100
AcDbSymbolTableRecord
100
AcDbLayerTableRecord
  2
FRAME
 70
     0
 62
    15
  6
Continuous
370
    -3
390
F
  0
ENDTAB
  0
TABLE
  2
STYLE
  5
3
330
0
100
AcDbSymbolTable
 70
     1
  0
STYLE
  5
11
330
3
100
AcDbSymbolTableRecord
100
AcDbTextStyleTableRecord
  2
Standard
 70
     0
 40
0.0
 41
1.0
 50
0.0
 71
     0
 42
0.2
  3
txt
  4

  0
ENDTAB
  0
TABLE
  2
VIEW
  5
6
330
0
100
AcDbSymbolTable
 70
     0
  0
ENDTAB
  0
TABLE
  2
UCS
  5
7
330
0
100
AcDbSymbolTable
 70
     0
  0
ENDTAB
  0
TABLE
  2
APPID
  5
9
330
0
100
AcDbSymbolTable
 70
     1
  0
APPID
  5
12
330
9
100
AcDbSymbolTableRecord
100
AcDbRegAppTableRecord
  2
ACAD
 70
     0
  0
ENDTAB
  0
TABLE
  2
DIMSTYLE
  5
A
330
0
100
AcDbSymbolTable
 70
     1
100
AcDbDimStyleTable
  0
DIMSTYLE
105
27
330
A
100
AcDbSymbolTableRecord
100
AcDbDimStyleTableRecord
  2
Standard
 70
     0
340
11
  0
ENDTAB
  0
TABLE
  2
BLOCK_RECORD
  5
1
330
0
100
AcDbSymbolTable
 70
     1
  0
BLOCK_RECORD
  5
1F
330
1
100
AcDbSymbolTableRecord
100
AcDbBlockTableRecord
  2
*Model_Space
340
22
  0
BLOCK_RECORD
  5
1B
330
1
100
AcDbSymbolTableRecord
100
AcDbBlockTableRecord
  2
*Paper_Space
340
1E
  0
BLOCK_RECORD
  5
23
330
1
100
AcDbSymbolTableRecord
100
AcDbBlockTableRecord
  2
*Paper_Space0
340
26
  0
ENDTAB
  0
ENDSEC
  0
SECTION
  2
BLOCKS
  0
BLOCK
  5
20
330
1F
100
AcDbEntity
  8
0
100
AcDbBlockBegin
  2
*Model_Space
 70
     0
 10
0.0
 20
0.0
 30
0.0
  3
*Model_Space
  1

  0
ENDBLK
  5
21
330
1F
100
AcDbEntity
  8
0
100
AcDbBlockEnd
  0
BLOCK
  5
1C
330
1B
100
AcDbEntity
 67
     1
  8
0
100
AcDbBlockBegin
  2
*Paper_Space
 70
     0
 10
0.0
 20
0.0
 30
0.0
  3
*Paper_Space
  1

  0
ENDBLK
  5
1D
330
1B
100
AcDbEntity
 67
     1
  8
0
100
AcDbBlockEnd
  0
BLOCK
  5
24
330
23
100
AcDbEntity
  8
0
100
AcDbBlockBegin
  2
*Paper_Space0
 70
     0
 10
0.0
 20
0.0
 30
0.0
  3
*Paper_Space0
  1

  0
ENDBLK
  5
25
330
23
100
AcDbEntity
  8
0
100
AcDbBlockEnd
  0
ENDSEC
  0
SECTION
  2
ENTITIES
  0
SPLINE
  5
3C
330
1F
100
AcDbEntity
  8
Make2D visible lines
100
AcDbSpline
210
0.0
220
0.0
230
1.0
 70
    24
 71
     2
 72
     6
 73
     3
 74
     0
 42
0.0000000001
 43
0.0000000001
 40
0.0
 40
0.0
 40
0.0
 40
17.00000030076558
 40
17.00000030076558
 40
17.00000030076558
 10
49.88738892864266
 20
41.4046337051178
 30
0.0
 10
49.88738892864266
 20
49.90463385550061
 30
0.0
 10
49.88738892864266
 20
58.40463400588341
 30
0.0
  0
SPLINE
  5
3E
330
1F
100
AcDbEntity
  8
STOOL
100
AcDbSpline
210
0.0
220
0.0
230
1.0
 70
    12
 71
     2
 72
     8
 73
     5
 74
     0
 42
0.0000000001
 43
0.0000000001
 40
0.0
 40
0.0
 40
0.0
 40
12.56637061436552
 40
12.56637061436552
 40
25.13274122872574
 40
25.13274122872574
 40
25.13274122872574
 10
-2.097894686047475
 20
-64.82999633047278
 30
0.0
 41
1.0
 10
-7.75474893553564
 20
-59.1731420809726
 30
0.0
 41
0.7071067811867294
 10
-2.097894686038359
 20
-53.51628783148151
 30
0.0
 41
1.0
 10
3.558959563460543
 20
-47.85943358198883
 30
0.0
 41
0.7071067811860408
 10
9.215813812945115
 20
-53.51628783149585
 30
0.0
 41
1.0
  0
SPLINE
  5
3F
330
1F
100
AcDbEntity
  8
STOOL
100
AcDbSpline
210
0.0
220
0.0
230
1.0
 70
    12
 71
     2
 72
     8
 73
     5
 74
     0
 42
0.0000000001
 43
0.0000000001
 40
0.0
 40
0.0
 40
0.0
 40
12.56637061436554
 40
12.56637061436554
 40
25.13274122872578
 40
25.13274122872578
 40
25.13274122872578
 10
9.215813812945115
 20
-53.51628783149585
 30
0.0
 41
1.0
 10
14.87266806243337
 20
-59.17314208099604
 30
0.0
 41
0.7071067811867268
 10
9.21581381293602
 20
-64.82999633048713
 30
0.0
 41
1.0
 10
3.558959563437104
 20
-70.48685057997983
 30
0.0
 41
0.7071067811860402
 10
-2.097894686047475
 20
-64.8299963304728
 30
0.0
 41
1.0
  0
SPLINE
  5
40
330
1F
100
AcDbEntity
  8
STOOL
100
AcDbSpline
210
0.0
220
0.0
230
1.0
 70
     8
 71
     3
 72
    19
 73
    15
 74
     0
 42
0.0000000001
 43
0.0000000001
 40
0.0
 40
0.0
 40
0.0
 40
0.0
 40
0.1561093611268618
 40
0.3157928697477752
 40
0.6276046595519392
 40
0.9402628561702524
 40
1.255153859546773
 40
1.255153859546773
 40
1.255153859546773
 40
1.410258957899902
 40
1.567068035645432
 40
1.880720996838804
 40
2.194012832604748
 40
2.51030738991562
 40
2.51030738991562
 40
2.51030738991562
 40
2.51030738991562
 10
-1.387474972794578
 20
-65.4606523579415
 30
0.0
 10
-1.433909042621792
 20
-65.4841360676649
 30
0.0
 10
-1.531480756912444
 20
-65.52446395848426
 30
0.0
 10
-1.735423222778749
 20
-65.57383406972214
 30
0.0
 10
-1.999995338783179
 20
-65.57485877899714
 30
0.0
 10
-2.301961254207605
 20
-65.47830583946659
 30
0.0
 10
-2.473640730465434
 20
-65.35418098645178
 30
0.0
 10
-2.547835732742882
 20
-65.27993737717601
 30
0.0
 10
-2.584407337011953
 20
-65.24338536596694
 30
0.0
 10
-2.652110065106811
 20
-65.16407214495102
 30
0.0
 10
-2.761408924481685
 20
-64.98570667168823
 30
0.0
 10
-2.8426074322742
 20
-64.73395183522463
 30
0.0
 10
-2.841778064846579
 20
-64.4156605756445
 30
0.0
 10
-2.776138187530854
 20
-64.21365414760132
 30
0.0
 10
-2.728549951066071
 20
-64.11957757656255
 30
0.0
  0
SPLINE
  5
41
330
1F
100
AcDbEntity
  8
STOOL
100
AcDbSpline
210
0.0
220
0.0
230
1.0
 70
    12
 71
     2
 72
     8
 73
     5
 74
     0
 42
0.0000000001
 43
0.0000000001
 40
-51.29707101249667
 40
-51.29707101249667
 40
-51.29707101249667
 40
-50.26548245745153
 40
-50.26548245745153
 40
-49.23389260139577
 40
-49.23389260139577
 40
-49.23389260139577
 10
-2.728549951066066
 20
-64.11957757656255
 30
0.0
 41
0.9558596784101744
 10
-2.434349220422404
 20
-64.49354179609716
 30
0.0
 41
0.9759560415930515
 10
-2.097894686047475
 20
-64.8299963304728
 30
0.0
 41
1.0
 10
-1.761439716892011
 20
-65.1664512996296
 30
0.0
 41
0.9759560112694177
 10
-1.387474972794575
 20
-65.4606523579415
 30
0.0
 41
0.9558596277201187
  0
SPLINE
  5
42
330
1F
100
AcDbEntity
  8
STOOL
100
AcDbSpline
210
0.0
220
0.0
230
1.0
 70
    12
 71
     2
 72
     8
 73
     5
 74
     0
 42
0.0000000001
 43
0.0000000001
 40
-38.73070039812916
 40
-38.73070039812916
 40
-38.73070039812916
 40
-37.69911184309128
 40
-37.69911184309128
 40
-36.66752198703059
 40
-36.66752198703059
 40
-36.66752198703059
 10
8.505395059031477
 20
-65.46065159550156
 30
0.0
 41
0.9558596784103368
 10
8.879359278563028
 20
-65.16645086485974
 30
0.0
 41
0.9759560415931543
 10
9.21581381293602
 20
-64.82999633048713
 30
0.0
 41
1.0
 10
9.552268782094057
 20
-64.49354136132946
 30
0.0
 41
0.975956011269369
 10
9.846469840406929
 20
-64.11957661722968
 30
0.0
 41
0.9558596277200466
  0
SPLINE
  5
43
330
1F
100
AcDbEntity
  8
STOOL
100
AcDbSpline
210
0.0
220
0.0
230
1.0
 70
     8
 71
     3
 72
    19
 73
    15
 74
     0
 42
0.0000000001
 43
0.0000000001
 40
0.0
 40
0.0
 40
0.0
 40
0.0
 40
0.1561093611243286
 40
0.3157928697452572
 40
0.6276046595494178
 40
0.940262856167769
 40
1.255153859544488
 40
1.255153859544488
 40
1.255153859544488
 40
1.410258957897151
 40
1.567068035642684
 40
1.880720996836107
 40
2.194012832602011
 40
2.510307389908507
 40
2.510307389908507
 40
2.510307389908507
 40
2.510307389908507
 10
9.846469840406925
 20
-64.1195766172297
 30
0.0
 10
9.869953550129978
 20
-64.16601068705639
 30
0.0
 10
9.910281440949134
 20
-64.26358240134634
 30
0.0
 10
9.959651552186727
 20
-64.46752486721172
 30
0.0
 10
9.960676261461657
 20
-64.73209698321604
 30
0.0
 10
9.864123321931075
 20
-65.03406289864063
 30
0.0
 10
9.739998468916326
 20
-65.20574237489858
 30
0.0
 10
9.665754859640472
 20
-65.27993737717603
 30
0.0
 10
9.62920284843156
 20
-65.31650898144493
 30
0.0
 10
9.549889627415823
 20
-65.38421170953983
 30
0.0
 10
9.371524154153136
 20
-65.49351056891462
 30
0.0
 10
9.119769317689688
 20
-65.57470907670726
 30
0.0
 10
8.801478058110973
 20
-65.57387970927977
 30
0.0
 10
8.599471630069004
 20
-65.5082398319652
 30
0.0
 10
8.505395059031471
 20
-65.46065159550156
 30
0.0
  0
SPLINE
  5
44
330
1F
100
AcDbEntity
  8
STOOL
100
AcDbSpline
210
0.0
220
0.0
230
1.0
 70
    12
 71
     2
 72
     6
 73
     3
 74
     0
 42
0.0000000001
 43
0.0000000001
 40
-26.16432978377098
 40
-26.16432978377098
 40
-26.16432978377098
 40
-25.13274122872574
 40
-25.13274122872574
 40
-25.13274122872574
 10
9.846469077963706
 20
-54.22670658540623
 30
0.0
 41
0.9558596784101706
 10
9.552268347320089
 20
-53.85274236587153
 30
0.0
 41
0.9759560415930493
 10
9.215813812945115
 20
-53.51628783149585
 30
0.0
 41
1.0
  0
SPLINE
  5
45
330
1F
100
AcDbEntity
  8
STOOL
100
AcDbSpline
210
0.0
220
0.0
230
1.0
 70
     8
 71
     3
 72
    19
 73
    15
 74
     0
 42
0.0000000001
 43
0.0000000001
 40
0.0
 40
0.0
 40
0.0
 40
0.0
 40
0.1561093611267973
 40
0.3157928697477634
 40
0.627604659551883
 40
0.9402628561702048
 40
1.25515385954678
 40
1.25515385954678
 40
1.25515385954678
 40
1.410258957899994
 40
1.567068035645483
 40
1.880720996838891
 40
2.194012832604831
 40
2.510307389915906
 40
2.510307389915906
 40
2.510307389915906
 40
2.510307389915906
 10
8.505394099692182
 20
-52.88563180402711
 30
0.0
 10
8.551828169519382
 20
-52.86214809430371
 30
0.0
 10
8.64939988381019
 20
-52.82182020348434
 30
0.0
 10
8.853342349676211
 20
-52.77245009224653
 30
0.0
 10
9.117914465680627
 20
-52.77142538297152
 30
0.0
 10
9.419880381105045
 20
-52.867978322502
 30
0.0
 10
9.591559857362967
 20
-52.99210317551686
 30
0.0
 10
9.665754859640472
 20
-53.06634678479262
 30
0.0
 10
9.702326463909586
 20
-53.10289879600164
 30
0.0
 10
9.770029192004571
 20
-53.18221201701759
 30
0.0
 10
9.87932805137936
 20
-53.36057749028039
 30
0.0
 10
9.960526559171768
 20
-53.612332326744
 30
0.0
 10
9.959697191744183
 20
-53.93062358632421
 30
0.0
 10
9.894057314428451
 20
-54.13263001436746
 30
0.0
 10
9.846469077963704
 20
-54.22670658540623
 30
0.0
  0
SPLINE
  5
46
330
1F
100
AcDbEntity
  8
STOOL
100
AcDbSpline
210
0.0
220
0.0
230
1.0
 70
    12
 71
     2
 72
     6
 73
     3
 74
     0
 42
0.0000000001
 43
0.0000000001
 40
-75.39822368617726
 40
-75.39822368617726
 40
-75.39822368617726
 40
-74.36663383012146
 40
-74.36663383012146
 40
-74.36663383012146
 10
9.215813812945115
 20
-53.51628783149585
 30
0.0
 41
1.0
 10
8.87935884378964
 20
-53.17983286233905
 30
0.0
 41
0.9759560112694164
 10
8.505394099692184
 20
-52.88563180402711
 30
0.0
 41
0.9558596277201167
  0
SPLINE
  5
47
330
1F
100
AcDbEntity
  8
STOOL
100
AcDbSpline
210
0.0
220
0.0
230
1.0
 70
     8
 71
     3
 72
    19
 73
    15
 74
     0
 42
0.0000000001
 43
0.0000000001
 40
0.0
 40
0.0
 40
0.0
 40
0.0
 40
0.1561093611246081
 40
0.3157928697455233
 40
0.627604659549683
 40
0.9402628561679939
 40
1.255153859544544
 40
1.255153859544544
 40
1.255153859544544
 40
1.410258957897595
 40
1.567068035643088
 40
1.88072099683648
 40
2.194012832602422
 40
2.510307389908674
 40
2.510307389908674
 40
2.510307389908674
 40
2.510307389908674
 10
-2.728550713509293
 20
-54.22670754473903
 30
0.0
 10
-2.752034423232296
 20
-54.18027347491228
 30
0.0
 10
-2.792362314051452
 20
-54.08270176062223
 30
0.0
 10
-2.841732425289145
 20
-53.87875929475674
 30
0.0
 10
-2.842757134563975
 20
-53.61418717875246
 30
0.0
 10
-2.746204195033471
 20
-53.31222126332794
 30
0.0
 10
-2.622079342018495
 20
-53.14054178707013
 30
0.0
 10
-2.547835732742939
 20
-53.06634678479262
 30
0.0
 10
-2.51128372153385
 20
-53.02977518052367
 30
0.0
 10
-2.43197050051802
 20
-52.96207245242872
 30
0.0
 10
-2.253605027255134
 20
-52.8527735930539
 30
0.0
 10
-2.001850190791735
 20
-52.77157508526138
 30
0.0
 10
-1.683558931213113
 20
-52.77240445268888
 30
0.0
 10
-1.4815525031714
 20
-52.83804433000368
 30
0.0
 10
-1.387475932133796
 20
-52.88563256646711
 30
0.0
  0
SPLINE
  5
48
330
1F
100
AcDbEntity
  8
STOOL
100
AcDbSpline
210
0.0
220
0.0
230
1.0
 70
    12
 71
     2
 72
     8
 73
     5
 74
     0
 42
0.0000000001
 43
0.0000000001
 40
-63.86344162685491
 40
-63.86344162685491
 40
-63.86344162685491
 40
-62.83185307181704
 40
-62.83185307181704
 40
-61.80026321575627
 40
-61.80026321575627
 40
-61.80026321575627
 10
-1.387475932133793
 20
-52.8856325664671
 30
0.0
 41
0.9558596784103371
 10
-1.761440151665368
 20
-53.1798332971089
 30
0.0
 41
0.9759560415931544
 10
-2.097894686038359
 20
-53.51628783148151
 30
0.0
 41
1.0
 10
-2.434349655196418
 20
-53.85274280063922
 30
0.0
 41
0.9759560112693673
 10
-2.728550713509293
 20
-54.22670754473904
 30
0.0
 41
0.9558596277200436
  0
SPLINE
  5
49
330
1F
100
AcDbEntity
  8
STOOL
100
AcDbSpline
210
0.0
220
0.0
230
1.0
 70
    12
 71
     2
 72
     8
 73
     5
 74
     0
 42
0.0000000001
 43
0.0000000001
 40
0.0
 40
0.0
 40
0.0
 40
12.56637061436552
 40
12.56637061436552
 40
25.13274122872574
 40
25.13274122872574
 40
25.13274122872574
 10
38.87269533690225
 20
-64.82999633047278
 30
0.0
 41
1.0
 10
44.52954958639047
 20
-59.1731420809726
 30
0.0
 41
0.7071067811867294
 10
38.87269533689316
 20
-53.51628783148151
 30
0.0
 41
1.0
 10
33.21584108739427
 20
-47.85943358198883
 30
0.0
 41
0.7071067811860408
 10
27.5589868379097
 20
-53.51628783149585
 30
0.0
 41
1.0
  0
SPLINE
  5
4A
330
1F
100
AcDbEntity
  8
STOOL
100
AcDbSpline
210
0.0
220
0.0
230
1.0
 70
    12
 71
     2
 72
     8
 73
     5
 74
     0
 42
0.0000000001
 43
0.0000000001
 40
0.0
 40
0.0
 40
0.0
 40
12.56637061436554
 40
12.56637061436554
 40
25.13274122872578
 40
25.13274122872578
 40
25.13274122872578
 10
27.5589868379097
 20
-53.51628783149585
 30
0.0
 41
1.0
 10
21.90213258842145
 20
-59.17314208099604
 30
0.0
 41
0.7071067811867268
 10
27.55898683791879
 20
-64.82999633048713
 30
0.0
 41
1.0
 10
33.2158410874177
 20
-70.48685057997983
 30
0.0
 41
0.7071067811860402
 10
38.87269533690225
 20
-64.8299963304728
 30
0.0
 41
1.0
  0
SPLINE
  5
4B
330
1F
100
AcDbEntity
  8
STOOL
100
AcDbSpline
210
0.0
220
0.0
230
1.0
 70
     8
 71
     3
 72
    19
 73
    15
 74
     0
 42
0.0000000001
 43
0.0000000001
 40
0.0
 40
0.0
 40
0.0
 40
0.0
 40
0.1561093611268618
 40
0.3157928697477752
 40
0.6276046595519392
 40
0.9402628561702524
 40
1.255153859546773
 40
1.255153859546773
 40
1.255153859546773
 40
1.410258957899902
 40
1.567068035645432
 40
1.880720996838804
 40
2.194012832604748
 40
2.51030738991562
 40
2.51030738991562
 40
2.51030738991562
 40
2.51030738991562
 10
38.16227562364936
 20
-65.4606523579415
 30
0.0
 10
38.20870969347656
 20
-65.4841360676649
 30
0.0
 10
38.30628140776726
 20
-65.52446395848426
 30
0.0
 10
38.51022387363356
 20
-65.57383406972214
 30
0.0
 10
38.77479598963795
 20
-65.57485877899714
 30
0.0
 10
39.07676190506245
 20
-65.47830583946659
 30
0.0
 10
39.24844138132026
 20
-65.35418098645178
 30
0.0
 10
39.32263638359765
 20
-65.27993737717601
 30
0.0
 10
39.35920798786675
 20
-65.24338536596694
 30
0.0
 10
39.42691071596165
 20
-65.16407214495102
 30
0.0
 10
39.53620957533646
 20
-64.98570667168823
 30
0.0
 10
39.61740808312896
 20
-64.73395183522463
 30
0.0
 10
39.61657871570135
 20
-64.4156605756445
 30
0.0
 10
39.55093883838566
 20
-64.21365414760132
 30
0.0
 10
39.50335060192086
 20
-64.11957757656255
 30
0.0
  0
SPLINE
  5
4C
330
1F
100
AcDbEntity
  8
STOOL
100
AcDbSpline
210
0.0
220
0.0
230
1.0
 70
    12
 71
     2
 72
     8
 73
     5
 74
     0
 42
0.0000000001
 43
0.0000000001
 40
-51.29707101249667
 40
-51.29707101249667
 40
-51.29707101249667
 40
-50.26548245745153
 40
-50.26548245745153
 40
-49.23389260139577
 40
-49.23389260139577
 40
-49.23389260139577
 10
39.50335060192086
 20
-64.11957757656255
 30
0.0
 41
0.9558596784101744
 10
39.20914987127726
 20
-64.49354179609716
 30
0.0
 41
0.9759560415930515
 10
38.87269533690225
 20
-64.8299963304728
 30
0.0
 41
1.0
 10
38.53624036774686
 20
-65.1664512996296
 30
0.0
 41
0.9759560112694177
 10
38.16227562364937
 20
-65.4606523579415
 30
0.0
 41
0.9558596277201187
  0
SPLINE
  5
4D
330
1F
100
AcDbEntity
  8
STOOL
100
AcDbSpline
210
0.0
220
0.0
230
1.0
 70
    12
 71
     2
 72
     8
 73
     5
 74
     0
 42
0.0000000001
 43
0.0000000001
 40
-38.73070039812916
 40
-38.73070039812916
 40
-38.73070039812916
 40
-37.69911184309128
 40
-37.69911184309128
 40
-36.66752198703059
 40
-36.66752198703059
 40
-36.66752198703059
 10
28.26940559182334
 20
-65.46065159550156
 30
0.0
 41
0.9558596784103368
 10
27.89544137229175
 20
-65.16645086485974
 30
0.0
 41
0.9759560415931543
 10
27.55898683791879
 20
-64.82999633048713
 30
0.0
 41
1.0
 10
27.22253186876076
 20
-64.49354136132946
 30
0.0
 41
0.975956011269369
 10
26.92833081044787
 20
-64.11957661722968
 30
0.0
 41
0.9558596277200466
  0
SPLINE
  5
4E
330
1F
100
AcDbEntity
  8
STOOL
100
AcDbSpline
210
0.0
220
0.0
230
1.0
 70
     8
 71
     3
 72
    19
 73
    15
 74
     0
 42
0.0000000001
 43
0.0000000001
 40
0.0
 40
0.0
 40
0.0
 40
0.0
 40
0.1561093611243286
 40
0.3157928697452572
 40
0.6276046595494178
 40
0.940262856167769
 40
1.255153859544488
 40
1.255153859544488
 40
1.255153859544488
 40
1.410258957897151
 40
1.567068035642684
 40
1.880720996836107
 40
2.194012832602011
 40
2.510307389908507
 40
2.510307389908507
 40
2.510307389908507
 40
2.510307389908507
 10
26.92833081044789
 20
-64.1195766172297
 30
0.0
 10
26.90484710072484
 20
-64.16601068705639
 30
0.0
 10
26.86451920990568
 20
-64.26358240134634
 30
0.0
 10
26.81514909866809
 20
-64.46752486721172
 30
0.0
 10
26.81412438939316
 20
-64.73209698321604
 30
0.0
 10
26.91067732892374
 20
-65.03406289864063
 30
0.0
 10
27.03480218193849
 20
-65.20574237489858
 30
0.0
 10
27.10904579121434
 20
-65.27993737717603
 30
0.0
 10
27.14559780242325
 20
-65.31650898144493
 30
0.0
 10
27.22491102343899
 20
-65.38421170953983
 30
0.0
 10
27.40327649670168
 20
-65.49351056891462
 30
0.0
 10
27.65503133316513
 20
-65.57470907670726
 30
0.0
 10
27.97332259274384
 20
-65.57387970927977
 30
0.0
 10
28.17532902078581
 20
-65.5082398319652
 30
0.0
 10
28.26940559182334
 20
-65.46065159550156
 30
0.0
  0
SPLINE
  5
4F
330
1F
100
AcDbEntity
  8
STOOL
100
AcDbSpline
210
0.0
220
0.0
230
1.0
 70
    12
 71
     2
 72
     6
 73
     3
 74
     0
 42
0.0000000001
 43
0.0000000001
 40
-26.16432978377098
 40
-26.16432978377098
 40
-26.16432978377098
 40
-25.13274122872574
 40
-25.13274122872574
 40
-25.13274122872574
 10
26.92833157289109
 20
-54.22670658540623
 30
0.0
 41
0.9558596784101706
 10
27.22253230353472
 20
-53.85274236587153
 30
0.0
 41
0.9759560415930493
 10
27.5589868379097
 20
-53.51628783149585
 30
0.0
 41
1.0
  0
SPLINE
  5
50
330
1F
100
AcDbEntity
  8
STOOL
100
AcDbSpline
210
0.0
220
0.0
230
1.0
 70
     8
 71
     3
 72
    19
 73
    15
 74
     0
 42
0.0000000001
 43
0.0000000001
 40
0.0
 40
0.0
 40
0.0
 40
0.0
 40
0.1561093611267973
 40
0.3157928697477634
 40
0.627604659551883
 40
0.9402628561702048
 40
1.25515385954678
 40
1.25515385954678
 40
1.25515385954678
 40
1.410258957899994
 40
1.567068035645483
 40
1.880720996838891
 40
2.194012832604831
 40
2.510307389915906
 40
2.510307389915906
 40
2.510307389915906
 40
2.510307389915906
 10
28.26940655116263
 20
-52.88563180402711
 30
0.0
 10
28.22297248133543
 20
-52.86214809430371
 30
0.0
 10
28.12540076704462
 20
-52.82182020348434
 30
0.0
 10
27.9214583011786
 20
-52.77245009224653
 30
0.0
 10
27.65688618517419
 20
-52.77142538297152
 30
0.0
 10
27.35492026974977
 20
-52.867978322502
 30
0.0
 10
27.18324079349185
 20
-52.99210317551686
 30
0.0
 10
27.10904579121434
 20
-53.06634678479262
 30
0.0
 10
27.07247418694523
 20
-53.10289879600164
 30
0.0
 10
27.00477145885024
 20
-53.18221201701759
 30
0.0
 10
26.89547259947545
 20
-53.36057749028039
 30
0.0
 10
26.81427409168305
 20
-53.612332326744
 30
0.0
 10
26.81510345911063
 20
-53.93062358632421
 30
0.0
 10
26.88074333642636
 20
-54.13263001436746
 30
0.0
 10
26.92833157289111
 20
-54.22670658540623
 30
0.0
  0
SPLINE
  5
51
330
1F
100
AcDbEntity
  8
STOOL
100
AcDbSpline
210
0.0
220
0.0
230
1.0
 70
    12
 71
     2
 72
     6
 73
     3
 74
     0
 42
0.0000000001
 43
0.0000000001
 40
-75.39822368617726
 40
-75.39822368617726
 40
-75.39822368617726
 40
-74.36663383012146
 40
-74.36663383012146
 40
-74.36663383012146
 10
27.5589868379097
 20
-53.51628783149585
 30
0.0
 41
1.0
 10
27.89544180706517
 20
-53.17983286233905
 30
0.0
 41
0.9759560112694164
 10
28.26940655116264
 20
-52.88563180402711
 30
0.0
 41
0.9558596277201167
  0
SPLINE
  5
52
330
1F
100
AcDbEntity
  8
STOOL
100
AcDbSpline
210
0.0
220
0.0
230
1.0
 70
     8
 71
     3
 72
    19
 73
    15
 74
     0
 42
0.0000000001
 43
0.0000000001
 40
0.0
 40
0.0
 40
0.0
 40
0.0
 40
0.1561093611246081
 40
0.3157928697455233
 40
0.627604659549683
 40
0.9402628561679939
 40
1.255153859544544
 40
1.255153859544544
 40
1.255153859544544
 40
1.410258957897595
 40
1.567068035643088
 40
1.88072099683648
 40
2.194012832602422
 40
2.510307389908674
 40
2.510307389908674
 40
2.510307389908674
 40
2.510307389908674
 10
39.50335136436406
 20
-54.22670754473903
 30
0.0
 10
39.52683507408716
 20
-54.18027347491228
 30
0.0
 10
39.56716296490626
 20
-54.08270176062223
 30
0.0
 10
39.61653307614395
 20
-53.87875929475674
 30
0.0
 10
39.61755778541875
 20
-53.61418717875246
 30
0.0
 10
39.52100484588826
 20
-53.31222126332794
 30
0.0
 10
39.39687999287335
 20
-53.14054178707013
 30
0.0
 10
39.32263638359775
 20
-53.06634678479262
 30
0.0
 10
39.28608437238866
 20
-53.02977518052367
 30
0.0
 10
39.20677115137286
 20
-52.96207245242872
 30
0.0
 10
39.02840567810996
 20
-52.8527735930539
 30
0.0
 10
38.77665084164656
 20
-52.77157508526138
 30
0.0
 10
38.45835958206796
 20
-52.77240445268888
 30
0.0
 10
38.25635315402626
 20
-52.83804433000368
 30
0.0
 10
38.16227658298865
 20
-52.88563256646711
 30
0.0
  0
SPLINE
  5
53
330
1F
100
AcDbEntity
  8
STOOL
100
AcDbSpline
210
0.0
220
0.0
230
1.0
 70
    12
 71
     2
 72
     8
 73
     5
 74
     0
 42
0.0000000001
 43
0.0000000001
 40
-63.86344162685491
 40
-63.86344162685491
 40
-63.86344162685491
 40
-62.83185307181704
 40
-62.83185307181704
 40
-61.80026321575627
 40
-61.80026321575627
 40
-61.80026321575627
 10
38.16227658298855
 20
-52.8856325664671
 30
0.0
 41
0.9558596784103371
 10
38.53624080252015
 20
-53.1798332971089
 30
0.0
 41
0.9759560415931544
 10
38.87269533689316
 20
-53.51628783148151
 30
0.0
 41
1.0
 10
39.20915030605126
 20
-53.85274280063922
 30
0.0
 41
0.9759560112693673
 10
39.50335136436406
 20
-54.22670754473904
 30
0.0
 41
0.9558596277200436
  0
SPLINE
  5
55
330
1F
100
AcDbEntity
  8
TABLE
100
AcDbSpline
210
0.0
220
0.0
230
1.0
 70
    12
 71
     2
 72
     6
 73
     3
 74
     0
 42
0.0000000001
 43
0.0000000001
 40
0.0
 40
0.0
 40
0.0
 40
0.7853981633974564
 40
0.7853981633974564
 40
0.7853981633974564
 10
48.79291214000406
 20
-48.75852012754684
 30
0.0
 41
1.0
 10
49.29291214000407
 20
-48.75852012754682
 30
0.0
 41
0.7071067811865576
 10
49.29291214000406
 20
-48.25852012754684
 30
0.0
 41
1.0
  0
SPLINE
  5
56
330
1F
100
AcDbEntity
  8
TABLE
100
AcDbSpline
210
0.0
220
0.0
230
1.0
 70
    24
 71
     2
 72
     6
 73
     3
 74
     0
 42
0.0000000001
 43
0.0000000001
 40
0.0
 40
0.0
 40
0.0
 40
60.81102362915328
 40
60.81102362915328
 40
60.81102362915328
 10
-12.01811148914923
 20
-48.75852012754684
 30
0.0
 10
18.38740032542741
 20
-48.75852012754684
 30
0.0
 10
48.79291214000406
 20
-48.75852012754684
 30
0.0
  0
SPLINE
  5
57
330
1F
100
AcDbEntity
  8
TABLE
100
AcDbSpline
210
0.0
220
0.0
230
1.0
 70
    12
 71
     2
 72
     6
 73
     3
 74
     0
 42
0.0000000001
 43
0.0000000001
 40
0.0
 40
0.0
 40
0.0
 40
0.7853981633975021
 40
0.7853981633975021
 40
0.7853981633975021
 10
-12.51811148914923
 20
-48.25852012754684
 30
0.0
 41
1.0
 10
-12.51811148914937
 20
-48.75852012754697
 30
0.0
 41
0.7071067811863516
 10
-12.01811148914923
 20
-48.75852012754684
 30
0.0
 41
1.0
  0
SPLINE
  5
58
330
1F
100
AcDbEntity
  8
TABLE
100
AcDbSpline
210
0.0
220
0.0
230
1.0
 70
    24
 71
     2
 72
     6
 73
     3
 74
     0
 42
0.0000000001
 43
0.0000000001
 40
0.0
 40
0.0
 40
0.0
 40
8.842526007215103
 40
8.842526007215103
 40
8.842526007215103
 10
-12.51811148914923
 20
-39.41599412033173
 30
0.0
 10
-12.51811148914923
 20
-43.8372571239393
 30
0.0
 10
-12.51811148914923
 20
-48.25852012754684
 30
0.0
  0
SPLINE
  5
59
330
1F
100
AcDbEntity
  8
TABLE
100
AcDbSpline
210
0.0
220
0.0
230
1.0
 70
    12
 71
     2
 72
     6
 73
     3
 74
     0
 42
0.0000000001
 43
0.0000000001
 40
0.0
 40
0.0
 40
0.0
 40
0.7853981633974656
 40
0.7853981633974656
 40
0.7853981633974656
 10
-12.01811148914923
 20
-38.91599412033173
 30
0.0
 41
1.0
 10
-12.51811148914926
 20
-38.91599412033171
 30
0.0
 41
0.7071067811864998
 10
-12.51811148914923
 20
-39.41599412033173
 30
0.0
 41
1.0
  0
SPLINE
  5
5A
330
1F
100
AcDbEntity
  8
TABLE
100
AcDbSpline
210
0.0
220
0.0
230
1.0
 70
    24
 71
     2
 72
     6
 73
     3
 74
     0
 42
0.0000000001
 43
0.0000000001
 40
0.0
 40
0.0
 40
0.0
 40
60.81102362915328
 40
60.81102362915328
 40
60.81102362915328
 10
48.79291214000406
 20
-38.91599412033173
 30
0.0
 10
18.38740032542741
 20
-38.91599412033173
 30
0.0
 10
-12.01811148914923
 20
-38.91599412033173
 30
0.0
  0
SPLINE
  5
5B
330
1F
100
AcDbEntity
  8
TABLE
100
AcDbSpline
210
0.0
220
0.0
230
1.0
 70
    12
 71
     2
 72
     6
 73
     3
 74
     0
 42
0.0000000001
 43
0.0000000001
 40
0.0
 40
0.0
 40
0.0
 40
0.7853981633974315
 40
0.7853981633974315
 40
0.7853981633974315
 10
49.29291214000406
 20
-39.41599412033173
 30
0.0
 41
1.0
 10
49.29291214000406
 20
-38.91599412033176
 30
0.0
 41
0.7071067811865752
 10
48.79291214000406
 20
-38.91599412033175
 30
0.0
 41
1.0
  0
SPLINE
  5
5C
330
1F
100
AcDbEntity
  8
TABLE
100
AcDbSpline
210
0.0
220
0.0
230
1.0
 70
    24
 71
     2
 72
     6
 73
     3
 74
     0
 42
0.0000000001
 43
0.0000000001
 40
-8.842526007215103
 40
-8.842526007215103
 40
-8.842526007215103
 40
0.0
 40
0.0
 40
0.0
 10
49.29291214000406
 20
-48.25852012754684
 30
0.0
 10
49.29291214000406
 20
-43.8372571239393
 30
0.0
 10
49.29291214000406
 20
-39.41599412033173
 30
0.0
  0
SPLINE
  5
5E
330
1F
100
AcDbEntity
  8
SEATS
100
AcDbSpline
210
0.0
220
0.0
230
1.0
 70
    24
 71
     2
 72
     6
 73
     3
 74
     0
 42
0.0000000001
 43
0.0000000001
 40
-61.00000000073203
 40
-61.00000000073203
 40
-61.00000000073203
 40
0.0
 40
0.0
 40
0.0
 10
48.88742728793736
 20
-30.56458091856076
 30
0.0
 10
18.38742728757133
 20
-30.56458091856076
 30
0.0
 10
-12.11257271279469
 20
-30.56458091856076
 30
0.0
  0
SPLINE
  5
5F
330
1F
100
AcDbEntity
  8
SEATS
100
AcDbSpline
210
0.0
220
0.0
230
1.0
 70
    12
 71
     2
 72
     6
 73
     3
 74
     0
 42
0.0000000001
 43
0.0000000001
 40
0.0
 40
0.0
 40
0.0
 40
1.570796326794909
 40
1.570796326794909
 40
1.570796326794909
 10
49.88742728793736
 20
-29.56458091856076
 30
0.0
 41
1.0
 10
49.88742728793736
 20
-30.56458091856079
 30
0.0
 41
0.7071067811865275
 10
48.88742728793736
 20
-30.56458091856076
 30
0.0
 41
1.0
  0
SPLINE
  5
60
330
1F
100
AcDbEntity
  8
SEATS
100
AcDbSpline
210
0.0
220
0.0
230
1.0
 70
    24
 71
     2
 72
     6
 73
     3
 74
     0
 42
0.0000000001
 43
0.0000000001
 40
-17.00000030076558
 40
-17.00000030076558
 40
-17.00000030076558
 40
0.0
 40
0.0
 40
0.0
 10
49.88742728793736
 20
-12.56458061779519
 30
0.0
 10
49.88742728793736
 20
-21.06458076817797
 30
0.0
 10
49.88742728793736
 20
-29.56458091856076
 30
0.0
  0
ARC
  5
61
330
1F
100
AcDbEntity
  8
SEATS
100
AcDbCircle
 10
48.88742728793736
 20
-12.56458061779519
 30
0.0
 40
1.0
100
AcDbArc
 50
0.0
 51
90.0
  0
SPLINE
  5
62
330
1F
100
AcDbEntity
  8
SEATS
100
AcDbSpline
210
0.0
220
0.0
230
1.0
 70
    24
 71
     2
 72
     6
 73
     3
 74
     0
 42
0.0000000001
 43
0.0000000001
 40
-61.00000000073203
 40
-61.00000000073203
 40
-61.00000000073203
 40
0.0
 40
0.0
 40
0.0
 10
-12.11257271279469
 20
-11.56458061779519
 30
0.0
 10
18.38742728757133
 20
-11.56458061779519
 30
0.0
 10
48.88742728793736
 20
-11.56458061779519
 30
0.0
  0
SPLINE
  5
63
330
1F
100
AcDbEntity
  8
SEATS
100
AcDbSpline
210
0.0
220
0.0
230
1.0
 70
    12
 71
     2
 72
     6
 73
     3
 74
     0
 42
0.0000000001
 43
0.0000000001
 40
0.0
 40
0.0
 40
0.0
 40
1.570796326794909
 40
1.570796326794909
 40
1.570796326794909
 10
-13.11257271279469
 20
-12.56458061779519
 30
0.0
 41
1.0
 10
-13.11257271279471
 20
-11.56458061779516
 30
0.0
 41
0.7071067811865275
 10
-12.11257271279469
 20
-11.56458061779519
 30
0.0
 41
1.0
  0
POLYLINE
  5
64
330
1F
100
AcDbEntity
  8
SEATS
100
AcDb2dPolyline
 66
     1
 10
0.0
 20
0.0
 30
0.0
  0
VERTEX
  5
65
330
64
100
AcDbEntity
  8
SEATS
100
AcDbVertex
100
AcDb2dVertex
 10
-13.11257271279469
 20
-26.44278631092916
 30
0.0
  0
VERTEX
  5
66
330
64
100
AcDbEntity
  8
SEATS
100
AcDbVertex
100
AcDb2dVertex
 10
-13.11257271279469
 20
-12.56458061779519
 30
0.0
  0
SEQEND
  5
67
330
64
100
AcDbEntity
  8
SEATS
  0
LINE
  5
68
330
1F
100
AcDbEntity
  8
SEATS
100
AcDbLine
 10
-13.11257271279469
 20
-29.56458091856044
 30
0.0
 11
-13.11257271279469
 21
-26.44278631092916
 31
0.0
  0
ARC
  5
69
330
1F
100
AcDbEntity
  8
SEATS
100
AcDbCircle
 10
-12.11257271279469
 20
-29.56458091856076
 30
0.0
 40
1.0
100
AcDbArc
 50
179.9999999999813
 51
270.0
  0
SPLINE
  5
6B
330
1F
100
AcDbEntity
  8
BACKS
100
AcDbSpline
210
0.0
220
0.0
230
1.0
 70
    12
 71
     2
 72
     6
 73
     3
 74
     0
 42
0.0000000001
 43
0.0000000001
 40
0.0
 40
0.0
 40
0.0
 40
1.178105736934321
 40
1.178105736934321
 40
1.178105736934321
 10
49.88743605445175
 20
-37.5646346250898
 30
0.0
 41
0.9999999999555169
 10
49.88743766010226
 20
-38.31463911515934
 30
0.0
 41
0.7071079694679449
 10
49.13743317009396
 20
-38.31463462508845
 30
0.0
 41
1.0
  0
SPLINE
  5
6C
330
1F
100
AcDbEntity
  8
BACKS
100
AcDbSpline
210
0.0
220
0.0
230
1.0
 70
     8
 71
     2
 72
     6
 73
     3
 74
     0
 42
0.0000000001
 43
0.0000000001
 40
0.0
 40
0.0
 40
0.0
 40
5.250000000000004
 40
5.250000000000004
 40
5.250000000000004
 10
49.88744093977726
 20
-32.31463462508979
 30
0.0
 10
49.88742743795416
 20
-34.93963462508979
 30
0.0
 10
49.88743605445175
 20
-37.5646346250898
 30
0.0
  0
SPLINE
  5
6D
330
1F
100
AcDbEntity
  8
BACKS
100
AcDbSpline
210
0.0
220
0.0
230
1.0
 70
    12
 71
     2
 72
     6
 73
     3
 74
     0
 42
0.0000000001
 43
0.0000000001
 40
0.0
 40
0.0
 40
0.0
 40
1.178111453563471
 40
1.178111453563471
 40
1.178111453563471
 10
49.13743122089986
 20
-31.56463462509002
 30
0.0
 41
1.0
 10
49.88744225748446
 20
-31.56462737129418
 30
0.0
 41
0.7071091052925004
 10
49.88744093977727
 20
-32.31463462508979
 30
0.0
 41
0.9999999998788636
  0
SPLINE
  5
6E
330
1F
100
AcDbEntity
  8
BACKS
100
AcDbSpline
210
0.0
220
0.0
230
1.0
 70
    24
 71
     2
 72
     6
 73
     3
 74
     0
 42
0.0000000001
 43
0.0000000001
 40
0.0
 40
0.0
 40
0.0
 40
0.2500000000020464
 40
0.2500000000020464
 40
0.2500000000020464
 10
48.88742743795326
 20
-31.56463462508979
 30
0.0
 10
49.01242743795426
 20
-31.56463462508979
 30
0.0
 10
49.13743122089986
 20
-31.56463462509002
 30
0.0
  0
SPLINE
  5
6F
330
1F
100
AcDbEntity
  8
BACKS
100
AcDbSpline
210
0.0
220
0.0
230
1.0
 70
    24
 71
     2
 72
     6
 73
     3
 74
     0
 42
0.0000000001
 43
0.0000000001
 40
0.0000001500156941
 40
0.0000001500156941
 40
0.0000001500156941
 40
61.00000030076353
 40
61.00000030076353
 40
61.00000030076353
 10
-12.11257271279458
 20
-31.5646346250898
 30
0.0
 10
18.38742736257934
 20
-31.56463462508979
 30
0.0
 10
48.88742743795326
 20
-31.56463462508979
 30
0.0
  0
ARC
  5
70
330
1F
100
AcDbEntity
  8
BACKS
100
AcDbCircle
 10
-12.11257271279457
 20
-32.5646346250898
 30
0.0
 40
1.0
100
AcDbArc
 50
90.00000000000041
 51
180.0000000000004
  0
SPLINE
  5
71
330
1F
100
AcDbEntity
  8
BACKS
100
AcDbSpline
210
0.0
220
0.0
230
1.0
 70
    24
 71
     2
 72
     6
 73
     3
 74
     0
 42
0.0000000001
 43
0.0000000001
 40
0.2352952844312242
 40
0.2352952844312242
 40
0.2352952844312242
 40
4.985295284431114
 40
4.985295284431114
 40
4.985295284431114
 10
-13.11257271279457
 20
-37.3146346250897
 30
0.0
 10
-13.11257271279457
 20
-34.93963462508976
 30
0.0
 10
-13.11257271279457
 20
-32.56463462508981
 30
0.0
  0
ARC
  5
72
330
1F
100
AcDbEntity
  8
BACKS
100
AcDbCircle
 10
-12.11257271279457
 20
-37.3146346250897
 30
0.0
 40
1.0
100
AcDbArc
 50
180.0
 51
269.9999999999803
  0
SPLINE
  5
73
330
1F
100
AcDbEntity
  8
BACKS
100
AcDbSpline
210
0.0
220
0.0
230
1.0
 70
    24
 71
     2
 72
     6
 73
     3
 74
     0
 42
0.0000000001
 43
0.0000000001
 40
0.0
 40
0.0
 40
0.0
 40
61.00000015074784
 40
61.00000015074784
 40
61.00000015074784
 10
48.88742743795295
 20
-38.3146346250898
 30
0.0
 10
18.387427362579
 20
-38.3146346250898
 30
0.0
 10
-12.11257271279491
 20
-38.3146346250897
 30
0.0
  0
SPLINE
  5
75
330
1F
100
AcDbEntity
  8
FRAME
100
AcDbSpline
210
0.0
220
0.0
230
1.0
 70
    28
 71
     2
 72
     6
 73
     3
 74
     0
 42
0.0000000001
 43
0.0000000001
 40
-151.2006718311232
 40
-151.2006718311232
 40
-151.2006718311232
 40
-150.4132702563204
 40
-150.4132702563204
 40
-150.4132702563204
 10
40.04093223520746
 20
-38.91599412033175
 30
0.0
 41
1.0
 10
40.43463302260886
 20
-38.91599412033175
 30
0.0
 41
1.0
 10
40.82833381001026
 20
-38.91599412033175
 30
0.0
 41
1.0
  0
POLYLINE
  5
76
330
1F
100
AcDbEntity
  8
FRAME
100
AcDb2dPolyline
 66
     1
 10
0.0
 20
0.0
 30
0.0
  0
VERTEX
  5
77
330
76
100
AcDbEntity
  8
FRAME
100
AcDbVertex
100
AcDb2dVertex
 10
40.04093223520746
 20
-38.3146346250898
 30
0.0
  0
VERTEX
  5
78
330
76
100
AcDbEntity
  8
FRAME
100
AcDbVertex
100
AcDb2dVertex
 10
40.04093223520746
 20
-38.91599412033175
 30
0.0
  0
SEQEND
  5
79
330
76
100
AcDbEntity
  8
FRAME
  0
SPLINE
  5
7A
330
1F
100
AcDbEntity
  8
FRAME
100
AcDbSpline
210
0.0
220
0.0
230
1.0
 70
    28
 71
     2
 72
     6
 73
     3
 74
     0
 42
0.0000000001
 43
0.0000000001
 40
8.059093627942685
 40
8.059093627942685
 40
8.059093627942685
 40
8.846495202745484
 40
8.846495202745484
 40
8.846495202745484
 10
40.82833381001026
 20
-38.3146346250898
 30
0.0
 41
1.0
 10
40.43463302260886
 20
-38.3146346250898
 30
0.0
 41
1.0
 10
40.04093223520746
 20
-38.3146346250898
 30
0.0
 41
1.0
  0
POLYLINE
  5
7B
330
1F
100
AcDbEntity
  8
FRAME
100
AcDb2dPolyline
 66
     1
 10
0.0
 20
0.0
 30
0.0
  0
VERTEX
  5
7C
330
7B
100
AcDbEntity
  8
FRAME
100
AcDbVertex
100
AcDb2dVertex
 10
40.82833381001026
 20
-38.91599412033175
 30
0.0
  0
VERTEX
  5
7D
330
7B
100
AcDbEntity
  8
FRAME
100
AcDbVertex
100
AcDb2dVertex
 10
40.82833381001026
 20
-38.3146346250898
 30
0.0
  0
SEQEND
  5
7E
330
7B
100
AcDbEntity
  8
FRAME
  0
POLYLINE
  5
7F
330
1F
100
AcDbEntity
  8
FRAME
100
AcDb2dPolyline
 66
     1
 10
0.0
 20
0.0
 30
0.0
  0
VERTEX
  5
80
330
7F
100
AcDbEntity
  8
FRAME
100
AcDbVertex
100
AcDb2dVertex
 10
40.82833381001026
 20
-31.56463462508979
 30
0.0
  0
VERTEX
  5
81
330
7F
100
AcDbEntity
  8
FRAME
100
AcDbVertex
100
AcDb2dVertex
 10
40.82833381001026
 20
-30.56458091856076
 30
0.0
  0
SEQEND
  5
82
330
7F
100
AcDbEntity
  8
FRAME
  0
SPLINE
  5
83
330
1F
100
AcDbEntity
  8
FRAME
100
AcDbSpline
210
0.0
220
0.0
230
1.0
 70
    28
 71
     2
 72
     6
 73
     3
 74
     0
 42
0.0000000001
 43
0.0000000001
 40
121.0450977523391
 40
121.0450977523391
 40
121.0450977523391
 40
121.832499327142
 40
121.832499327142
 40
121.832499327142
 10
40.04093223520736
 20
-31.56463462508979
 30
0.0
 41
1.0
 10
40.43463302260876
 20
-31.56463462508979
 30
0.0
 41
1.0
 10
40.82833381001026
 20
-31.56463462508979
 30
0.0
 41
1.0
  0
POLYLINE
  5
84
330
1F
100
AcDbEntity
  8
FRAME
100
AcDb2dPolyline
 66
     1
 10
0.0
 20
0.0
 30
0.0
  0
VERTEX
  5
85
330
84
100
AcDbEntity
  8
FRAME
100
AcDbVertex
100
AcDb2dVertex
 10
40.04093223520736
 20
-30.56458091856076
 30
0.0
  0
VERTEX
  5
86
330
84
100
AcDbEntity
  8
FRAME
100
AcDbVertex
100
AcDb2dVertex
 10
40.04093223520736
 20
-31.56463462508979
 30
0.0
  0
SEQEND
  5
87
330
84
100
AcDbEntity
  8
FRAME
  0
SPLINE
  5
88
330
1F
100
AcDbEntity
  8
FRAME
100
AcDbSpline
210
0.0
220
0.0
230
1.0
 70
    28
 71
     2
 72
     6
 73
     3
 74
     0
 42
0.0000000001
 43
0.0000000001
 40
109.3422793873699
 40
109.3422793873699
 40
109.3422793873699
 40
110.1296809621728
 40
110.1296809621728
 40
110.1296809621728
 10
40.82833381001026
 20
-30.56458091856076
 30
0.0
 41
1.0
 10
40.43463302260886
 20
-30.56458091856076
 30
0.0
 41
1.0
 10
40.04093223520736
 20
-30.56458091856076
 30
0.0
 41
1.0
  0
POLYLINE
  5
89
330
1F
100
AcDbEntity
  8
FRAME
100
AcDb2dPolyline
 66
     1
 10
0.0
 20
0.0
 30
0.0
  0
VERTEX
  5
8A
330
89
100
AcDbEntity
  8
FRAME
100
AcDbVertex
100
AcDb2dVertex
 10
-4.053555953456723
 20
-38.31463462508977
 30
0.0
  0
VERTEX
  5
8B
330
89
100
AcDbEntity
  8
FRAME
100
AcDbVertex
100
AcDb2dVertex
 10
-4.053555953456723
 20
-38.91599412033175
 30
0.0
  0
SEQEND
  5
8C
330
89
100
AcDbEntity
  8
FRAME
  0
SPLINE
  5
8D
330
1F
100
AcDbEntity
  8
FRAME
100
AcDbSpline
210
0.0
220
0.0
230
1.0
 70
    28
 71
     2
 72
     6
 73
     3
 74
     0
 42
0.0000000001
 43
0.0000000001
 40
52.1535818166069
 40
52.1535818166069
 40
52.1535818166069
 40
52.94098339140965
 40
52.94098339140965
 40
52.94098339140965
 10
-3.26615437865398
 20
-38.31463462508977
 30
0.0
 41
1.0
 10
-3.659855166055351
 20
-38.31463462508972
 30
0.0
 41
1.0
 10
-4.053555953456723
 20
-38.31463462508977
 30
0.0
 41
1.0
  0
POLYLINE
  5
8E
330
1F
100
AcDbEntity
  8
FRAME
100
AcDb2dPolyline
 66
     1
 10
0.0
 20
0.0
 30
0.0
  0
VERTEX
  5
8F
330
8E
100
AcDbEntity
  8
FRAME
100
AcDbVertex
100
AcDb2dVertex
 10
-3.26615437865398
 20
-38.91599412033173
 30
0.0
  0
VERTEX
  5
90
330
8E
100
AcDbEntity
  8
FRAME
100
AcDbVertex
100
AcDb2dVertex
 10
-3.26615437865398
 20
-38.31463462508977
 30
0.0
  0
SEQEND
  5
91
330
8E
100
AcDbEntity
  8
FRAME
  0
SPLINE
  5
92
330
1F
100
AcDbEntity
  8
FRAME
100
AcDbSpline
210
0.0
220
0.0
230
1.0
 70
    28
 71
     2
 72
     6
 73
     3
 74
     0
 42
0.0000000001
 43
0.0000000001
 40
-195.2951600197874
 40
-195.2951600197874
 40
-195.2951600197874
 40
-194.5077584449847
 40
-194.5077584449847
 40
-194.5077584449847
 10
-4.053555953456723
 20
-38.91599412033175
 30
0.0
 41
1.0
 10
-3.659855166055351
 20
-38.91599412033173
 30
0.0
 41
1.0
 10
-3.26615437865398
 20
-38.91599412033173
 30
0.0
 41
1.0
  0
SPLINE
  5
93
330
1F
100
AcDbEntity
  8
FRAME
100
AcDbSpline
210
0.0
220
0.0
230
1.0
 70
    28
 71
     2
 72
     6
 73
     3
 74
     0
 42
0.0000000001
 43
0.0000000001
 40
76.95060956367504
 40
76.95060956367504
 40
76.95060956367504
 40
77.73801113847777
 40
77.73801113847777
 40
77.73801113847777
 10
-4.053555953456723
 20
-31.5646346250898
 30
0.0
 41
1.0
 10
-3.659855166055351
 20
-31.5646346250898
 30
0.0
 41
1.0
 10
-3.26615437865398
 20
-31.56463462508979
 30
0.0
 41
1.0
  0
POLYLINE
  5
94
330
1F
100
AcDbEntity
  8
FRAME
100
AcDb2dPolyline
 66
     1
 10
0.0
 20
0.0
 30
0.0
  0
VERTEX
  5
95
330
94
100
AcDbEntity
  8
FRAME
100
AcDbVertex
100
AcDb2dVertex
 10
-4.053555953456723
 20
-30.56458091856076
 30
0.0
  0
VERTEX
  5
96
330
94
100
AcDbEntity
  8
FRAME
100
AcDbVertex
100
AcDb2dVertex
 10
-4.053555953456723
 20
-31.5646346250898
 30
0.0
  0
SEQEND
  5
97
330
94
100
AcDbEntity
  8
FRAME
  0
SPLINE
  5
98
330
1F
100
AcDbEntity
  8
FRAME
100
AcDbSpline
210
0.0
220
0.0
230
1.0
 70
    28
 71
     2
 72
     6
 73
     3
 74
     0
 42
0.0000000001
 43
0.0000000001
 40
153.4367675760341
 40
153.4367675760341
 40
153.4367675760341
 40
154.2241691508368
 40
154.2241691508368
 40
154.2241691508368
 10
-3.26615437865398
 20
-30.56458091856076
 30
0.0
 41
1.0
 10
-3.659855166055365
 20
-30.56458091856076
 30
0.0
 41
1.0
 10
-4.053555953456723
 20
-30.56458091856076
 30
0.0
 41
1.0
  0
POLYLINE
  5
99
330
1F
100
AcDbEntity
  8
FRAME
100
AcDb2dPolyline
 66
     1
 10
0.0
 20
0.0
 30
0.0
  0
VERTEX
  5
9A
330
99
100
AcDbEntity
  8
FRAME
100
AcDbVertex
100
AcDb2dVertex
 10
-3.26615437865398
 20
-31.56463462508979
 30
0.0
  0
VERTEX
  5
9B
330
99
100
AcDbEntity
  8
FRAME
100
AcDbVertex
100
AcDb2dVertex
 10
-3.26615437865398
 20
-30.56458091856076
 30
0.0
  0
SEQEND
  5
9C
330
99
100
AcDbEntity
  8
FRAME
  0
SPLINE
  5
9D
330
1F
100
AcDbEntity
  8
TABLE
100
AcDbSpline
210
0.0
220
0.0
230
1.0
 70
    12
 71
     2
 72
     6
 73
     3
 74
     0
 42
0.0000000001
 43
0.0000000001
 40
0.0
 40
0.0
 40
0.0
 40
1.236847501413973
 40
1.236847501413973
 40
1.236847501413973
 10
50.86774221040376
 20
40.9843766854338
 30
0.0
 41
1.0
 10
50.08034063560036
 20
40.98437668543369
 30
0.0
 41
0.7071067811868028
 10
50.08034063559975
 20
41.77177826023711
 30
0.0
 41
1.0
  0
SPLINE
  5
9E
330
1F
100
AcDbEntity
  8
TABLE
100
AcDbSpline
210
0.0
220
0.0
230
1.0
 70
    24
 71
     2
 72
     6
 73
     3
 74
     0
 42
0.0000000001
 43
0.0000000001
 40
0.0
 40
0.0
 40
0.0
 40
14.17322834645506
 40
14.17322834645506
 40
14.17322834645506
 10
65.04097055685877
 20
40.9843766854338
 30
0.0
 10
57.95435638363126
 20
40.9843766854338
 30
0.0
 10
50.86774221040376
 20
40.9843766854338
 30
0.0
  0
SPLINE
  5
9F
330
1F
100
AcDbEntity
  8
TABLE
100
AcDbSpline
210
0.0
220
0.0
230
1.0
 70
    12
 71
     2
 72
     6
 73
     3
 74
     0
 42
0.0000000001
 43
0.0000000001
 40
0.0
 40
0.0
 40
0.0
 40
1.236847501412772
 40
1.236847501412772
 40
1.236847501412772
 10
65.82837213166097
 20
41.77177826023711
 30
0.0
 41
1.0
 10
65.82837213166165
 20
40.98437668543421
 30
0.0
 41
0.7071067811864199
 10
65.04097055685877
 20
40.9843766854338
 30
0.0
 41
1.0
  0
SPLINE
  5
A0
330
1F
100
AcDbEntity
  8
TABLE
100
AcDbSpline
210
0.0
220
0.0
230
1.0
 70
    24
 71
     2
 72
     6
 73
     3
 74
     0
 42
0.0000000001
 43
0.0000000001
 40
0.0
 40
0.0
 40
0.0
 40
24.01576521667594
 40
24.01576521667594
 40
24.01576521667594
 10
65.82837213166157
 20
65.7875434769131
 30
0.0
 10
65.82837213166125
 20
53.77966086857511
 30
0.0
 10
65.82837213166097
 20
41.77177826023711
 30
0.0
  0
SPLINE
  5
A1
330
1F
100
AcDbEntity
  8
TABLE
100
AcDbSpline
210
0.0
220
0.0
230
1.0
 70
    12
 71
     2
 72
     6
 73
     3
 74
     0
 42
0.0000000001
 43
0.0000000001
 40
0.0
 40
0.0
 40
0.0
 40
1.236847501414285
 40
1.236847501414285
 40
1.236847501414285
 10
65.04097055685766
 20
66.5749450517171
 30
0.0
 41
1.0
 10
65.82837213166096
 20
66.57494505171641
 30
0.0
 41
0.7071067811870835
 10
65.82837213166157
 20
65.7875434769131
 30
0.0
 41
1.0
  0
SPLINE
  5
A2
330
1F
100
AcDbEntity
  8
TABLE
100
AcDbSpline
210
0.0
220
0.0
230
1.0
 70
    24
 71
     2
 72
     6
 73
     3
 74
     0
 42
0.0000000001
 43
0.0000000001
 40
0.0
 40
0.0
 40
0.0
 40
14.1732283464562
 40
14.1732283464562
 40
14.1732283464562
 10
50.86774221040146
 20
66.5749450517174
 30
0.0
 10
57.95435638362956
 20
66.57494505171721
 30
0.0
 10
65.04097055685766
 20
66.5749450517171
 30
0.0
  0
SPLINE
  5
A3
330
1F
100
AcDbEntity
  8
TABLE
100
AcDbSpline
210
0.0
220
0.0
230
1.0
 70
    12
 71
     2
 72
     6
 73
     3
 74
     0
 42
0.0000000001
 43
0.0000000001
 40
0.0
 40
0.0
 40
0.0
 40
1.2368475014128
 40
1.2368475014128
 40
1.2368475014128
 10
50.08034063559836
 20
65.78754347691492
 30
0.0
 41
1.0
 10
50.08034063559855
 20
66.5749450517179
 30
0.0
 41
0.7071067811864071
 10
50.86774221040146
 20
66.5749450517174
 30
0.0
 41
1.0
  0
SPLINE
  5
A4
330
1F
100
AcDbEntity
  8
TABLE
100
AcDbSpline
210
0.0
220
0.0
230
1.0
 70
    24
 71
     2
 72
     6
 73
     3
 74
     0
 42
0.0000000001
 43
0.0000000001
 40
0.0
 40
0.0
 40
0.0
 40
24.01576521667782
 40
24.01576521667782
 40
24.01576521667782
 10
50.08034063559975
 20
41.77177826023711
 30
0.0
 10
50.08034063559906
 20
53.779660868576
 30
0.0
 10
50.08034063559836
 20
65.78754347691492
 30
0.0
  0
SPLINE
  5
A5
330
1F
100
AcDbEntity
  8
SEATS
100
AcDbSpline
210
0.0
220
0.0
230
1.0
 70
    24
 71
     2
 72
     6
 73
     3
 74
     0
 42
0.0000000001
 43
0.0000000001
 40
-61.00000000073203
 40
-61.00000000073203
 40
-61.00000000073203
 40
0.0
 40
0.0
 40
0.0
 10
48.88742728793736
 20
59.42308837444861
 30
0.0
 10
18.38742728757133
 20
59.42308837444861
 30
0.0
 10
-12.11257271279469
 20
59.42308837444861
 30
0.0
  0
SPLINE
  5
A6
330
1F
100
AcDbEntity
  8
SEATS
100
AcDbSpline
210
0.0
220
0.0
230
1.0
 70
    12
 71
     2
 72
     6
 73
     3
 74
     0
 42
0.0000000001
 43
0.0000000001
 40
0.0
 40
0.0
 40
0.0
 40
1.570796326794909
 40
1.570796326794909
 40
1.570796326794909
 10
49.88742728793736
 20
58.42308837444861
 30
0.0
 41
1.0
 10
49.88742728793736
 20
59.4230883744487
 30
0.0
 41
0.7071067811865275
 10
48.88742728793736
 20
59.42308837444861
 30
0.0
 41
1.0
  0
SPLINE
  5
A7
330
1F
100
AcDbEntity
  8
SEATS
100
AcDbSpline
210
0.0
220
0.0
230
1.0
 70
    24
 71
     2
 72
     6
 73
     3
 74
     0
 42
0.0000000001
 43
0.0000000001
 40
-17.00000030076558
 40
-17.00000030076558
 40
-17.00000030076558
 40
0.0
 40
0.0
 40
0.0
 10
49.88742728793736
 20
41.4230880736831
 30
0.0
 10
49.88742728793736
 20
49.92308822406581
 30
0.0
 10
49.88742728793736
 20
58.42308837444861
 30
0.0
  0
ARC
  5
A8
330
1F
100
AcDbEntity
  8
SEATS
100
AcDbCircle
 10
48.88742728793736
 20
41.4230880736831
 30
0.0
 40
1.0
100
AcDbArc
 50
270.0
 51
0.0
  0
SPLINE
  5
A9
330
1F
100
AcDbEntity
  8
SEATS
100
AcDbSpline
210
0.0
220
0.0
230
1.0
 70
    24
 71
     2
 72
     6
 73
     3
 74
     0
 42
0.0000000001
 43
0.0000000001
 40
-61.00000000073203
 40
-61.00000000073203
 40
-61.00000000073203
 40
0.0
 40
0.0
 40
0.0
 10
-12.11257271279469
 20
40.4230880736831
 30
0.0
 10
18.38742728757133
 20
40.4230880736831
 30
0.0
 10
48.88742728793736
 20
40.4230880736831
 30
0.0
  0
SPLINE
  5
AA
330
1F
100
AcDbEntity
  8
SEATS
100
AcDbSpline
210
0.0
220
0.0
230
1.0
 70
    12
 71
     2
 72
     6
 73
     3
 74
     0
 42
0.0000000001
 43
0.0000000001
 40
0.0
 40
0.0
 40
0.0
 40
1.570796326794909
 40
1.570796326794909
 40
1.570796326794909
 10
-13.11257271279469
 20
41.4230880736831
 30
0.0
 41
1.0
 10
-13.11257271279471
 20
40.423088073683
 30
0.0
 41
0.7071067811865275
 10
-12.11257271279469
 20
40.4230880736831
 30
0.0
 41
1.0
  0
POLYLINE
  5
AB
330
1F
100
AcDbEntity
  8
SEATS
100
AcDb2dPolyline
 66
     1
 10
0.0
 20
0.0
 30
0.0
  0
VERTEX
  5
AC
330
AB
100
AcDbEntity
  8
SEATS
100
AcDbVertex
100
AcDb2dVertex
 10
-13.11257271279469
 20
55.30129376681701
 30
0.0
  0
VERTEX
  5
AD
330
AB
100
AcDbEntity
  8
SEATS
100
AcDbVertex
100
AcDb2dVertex
 10
-13.11257271279469
 20
41.4230880736831
 30
0.0
  0
SEQEND
  5
AE
330
AB
100
AcDbEntity
  8
SEATS
  0
LINE
  5
AF
330
1F
100
AcDbEntity
  8
SEATS
100
AcDbLine
 10
-13.11257271279469
 20
58.42308837444831
 30
0.0
 11
-13.11257271279469
 21
55.30129376681701
 31
0.0
  0
ARC
  5
B0
330
1F
100
AcDbEntity
  8
SEATS
100
AcDbCircle
 10
-12.11257271279469
 20
58.42308837444861
 30
0.0
 40
1.0
100
AcDbArc
 50
90.0
 51
180.0000000000187
  0
SPLINE
  5
B1
330
1F
100
AcDbEntity
  8
BACKS
100
AcDbSpline
210
0.0
220
0.0
230
1.0
 70
    12
 71
     2
 72
     6
 73
     3
 74
     0
 42
0.0000000001
 43
0.0000000001
 40
0.0
 40
0.0
 40
0.0
 40
1.178105736934321
 40
1.178105736934321
 40
1.178105736934321
 10
49.88743605445175
 20
66.4231420809777
 30
0.0
 41
0.9999999999555169
 10
49.88743766010226
 20
67.1731465710472
 30
0.0
 41
0.7071079694679449
 10
49.13743317009396
 20
67.1731420809763
 30
0.0
 41
1.0
  0
SPLINE
  5
B2
330
1F
100
AcDbEntity
  8
BACKS
100
AcDbSpline
210
0.0
220
0.0
230
1.0
 70
     8
 71
     2
 72
     6
 73
     3
 74
     0
 42
0.0000000001
 43
0.0000000001
 40
0.0
 40
0.0
 40
0.0
 40
5.250000000000004
 40
5.250000000000004
 40
5.250000000000004
 10
49.88744093977726
 20
61.1731420809777
 30
0.0
 10
49.88742743795416
 20
63.7981420809777
 30
0.0
 10
49.88743605445175
 20
66.4231420809777
 30
0.0
  0
SPLINE
  5
B3
330
1F
100
AcDbEntity
  8
BACKS
100
AcDbSpline
210
0.0
220
0.0
230
1.0
 70
    12
 71
     2
 72
     6
 73
     3
 74
     0
 42
0.0000000001
 43
0.0000000001
 40
0.0
 40
0.0
 40
0.0
 40
1.178111453563471
 40
1.178111453563471
 40
1.178111453563471
 10
49.13743122089986
 20
60.42314208097791
 30
0.0
 41
1.0
 10
49.88744225748446
 20
60.42313482718202
 30
0.0
 41
0.7071091052925004
 10
49.88744093977727
 20
61.17314208097769
 30
0.0
 41
0.9999999998788636
  0
SPLINE
  5
B4
330
1F
100
AcDbEntity
  8
BACKS
100
AcDbSpline
210
0.0
220
0.0
230
1.0
 70
    24
 71
     2
 72
     6
 73
     3
 74
     0
 42
0.0000000001
 43
0.0000000001
 40
0.0
 40
0.0
 40
0.0
 40
0.2500000000020464
 40
0.2500000000020464
 40
0.2500000000020464
 10
48.88742743795326
 20
60.42314208097771
 30
0.0
 10
49.01242743795426
 20
60.42314208097771
 30
0.0
 10
49.13743122089986
 20
60.42314208097791
 30
0.0
  0
SPLINE
  5
B5
330
1F
100
AcDbEntity
  8
BACKS
100
AcDbSpline
210
0.0
220
0.0
230
1.0
 70
    24
 71
     2
 72
     6
 73
     3
 74
     0
 42
0.0000000001
 43
0.0000000001
 40
0.0000001500156941
 40
0.0000001500156941
 40
0.0000001500156941
 40
61.00000030076353
 40
61.00000030076353
 40
61.00000030076353
 10
-12.11257271279458
 20
60.42314208097771
 30
0.0
 10
18.38742736257934
 20
60.42314208097771
 30
0.0
 10
48.88742743795326
 20
60.42314208097771
 30
0.0
  0
ARC
  5
B6
330
1F
100
AcDbEntity
  8
BACKS
100
AcDbCircle
 10
-12.11257271279457
 20
61.4231420809777
 30
0.0
 40
1.0
100
AcDbArc
 50
180.0
 51
270.0
  0
SPLINE
  5
B7
330
1F
100
AcDbEntity
  8
BACKS
100
AcDbSpline
210
0.0
220
0.0
230
1.0
 70
    24
 71
     2
 72
     6
 73
     3
 74
     0
 42
0.0000000001
 43
0.0000000001
 40
0.2352952844312242
 40
0.2352952844312242
 40
0.2352952844312242
 40
4.985295284431114
 40
4.985295284431114
 40
4.985295284431114
 10
-13.11257271279457
 20
66.17314208097761
 30
0.0
 10
-13.11257271279457
 20
63.79814208097761
 30
0.0
 10
-13.11257271279457
 20
61.4231420809777
 30
0.0
  0
ARC
  5
B8
330
1F
100
AcDbEntity
  8
BACKS
100
AcDbCircle
 10
-12.11257271279457
 20
66.17314208097761
 30
0.0
 40
1.0
100
AcDbArc
 50
90.00000000001954
 51
180.0
  0
SPLINE
  5
B9
330
1F
100
AcDbEntity
  8
BACKS
100
AcDbSpline
210
0.0
220
0.0
230
1.0
 70
    24
 71
     2
 72
     6
 73
     3
 74
     0
 42
0.0000000001
 43
0.0000000001
 40
0.0
 40
0.0
 40
0.0
 40
61.00000015074784
 40
61.00000015074784
 40
61.00000015074784
 10
48.88742743795295
 20
67.1731420809777
 30
0.0
 10
18.387427362579
 20
67.1731420809777
 30
0.0
 10
-12.11257271279491
 20
67.17314208097761
 30
0.0
  0
POLYLINE
  5
BA
330
1F
100
AcDbEntity
  8
FRAME
100
AcDb2dPolyline
 66
     1
 10
0.0
 20
0.0
 30
0.0
  0
VERTEX
  5
BB
330
BA
100
AcDbEntity
  8
FRAME
100
AcDbVertex
100
AcDb2dVertex
 10
40.82833381001026
 20
60.42314208097771
 30
0.0
  0
VERTEX
  5
BC
330
BA
100
AcDbEntity
  8
FRAME
100
AcDbVertex
100
AcDb2dVertex
 10
40.82833381001026
 20
59.42308837444861
 30
0.0
  0
SEQEND
  5
BD
330
BA
100
AcDbEntity
  8
FRAME
  0
SPLINE
  5
BE
330
1F
100
AcDbEntity
  8
FRAME
100
AcDbSpline
210
0.0
220
0.0
230
1.0
 70
    28
 71
     2
 72
     6
 73
     3
 74
     0
 42
0.0000000001
 43
0.0000000001
 40
121.0450977523391
 40
121.0450977523391
 40
121.0450977523391
 40
121.832499327142
 40
121.832499327142
 40
121.832499327142
 10
40.04093223520736
 20
60.42314208097771
 30
0.0
 41
1.0
 10
40.43463302260876
 20
60.42314208097771
 30
0.0
 41
1.0
 10
40.82833381001026
 20
60.42314208097771
 30
0.0
 41
1.0
  0
POLYLINE
  5
BF
330
1F
100
AcDbEntity
  8
FRAME
100
AcDb2dPolyline
 66
     1
 10
0.0
 20
0.0
 30
0.0
  0
VERTEX
  5
C0
330
BF
100
AcDbEntity
  8
FRAME
100
AcDbVertex
100
AcDb2dVertex
 10
40.04093223520736
 20
59.42308837444861
 30
0.0
  0
VERTEX
  5
C1
330
BF
100
AcDbEntity
  8
FRAME
100
AcDbVertex
100
AcDb2dVertex
 10
40.04093223520736
 20
60.42314208097771
 30
0.0
  0
SEQEND
  5
C2
330
BF
100
AcDbEntity
  8
FRAME
  0
SPLINE
  5
C3
330
1F
100
AcDbEntity
  8
FRAME
100
AcDbSpline
210
0.0
220
0.0
230
1.0
 70
    28
 71
     2
 72
     6
 73
     3
 74
     0
 42
0.0000000001
 43
0.0000000001
 40
109.3422793873699
 40
109.3422793873699
 40
109.3422793873699
 40
110.1296809621728
 40
110.1296809621728
 40
110.1296809621728
 10
40.82833381001026
 20
59.42308837444861
 30
0.0
 41
1.0
 10
40.43463302260886
 20
59.42308837444861
 30
0.0
 41
1.0
 10
40.04093223520736
 20
59.42308837444861
 30
0.0
 41
1.0
  0
SPLINE
  5
C4
330
1F
100
AcDbEntity
  8
FRAME
100
AcDbSpline
210
0.0
220
0.0
230
1.0
 70
    28
 71
     2
 72
     6
 73
     3
 74
     0
 42
0.0000000001
 43
0.0000000001
 40
76.95060956367504
 40
76.95060956367504
 40
76.95060956367504
 40
77.73801113847777
 40
77.73801113847777
 40
77.73801113847777
 10
-4.053555953456723
 20
60.42314208097771
 30
0.0
 41
1.0
 10
-3.659855166055351
 20
60.42314208097771
 30
0.0
 41
1.0
 10
-3.26615437865398
 20
60.42314208097771
 30
0.0
 41
1.0
  0
POLYLINE
  5
C5
330
1F
100
AcDbEntity
  8
FRAME
100
AcDb2dPolyline
 66
     1
 10
0.0
 20
0.0
 30
0.0
  0
VERTEX
  5
C6
330
C5
100
AcDbEntity
  8
FRAME
100
AcDbVertex
100
AcDb2dVertex
 10
-4.053555953456723
 20
59.42308837444861
 30
0.0
  0
VERTEX
  5
C7
330
C5
100
AcDbEntity
  8
FRAME
100
AcDbVertex
100
AcDb2dVertex
 10
-4.053555953456723
 20
60.42314208097771
 30
0.0
  0
SEQEND
  5
C8
330
C5
100
AcDbEntity
  8
FRAME
  0
SPLINE
  5
C9
330
1F
100
AcDbEntity
  8
FRAME
100
AcDbSpline
210
0.0
220
0.0
230
1.0
 70
    28
 71
     2
 72
     6
 73
     3
 74
     0
 42
0.0000000001
 43
0.0000000001
 40
153.4367675760341
 40
153.4367675760341
 40
153.4367675760341
 40
154.2241691508368
 40
154.2241691508368
 40
154.2241691508368
 10
-3.26615437865398
 20
59.42308837444861
 30
0.0
 41
1.0
 10
-3.659855166055365
 20
59.42308837444861
 30
0.0
 41
1.0
 10
-4.053555953456723
 20
59.42308837444861
 30
0.0
 41
1.0
  0
POLYLINE
  5
CA
330
1F
100
AcDbEntity
  8
FRAME
100
AcDb2dPolyline
 66
     1
 10
0.0
 20
0.0
 30
0.0
  0
VERTEX
  5
CB
330
CA
100
AcDbEntity
  8
FRAME
100
AcDbVertex
100
AcDb2dVertex
 10
-3.26615437865398
 20
60.42314208097771
 30
0.0
  0
VERTEX
  5
CC
330
CA
100
AcDbEntity
  8
FRAME
100
AcDbVertex
100
AcDb2dVertex
 10
-3.26615437865398
 20
59.42308837444861
 30
0.0
  0
SEQEND
  5
CD
330
CA
100
AcDbEntity
  8
FRAME
  0
POLYLINE
  5
CE
330
1F
100
AcDbEntity
  8
FRAME
100
AcDb2dPolyline
 66
     1
 10
0.0
 20
0.0
 30
0.0
  0
VERTEX
  5
CF
330
CE
100
AcDbEntity
  8
FRAME
100
AcDbVertex
100
AcDb2dVertex
 10
49.88742728793736
 20
57.4213931520418
 30
0.0
  0
VERTEX
  5
D0
330
CE
100
AcDbEntity
  8
FRAME
100
AcDbVertex
100
AcDb2dVertex
 10
50.08034063559886
 20
57.4213931520418
 30
0.0
  0
SEQEND
  5
D1
330
CE
100
AcDbEntity
  8
FRAME
  0
SPLINE
  5
D2
330
1F
100
AcDbEntity
  8
FRAME
100
AcDbSpline
210
0.0
220
0.0
230
1.0
 70
    28
 71
     2
 72
     6
 73
     3
 74
     0
 42
0.0000000001
 43
0.0000000001
 40
-99.49809593504413
 40
-99.49809593504413
 40
-99.49809593504413
 40
-98.71069436024102
 40
-98.71069436024102
 40
-98.71069436024102
 10
49.88742728793736
 20
58.20879472684491
 30
0.0
 41
1.0
 10
49.88742728793736
 20
57.81509393944332
 30
0.0
 41
1.0
 10
49.88742728793736
 20
57.4213931520418
 30
0.0
 41
1.0
  0
POLYLINE
  5
D3
330
1F
100
AcDbEntity
  8
FRAME
100
AcDb2dPolyline
 66
     1
 10
0.0
 20
0.0
 30
0.0
  0
VERTEX
  5
D4
330
D3
100
AcDbEntity
  8
FRAME
100
AcDbVertex
100
AcDb2dVertex
 10
50.08034063559886
 20
58.20879472684491
 30
0.0
  0
VERTEX
  5
D5
330
D3
100
AcDbEntity
  8
FRAME
100
AcDbVertex
100
AcDb2dVertex
 10
49.88742728793736
 20
58.20879472684491
 30
0.0
  0
SEQEND
  5
D6
330
D3
100
AcDbEntity
  8
FRAME
  0
SPLINE
  5
D7
330
1F
100
AcDbEntity
  8
FRAME
100
AcDbSpline
210
0.0
220
0.0
230
1.0
 70
    28
 71
     2
 72
     6
 73
     3
 74
     0
 42
0.0000000001
 43
0.0000000001
 40
15.6496148918047
 40
15.6496148918047
 40
15.6496148918047
 40
16.43701646660781
 40
16.43701646660781
 40
16.43701646660781
 10
50.08034063559886
 20
57.4213931520418
 30
0.0
 41
1.0
 10
50.08034063559886
 20
57.81509393944332
 30
0.0
 41
1.0
 10
50.08034063559886
 20
58.20879472684491
 30
0.0
 41
1.0
  0
SPLINE
  5
D8
330
1F
100
AcDbEntity
  8
FRAME
100
AcDbSpline
210
0.0
220
0.0
230
1.0
 70
    28
 71
     2
 72
     6
 73
     3
 74
     0
 42
0.0000000001
 43
0.0000000001
 40
7.578748750072299
 40
7.578748750072299
 40
7.578748750072299
 40
8.366150324875994
 40
8.366150324875994
 40
8.366150324875994
 10
50.08034063559936
 20
49.35052701030941
 30
0.0
 41
1.0
 10
50.08034063559926
 20
49.7442277977112
 30
0.0
 41
1.0
 10
50.08034063559926
 20
50.1379285851131
 30
0.0
 41
1.0
  0
POLYLINE
  5
D9
330
1F
100
AcDbEntity
  8
FRAME
100
AcDb2dPolyline
 66
     1
 10
0.0
 20
0.0
 30
0.0
  0
VERTEX
  5
DA
330
D9
100
AcDbEntity
  8
FRAME
100
AcDbVertex
100
AcDb2dVertex
 10
49.88742728793736
 20
49.35052701030941
 30
0.0
  0
VERTEX
  5
DB
330
D9
100
AcDbEntity
  8
FRAME
100
AcDbVertex
100
AcDb2dVertex
 10
50.08034063559936
 20
49.35052701030941
 30
0.0
  0
SEQEND
  5
DC
330
D9
100
AcDbEntity
  8
FRAME
  0
SPLINE
  5
DD
330
1F
100
AcDbEntity
  8
FRAME
100
AcDbSpline
210
0.0
220
0.0
230
1.0
 70
    28
 71
     2
 72
     6
 73
     3
 74
     0
 42
0.0000000001
 43
0.0000000001
 40
-91.42722979331222
 40
-91.42722979331222
 40
-91.42722979331222
 40
-90.63982821850863
 40
-90.63982821850863
 40
-90.63982821850863
 10
49.88742728793736
 20
50.137928585113
 30
0.0
 41
1.0
 10
49.88742728793736
 20
49.7442277977112
 30
0.0
 41
1.0
 10
49.88742728793736
 20
49.35052701030941
 30
0.0
 41
1.0
  0
POLYLINE
  5
DE
330
1F
100
AcDbEntity
  8
FRAME
100
AcDb2dPolyline
 66
     1
 10
0.0
 20
0.0
 30
0.0
  0
VERTEX
  5
DF
330
DE
100
AcDbEntity
  8
FRAME
100
AcDbVertex
100
AcDb2dVertex
 10
50.08034063559926
 20
50.1379285851131
 30
0.0
  0
VERTEX
  5
E0
330
DE
100
AcDbEntity
  8
FRAME
100
AcDbVertex
100
AcDb2dVertex
 10
49.88742728793736
 20
50.137928585113
 30
0.0
  0
SEQEND
  5
E1
330
DE
100
AcDbEntity
  8
FRAME
  0
ARC
  5
E2
330
1F
100
AcDbEntity
  8
BACKS
100
AcDbCircle
 10
-58.40549402282441
 20
39.42458423496741
 30
0.0
 40
0.9999999999999981
100
AcDbArc
 50
59.99999999999951
 51
151.1780470385229
  0
ARC
  5
E3
330
1F
100
AcDbEntity
  8
BACKS
100
AcDbCircle
 10
-12.97994285643129
 20
14.42900623457325
 30
0.0
 40
52.84842927557754
100
AcDbArc
 50
151.1780470385294
 51
208.8211905817204
  0
ARC
  5
E4
330
1F
100
AcDbEntity
  8
BACKS
100
AcDbCircle
 10
-58.40582661088519
 20
-10.5659673295542
 30
0.0
 40
0.9999999999997949
100
AcDbArc
 50
208.8211905817047
 51
300.0000000000002
  0
SPLINE
  5
E5
330
1F
100
AcDbEntity
  8
BACKS
100
AcDbSpline
210
0.0
220
0.0
230
1.0
 70
    24
 71
     2
 72
     6
 73
     3
 74
     0
 42
0.0000000001
 43
0.0000000001
 40
0.1731220662623022
 40
0.1731220662623022
 40
0.1731220662623022
 40
4.993639127890052
 40
4.993639127890052
 40
4.993639127890052
 10
-53.73113637613933
 20
-9.021734202524598
 30
0.0
 10
-55.81848149351231
 20
-10.22686346793153
 30
0.0
 10
-57.90582661088529
 20
-11.43199273333846
 30
0.0
  0
ARC
  5
E6
330
1F
100
AcDbEntity
  8
BACKS
100
AcDbCircle
 10
-54.23113637613919
 20
-8.15570879874008
 30
0.0
 40
1.000000000000001
100
AcDbArc
 50
299.9999999999906
 51
28.7003700290543
  0
ARC
  5
E7
330
1F
100
AcDbEntity
  8
BACKS
100
AcDbCircle
 10
-12.97994285643176
 20
14.42900623457375
 30
0.0
 40
46.0290369871247
100
AcDbArc
 50
151.2987894265311
 51
208.7003700290514
  0
ARC
  5
E8
330
1F
100
AcDbEntity
  8
BACKS
100
AcDbCircle
 10
-54.23080504788761
 20
37.01432643150451
 30
0.0
 40
1.000000000000275
100
AcDbArc
 50
331.2987894265481
 51
60.00000000000155
  0
SPLINE
  5
E9
330
1F
100
AcDbEntity
  8
BACKS
100
AcDbSpline
210
0.0
220
0.0
230
1.0
 70
    24
 71
     2
 72
     6
 73
     3
 74
     0
 42
0.0000000001
 43
0.0000000001
 40
-4.99325508827708
 40
-4.99325508827708
 40
-4.99325508827708
 40
-0.1727394813515363
 40
-0.1727394813515363
 40
-0.1727394813515363
 10
-57.9054940228244
 20
40.2906096387519
 30
0.0
 10
-55.81814953535594
 20
39.0854807370205
 30
0.0
 10
-53.7308050478875
 20
37.8803518352892
 30
0.0
  0
ARC
  5
EA
330
1F
100
AcDbEntity
  8
SEATS
100
AcDbCircle
 10
-51.63491863943409
 20
-6.656781789578503
 30
0.0
 40
0.9999999999999982
100
AcDbArc
 50
208.6118941977918
 51
300.0000000000005
  0
ARC
  5
EB
330
1F
100
AcDbEntity
  8
SEATS
100
AcDbCircle
 10
-12.97994285643239
 20
14.42900623457332
 30
0.0
 40
45.03200664725559
100
AcDbArc
 50
151.38720801379
 51
208.6118941977909
  0
ARC
  5
EC
330
1F
100
AcDbEntity
  8
SEATS
100
AcDbCircle
 10
-51.6345882338035
 20
35.51539995501851
 30
0.0
 40
1.00000000000015
100
AcDbArc
 50
60.00000000000112
 51
151.3872080137788
  0
LINE
  5
ED
330
1F
100
AcDbEntity
  8
SEATS
100
AcDbLine
 10
-36.39461135485188
 20
27.87129573989152
 30
0.0
 11
-51.13458823380344
 21
36.38142535880301
 31
0.0
  0
ARC
  5
EE
330
1F
100
AcDbEntity
  8
SEATS
100
AcDbCircle
 10
-36.89461135485195
 20
27.00527033610695
 30
0.0
 40
1.000000000000162
100
AcDbArc
 50
332.2609813442747
 51
59.99999999999936
  0
ARC
  5
EF
330
1F
100
AcDbEntity
  8
SEATS
100
AcDbCircle
 10
-12.97994285643173
 20
14.42900623457361
 30
0.0
 40
26.01987764851722
100
AcDbArc
 50
152.2609813442598
 51
207.7375548947602
  0
ARC
  5
F0
330
1F
100
AcDbEntity
  8
SEATS
100
AcDbCircle
 10
-36.89493263850781
 20
1.853353095907664
 30
0.0
 40
1.000000000000044
100
AcDbArc
 50
300.0
 51
27.73755489476
  0
LINE
  5
F1
330
1F
100
AcDbEntity
  8
SEATS
100
AcDbLine
 10
-51.13491863943409
 20
-7.522807193362929
 30
0.0
 11
-36.3949326385078
 21
0.9873276921231877
 31
0.0
  0
POLYLINE
  5
F2
330
1F
100
AcDbEntity
  8
FRAME
100
AcDb2dPolyline
 66
     1
 10
0.0
 20
0.0
 30
0.0
  0
VERTEX
  5
F3
330
F2
100
AcDbEntity
  8
FRAME
100
AcDbVertex
100
AcDb2dVertex
 10
-56.45115331455806
 20
2.675900943467624
 30
0.0
  0
VERTEX
  5
F4
330
F2
100
AcDbEntity
  8
FRAME
100
AcDbVertex
100
AcDb2dVertex
 10
-57.3438480507651
 20
2.160503397214299
 30
0.0
  0
SEQEND
  5
F5
330
F2
100
AcDbEntity
  8
FRAME
  0
SPLINE
  5
F6
330
1F
100
AcDbEntity
  8
FRAME
100
AcDbSpline
210
0.0
220
0.0
230
1.0
 70
    12
 71
     2
 72
     6
 73
     3
 74
     0
 42
0.0000000001
 43
0.0000000001
 40
-98.86347032768792
 40
-98.86347032768792
 40
-98.86347032768792
 40
-98.09109547952295
 40
-98.09109547952295
 40
-98.09109547952295
 10
-56.24266000890471
 20
1.930249205826442
 30
0.0
 41
0.9577558795066135
 10
-56.35011184642187
 20
2.302178865977988
 30
0.0
 41
0.9565917053235269
 10
-56.45115331455806
 20
2.675900943467604
 30
0.0
 41
0.9554995604847997
  0
POLYLINE
  5
F7
330
1F
100
AcDbEntity
  8
FRAME
100
AcDb2dPolyline
 66
     1
 10
0.0
 20
0.0
 30
0.0
  0
VERTEX
  5
F8
330
F7
100
AcDbEntity
  8
FRAME
100
AcDbVertex
100
AcDb2dVertex
 10
-57.13151887677412
 20
1.417066299190424
 30
0.0
  0
VERTEX
  5
F9
330
F7
100
AcDbEntity
  8
FRAME
100
AcDbVertex
100
AcDb2dVertex
 10
-56.2426600089047
 20
1.930249205826442
 30
0.0
  0
SEQEND
  5
FA
330
F7
100
AcDbEntity
  8
FRAME
  0
SPLINE
  5
FB
330
1F
100
AcDbEntity
  8
FRAME
100
AcDbSpline
210
0.0
220
0.0
230
1.0
 70
    12
 71
     2
 72
     6
 73
     3
 74
     0
 42
0.0000000001
 43
0.0000000001
 40
41.65813485284165
 40
41.65813485284165
 40
41.65813485284165
 40
42.42991477467698
 40
42.42991477467698
 40
42.42991477467698
 10
-57.3438480507651
 20
2.160503397214305
 30
0.0
 41
0.9558601505712352
 10
-57.24080550926456
 20
1.787893177147918
 30
0.0
 41
0.9569510474853213
 10
-57.13151887677412
 20
1.417066299190423
 30
0.0
 41
0.9581107720381553
  0
POLYLINE
  5
FC
330
1F
100
AcDbEntity
  8
FRAME
100
AcDb2dPolyline
 66
     1
 10
0.0
 20
0.0
 30
0.0
  0
VERTEX
  5
FD
330
FC
100
AcDbEntity
  8
FRAME
100
AcDbVertex
100
AcDb2dVertex
 10
-57.34365811640156
 20
26.69819586936288
 30
0.0
  0
VERTEX
  5
FE
330
FC
100
AcDbEntity
  8
FRAME
100
AcDbVertex
100
AcDb2dVertex
 10
-56.45096704973323
 20
26.18280044171871
 30
0.0
  0
SEQEND
  5
FF
330
FC
100
AcDbEntity
  8
FRAME
  0
SPLINE
  5
100
330
1F
100
AcDbEntity
  8
FRAME
100
AcDbSpline
210
0.0
220
0.0
230
1.0
 70
    12
 71
     2
 72
     6
 73
     3
 74
     0
 42
0.0000000001
 43
0.0000000001
 40
16.42137164803847
 40
16.42137164803847
 40
16.42137164803847
 40
17.19314866790676
 40
17.19314866790676
 40
17.19314866790676
 10
-57.13131827895202
 20
27.44162681083616
 30
0.0
 41
0.9581108751390139
 10
-57.24061020523774
 20
27.07080305248467
 30
0.0
 41
0.9569511518874434
 10
-57.34365811640156
 20
26.69819586936288
 30
0.0
 41
0.9558602557570244
  0
POLYLINE
  5
101
330
1F
100
AcDbEntity
  8
FRAME
100
AcDb2dPolyline
 66
     1
 10
0.0
 20
0.0
 30
0.0
  0
VERTEX
  5
102
330
101
100
AcDbEntity
  8
FRAME
100
AcDbVertex
100
AcDb2dVertex
 10
-56.24246279842893
 20
26.92844585988546
 30
0.0
  0
VERTEX
  5
103
330
101
100
AcDbEntity
  8
FRAME
100
AcDbVertex
100
AcDb2dVertex
 10
-57.13131827895202
 20
27.44162681083617
 30
0.0
  0
SEQEND
  5
104
330
101
100
AcDbEntity
  8
FRAME
  0
SPLINE
  5
105
330
1F
100
AcDbEntity
  8
FRAME
100
AcDbSpline
210
0.0
220
0.0
230
1.0
 70
    12
 71
     2
 72
     6
 73
     3
 74
     0
 42
0.0000000001
 43
0.0000000001
 40
-74.66882224821464
 40
-74.66882224821464
 40
-74.66882224821464
 40
-73.89645051581677
 40
-73.89645051581677
 40
-73.89645051581677
 10
-56.45096704973323
 20
26.18280044171872
 30
0.0
 41
0.9554995831109184
 10
-56.34992006861412
 20
26.55651940288772
 30
0.0
 41
0.9565917242900412
 10
-56.24246279842894
 20
26.92844585988547
 30
0.0
 41
0.9577558942323906
  0
ARC
  5
106
330
1F
100
AcDbEntity
  8
BACKS
100
AcDbCircle
 10
-57.40549402282443
 20
41.15663504253631
 30
0.0
 40
0.9999999999999981
100
AcDbArc
 50
148.8219529614768
 51
240.0000000000005
  0
ARC
  5
107
330
1F
100
AcDbEntity
  8
BACKS
100
AcDbCircle
 10
-13.04591290901095
 20
14.31474275172729
 30
0.0
 40
52.84842927557754
100
AcDbArc
 50
91.17880941827946
 51
148.8219529614704
  0
ARC
  5
108
330
1F
100
AcDbEntity
  8
BACKS
100
AcDbCircle
 10
-14.11257271278326
 20
66.1521988545069
 30
0.0
 40
0.9999999999997949
100
AcDbArc
 50
0.0
 51
91.17880941829559
  0
SPLINE
  5
109
330
1F
100
AcDbEntity
  8
BACKS
100
AcDbSpline
210
0.0
220
0.0
230
1.0
 70
    24
 71
     2
 72
     6
 73
     3
 74
     0
 42
0.0000000001
 43
0.0000000001
 40
0.1731220662623022
 40
0.1731220662623022
 40
0.1731220662623022
 40
4.993639127890052
 40
4.993639127890052
 40
4.993639127890052
 10
-13.11257271278343
 20
61.3316817928791
 30
0.0
 10
-13.11257271278344
 20
63.741940323693
 30
0.0
 10
-13.11257271278348
 20
66.1521988545069
 30
0.0
  0
ARC
  5
10A
330
1F
100
AcDbEntity
  8
BACKS
100
AcDbCircle
 10
-14.11257271278343
 20
61.33168179287901
 30
0.0
 40
1.000000000000001
100
AcDbArc
 50
271.2996299709462
 51
0.0000000000097707
  0
ARC
  5
10B
330
1F
100
AcDbEntity
  8
BACKS
100
AcDbCircle
 10
-13.04591290901161
 20
14.31474275172745
 30
0.0
 40
46.0290369871247
100
AcDbArc
 50
91.29962997094907
 51
148.7012105734694
  0
ARC
  5
10C
330
1F
100
AcDbEntity
  8
BACKS
100
AcDbCircle
 10
-53.23080504788742
 20
38.74637723907371
 30
0.0
 40
1.000000000000275
100
AcDbArc
 50
239.9999999999997
 51
328.7012105734521
  0
SPLINE
  5
10D
330
1F
100
AcDbEntity
  8
BACKS
100
AcDbSpline
210
0.0
220
0.0
230
1.0
 70
    24
 71
     2
 72
     6
 73
     3
 74
     0
 42
0.0000000001
 43
0.0000000001
 40
-4.99325508827708
 40
-4.99325508827708
 40
-4.99325508827708
 40
-0.1727394813515363
 40
-0.1727394813515363
 40
-0.1727394813515363
 10
-57.90549402282442
 20
40.2906096387518
 30
0.0
 10
-55.81814953535595
 20
39.0854807370205
 30
0.0
 10
-53.73080504788757
 20
37.88035183528901
 30
0.0
  0
ARC
  5
10E
330
1F
100
AcDbEntity
  8
SEATS
100
AcDbCircle
 10
-14.11257271278343
 20
58.33382777455581
 30
0.0
 40
0.9999999999999982
100
AcDbArc
 50
0.0
 51
91.38810580220841
  0
ARC
  5
10F
330
1F
100
AcDbEntity
  8
SEATS
100
AcDbCircle
 10
-13.04591290901156
 20
14.31474275172822
 30
0.0
 40
45.03200664725559
100
AcDbArc
 50
91.38810580220922
 51
148.6127919862101
  0
ARC
  5
110
330
1F
100
AcDbEntity
  8
SEATS
100
AcDbCircle
 10
-50.63458823380337
 20
37.2474507625876
 30
0.0
 40
1.00000000000015
100
AcDbArc
 50
148.6127919862217
 51
239.9999999999993
  0
LINE
  5
111
330
1F
100
AcDbEntity
  8
SEATS
100
AcDbLine
 10
-36.39461135485188
 20
27.87129573989152
 30
0.0
 11
-51.13458823380346
 21
36.38142535880301
 31
0.0
  0
ARC
  5
112
330
1F
100
AcDbEntity
  8
SEATS
100
AcDbCircle
 10
-35.89461135485179
 20
28.73732114367611
 30
0.0
 40
1.000000000000162
100
AcDbArc
 50
240.0000000000011
 51
327.7390186557256
  0
ARC
  5
113
330
1F
100
AcDbEntity
  8
SEATS
100
AcDbCircle
 10
-13.04591290901147
 20
14.31474275172749
 30
0.0
 40
26.01987764851722
100
AcDbArc
 50
92.26244510524016
 51
147.7390186557407
  0
ARC
  5
114
330
1F
100
AcDbEntity
  8
SEATS
100
AcDbCircle
 10
-14.11257271278341
 20
41.31355800358361
 30
0.0
 40
1.000000000000044
100
AcDbArc
 50
272.262445105241
 51
0.0000000000008142
  0
LINE
  5
115
330
1F
100
AcDbEntity
  8
SEATS
100
AcDbLine
 10
-13.11257271278343
 20
58.33382777455581
 30
0.0
 11
-13.11257271278338
 21
41.31355800358361
 31
0.0
  0
POLYLINE
  5
116
330
1F
100
AcDbEntity
  8
FRAME
100
AcDb2dPolyline
 66
     1
 10
0.0
 20
0.0
 30
0.0
  0
VERTEX
  5
117
330
116
100
AcDbEntity
  8
FRAME
100
AcDbVertex
100
AcDb2dVertex
 10
-24.60303038262374
 20
57.83846798727761
 30
0.0
  0
VERTEX
  5
118
330
116
100
AcDbEntity
  8
FRAME
100
AcDbVertex
100
AcDb2dVertex
 10
-24.60303038262371
 20
58.8692630797842
 30
0.0
  0
SEQEND
  5
119
330
116
100
AcDbEntity
  8
FRAME
  0
SPLINE
  5
11A
330
1F
100
AcDbEntity
  8
FRAME
100
AcDbSpline
210
0.0
220
0.0
230
1.0
 70
    12
 71
     2
 72
     6
 73
     3
 74
     0
 42
0.0000000001
 43
0.0000000001
 40
-98.86347032768792
 40
-98.86347032768792
 40
-98.86347032768792
 40
-98.09109547952295
 40
-98.09109547952295
 40
-98.09109547952295
 10
-23.85303038262379
 20
58.03073335688341
 30
0.0
 41
0.9577558795066135
 10
-24.22885683549453
 20
57.93782454778081
 30
0.0
 41
0.9565917053235269
 10
-24.60303038262373
 20
57.8384679872776
 30
0.0
 41
0.9554995604847997
  0
POLYLINE
  5
11B
330
1F
100
AcDbEntity
  8
FRAME
100
AcDb2dPolyline
 66
     1
 10
0.0
 20
0.0
 30
0.0
  0
VERTEX
  5
11C
330
11B
100
AcDbEntity
  8
FRAME
100
AcDbVertex
100
AcDb2dVertex
 10
-23.85303038262377
 20
59.05709917015541
 30
0.0
  0
VERTEX
  5
11D
330
11B
100
AcDbEntity
  8
FRAME
100
AcDbVertex
100
AcDb2dVertex
 10
-23.85303038262379
 20
58.0307333568834
 30
0.0
  0
SEQEND
  5
11E
330
11B
100
AcDbEntity
  8
FRAME
  0
SPLINE
  5
11F
330
1F
100
AcDbEntity
  8
FRAME
100
AcDbSpline
210
0.0
220
0.0
230
1.0
 70
    12
 71
     2
 72
     6
 73
     3
 74
     0
 42
0.0000000001
 43
0.0000000001
 40
41.65813485284165
 40
41.65813485284165
 40
41.65813485284165
 40
42.42991477467698
 40
42.42991477467698
 40
42.42991477467698
 10
-24.60303038262372
 20
58.8692630797842
 30
0.0
 41
0.9558601505712352
 10
-24.22881919558625
 20
58.96633073120741
 30
0.0
 41
0.9569510474853213
 10
-23.85303038262377
 20
59.0570991701554
 30
0.0
 41
0.9581107720381553
  0
POLYLINE
  5
120
330
1F
100
AcDbEntity
  8
FRAME
100
AcDb2dPolyline
 66
     1
 10
0.0
 20
0.0
 30
0.0
  0
VERTEX
  5
121
330
120
100
AcDbEntity
  8
FRAME
100
AcDbVertex
100
AcDb2dVertex
 10
-45.85320044657274
 20
46.60025235572591
 30
0.0
  0
VERTEX
  5
122
330
120
100
AcDbEntity
  8
FRAME
100
AcDbVertex
100
AcDb2dVertex
 10
-44.96050937990438
 20
46.08485692808181
 30
0.0
  0
SEQEND
  5
123
330
120
100
AcDbEntity
  8
FRAME
  0
SPLINE
  5
124
330
1F
100
AcDbEntity
  8
FRAME
100
AcDbSpline
210
0.0
220
0.0
230
1.0
 70
    12
 71
     2
 72
     6
 73
     3
 74
     0
 42
0.0000000001
 43
0.0000000001
 40
16.42137164803847
 40
16.42137164803847
 40
16.42137164803847
 40
17.19314866790676
 40
17.19314866790676
 40
17.19314866790676
 10
-46.39086060912322
 20
46.0446451915226
 30
0.0
 41
0.9581108751390139
 10
-46.12436377720687
 20
46.32470665529031
 30
0.0
 41
0.9569511518874434
 10
-45.85320044657275
 20
46.60025235572601
 30
0.0
 41
0.9558602557570244
  0
POLYLINE
  5
125
330
1F
100
AcDbEntity
  8
FRAME
100
AcDb2dPolyline
 66
     1
 10
0.0
 20
0.0
 30
0.0
  0
VERTEX
  5
126
330
125
100
AcDbEntity
  8
FRAME
100
AcDbVertex
100
AcDb2dVertex
 10
-45.5020051286001
 20
45.53146424057191
 30
0.0
  0
VERTEX
  5
127
330
125
100
AcDbEntity
  8
FRAME
100
AcDbVertex
100
AcDb2dVertex
 10
-46.39086060912322
 20
46.0446451915226
 30
0.0
  0
SEQEND
  5
128
330
125
100
AcDbEntity
  8
FRAME
  0
SPLINE
  5
129
330
1F
100
AcDbEntity
  8
FRAME
100
AcDbSpline
210
0.0
220
0.0
230
1.0
 70
    12
 71
     2
 72
     6
 73
     3
 74
     0
 42
0.0000000001
 43
0.0000000001
 40
-74.66882224821464
 40
-74.66882224821464
 40
-74.66882224821464
 40
-73.89645051581677
 40
-73.89645051581677
 40
-73.89645051581677
 10
-44.96050937990439
 20
46.08485692808181
 30
0.0
 41
0.9554995831109184
 10
-45.23363600359314
 20
45.8104881948724
 30
0.0
 41
0.9565917242900412
 10
-45.50200512860011
 20
45.53146424057191
 30
0.0
 41
0.9577558942323906
  0
ARC
  5
12A
330
1F
100
AcDbEntity
  8
BACKS
100
AcDbCircle
 10
-14.11257271278343
 20
-37.29300588967399
 30
0.0
 40
0.9999999999999981
100
AcDbArc
 50
268.8219529614773
 51
0.0000000000008142
  0
ARC
  5
12B
330
1F
100
AcDbEntity
  8
BACKS
100
AcDbCircle
 10
-13.04660266020355
 20
14.54446440152937
 30
0.0
 40
52.84842927557754
100
AcDbArc
 50
211.1788094182796
 51
268.8219529614704
  0
ARC
  5
12C
330
1F
100
AcDbEntity
  8
BACKS
100
AcDbCircle
 10
-57.40582661088541
 20
-12.2980181371227
 30
0.0
 40
0.9999999999997949
100
AcDbArc
 50
120.0000000000007
 51
211.1788094182959
  0
SPLINE
  5
12D
330
1F
100
AcDbEntity
  8
BACKS
100
AcDbSpline
210
0.0
220
0.0
230
1.0
 70
    24
 71
     2
 72
     6
 73
     3
 74
     0
 42
0.0000000001
 43
0.0000000001
 40
0.1731220662623022
 40
0.1731220662623022
 40
0.1731220662623022
 40
4.993639127890052
 40
4.993639127890052
 40
4.993639127890052
 10
-53.73113637613935
 20
-9.021734202524563
 30
0.0
 10
-55.81848149351233
 20
-10.2268634679315
 30
0.0
 10
-57.90582661088531
 20
-11.43199273333845
 30
0.0
  0
ARC
  5
12E
330
1F
100
AcDbEntity
  8
BACKS
100
AcDbCircle
 10
-53.23113637613922
 20
-9.887759606308919
 30
0.0
 40
1.000000000000001
100
AcDbArc
 50
31.29962997094575
 51
120.000000000009
  0
ARC
  5
12F
330
1F
100
AcDbEntity
  8
BACKS
100
AcDbCircle
 10
-13.04660266020336
 20
14.54446440152871
 30
0.0
 40
46.0290369871247
100
AcDbArc
 50
211.299629970948
 51
268.7012105734684
  0
ARC
  5
130
330
1F
100
AcDbEntity
  8
BACKS
100
AcDbCircle
 10
-14.11257271278361
 20
-32.47249028274842
 30
0.0
 40
1.000000000000275
100
AcDbArc
 50
359.9999999999984
 51
88.70121057345075
  0
SPLINE
  5
131
330
1F
100
AcDbEntity
  8
BACKS
100
AcDbSpline
210
0.0
220
0.0
230
1.0
 70
    24
 71
     2
 72
     6
 73
     3
 74
     0
 42
0.0000000001
 43
0.0000000001
 40
-4.99325508827708
 40
-4.99325508827708
 40
-4.99325508827708
 40
-0.1727394813515363
 40
-0.1727394813515363
 40
-0.1727394813515363
 10
-13.11257271278341
 20
-37.29300588967398
 30
0.0
 10
-13.11257271278341
 20
-34.88274808621119
 30
0.0
 10
-13.11257271278334
 20
-32.47249028274845
 30
0.0
  0
ARC
  5
132
330
1F
100
AcDbEntity
  8
SEATS
100
AcDbCircle
 10
-50.63491863943411
 20
-8.388832597147363
 30
0.0
 40
0.9999999999999982
100
AcDbArc
 50
119.9999999999996
 51
211.3881058022082
  0
ARC
  5
133
330
1F
100
AcDbEntity
  8
SEATS
100
AcDbCircle
 10
-13.04660266020404
 20
14.54446440152839
 30
0.0
 40
45.03200664725559
100
AcDbArc
 50
211.3881058022095
 51
268.6127919862102
  0
ARC
  5
134
330
1F
100
AcDbEntity
  8
SEATS
100
AcDbCircle
 10
-14.11257271278353
 20
-29.47463732977628
 30
0.0
 40
1.00000000000015
100
AcDbArc
 50
268.6127919862215
 51
359.9999999999994
  0
LINE
  5
135
330
1F
100
AcDbEntity
  8
SEATS
100
AcDbLine
 10
-13.11257271278332
 20
-12.45437809195322
 30
0.0
 11
-13.11257271278338
 21
-29.4746373297763
 31
0.0
  0
ARC
  5
136
330
1F
100
AcDbEntity
  8
SEATS
100
AcDbCircle
 10
-14.11257271278349
 20
-12.45437809195322
 30
0.0
 40
1.000000000000162
100
AcDbArc
 50
0.0
 51
87.73901865572502
  0
ARC
  5
137
330
1F
100
AcDbEntity
  8
SEATS
100
AcDbCircle
 10
-13.04660266020346
 20
14.54446440152881
 30
0.0
 40
26.01987764851722
100
AcDbArc
 50
212.26244510524
 51
267.7390186557404
  0
ARC
  5
138
330
1F
100
AcDbEntity
  8
SEATS
100
AcDbCircle
 10
-35.89493263850775
 20
0.1213022883386827
 30
0.0
 40
1.000000000000044
100
AcDbArc
 50
32.26244510524009
 51
119.9999999999995
  0
LINE
  5
139
330
1F
100
AcDbEntity
  8
SEATS
100
AcDbLine
 10
-51.1349186394341
 20
-7.522807193362922
 30
0.0
 11
-36.39493263850777
 21
0.9873276921231593
 31
0.0
  0
POLYLINE
  5
13A
330
1F
100
AcDbEntity
  8
FRAME
100
AcDb2dPolyline
 66
     1
 10
0.0
 20
0.0
 30
0.0
  0
VERTEX
  5
13B
330
13A
100
AcDbEntity
  8
FRAME
100
AcDbVertex
100
AcDb2dVertex
 10
-44.96069564471778
 20
-17.22615554291528
 30
0.0
  0
VERTEX
  5
13C
330
13A
100
AcDbEntity
  8
FRAME
100
AcDbVertex
100
AcDb2dVertex
 10
-45.85339038092485
 20
-17.74155308916856
 30
0.0
  0
SEQEND
  5
13D
330
13A
100
AcDbEntity
  8
FRAME
  0
SPLINE
  5
13E
330
1F
100
AcDbEntity
  8
FRAME
100
AcDbSpline
210
0.0
220
0.0
230
1.0
 70
    12
 71
     2
 72
     6
 73
     3
 74
     0
 42
0.0000000001
 43
0.0000000001
 40
-98.86347032768792
 40
-98.86347032768792
 40
-98.86347032768792
 40
-98.09109547952295
 40
-98.09109547952295
 40
-98.09109547952295
 10
-45.50220233906438
 20
-16.67276917487989
 30
0.0
 41
0.9577558795066135
 10
-45.23382772371081
 20
-16.95179002592885
 30
0.0
 41
0.9565917053235269
 10
-44.9606956447178
 20
-17.22615554291528
 30
0.0
 41
0.9554995604847997
  0
POLYLINE
  5
13F
330
1F
100
AcDbEntity
  8
FRAME
100
AcDb2dPolyline
 66
     1
 10
0.0
 20
0.0
 30
0.0
  0
VERTEX
  5
140
330
13F
100
AcDbEntity
  8
FRAME
100
AcDbVertex
100
AcDb2dVertex
 10
-46.39106120693381
 20
-17.18595208151587
 30
0.0
  0
VERTEX
  5
141
330
13F
100
AcDbEntity
  8
FRAME
100
AcDbVertex
100
AcDb2dVertex
 10
-45.50220233906437
 20
-16.67276917487989
 30
0.0
  0
SEQEND
  5
142
330
13F
100
AcDbEntity
  8
FRAME
  0
SPLINE
  5
143
330
1F
100
AcDbEntity
  8
FRAME
100
AcDbSpline
210
0.0
220
0.0
230
1.0
 70
    12
 71
     2
 72
     6
 73
     3
 74
     0
 42
0.0000000001
 43
0.0000000001
 40
41.65813485284165
 40
41.65813485284165
 40
41.65813485284165
 40
42.42991477467698
 40
42.42991477467698
 40
42.42991477467698
 10
-45.85339038092484
 20
-17.74155308916857
 30
0.0
 41
0.9558601505712352
 10
-46.12455902646177
 20
-17.4660105205254
 30
0.0
 41
0.9569510474853213
 10
-46.39106120693381
 20
-17.18595208151588
 30
0.0
 41
0.9581107720381553
  0
POLYLINE
  5
144
330
1F
100
AcDbEntity
  8
FRAME
100
AcDb2dPolyline
 66
     1
 10
0.0
 20
0.0
 30
0.0
  0
VERTEX
  5
145
330
144
100
AcDbEntity
  8
FRAME
100
AcDbVertex
100
AcDb2dVertex
 10
-24.60303038261225
 20
-30.01023483725901
 30
0.0
  0
VERTEX
  5
146
330
144
100
AcDbEntity
  8
FRAME
100
AcDbVertex
100
AcDb2dVertex
 10
-24.60303038261228
 20
-28.97944398197073
 30
0.0
  0
SEQEND
  5
147
330
144
100
AcDbEntity
  8
FRAME
  0
SPLINE
  5
148
330
1F
100
AcDbEntity
  8
FRAME
100
AcDbSpline
210
0.0
220
0.0
230
1.0
 70
    12
 71
     2
 72
     6
 73
     3
 74
     0
 42
0.0000000001
 43
0.0000000001
 40
16.42137164803847
 40
16.42137164803847
 40
16.42137164803847
 40
17.19314866790676
 40
17.19314866790676
 40
17.19314866790676
 10
-23.85303038261224
 20
-30.19805861452891
 30
0.0
 41
0.9581108751390139
 10
-24.22881914081432
 20
-30.10729631994514
 30
0.0
 41
0.9569511518874434
 10
-24.60303038261224
 20
-30.01023483725902
 30
0.0
 41
0.9558602557570244
  0
POLYLINE
  5
149
330
1F
100
AcDbEntity
  8
FRAME
100
AcDb2dPolyline
 66
     1
 10
0.0
 20
0.0
 30
0.0
  0
VERTEX
  5
14A
330
149
100
AcDbEntity
  8
FRAME
100
AcDbVertex
100
AcDb2dVertex
 10
-23.85303038261226
 20
-29.17169671262753
 30
0.0
  0
VERTEX
  5
14B
330
149
100
AcDbEntity
  8
FRAME
100
AcDbVertex
100
AcDb2dVertex
 10
-23.85303038261224
 20
-30.19805861452891
 30
0.0
  0
SEQEND
  5
14C
330
149
100
AcDbEntity
  8
FRAME
  0
SPLINE
  5
14D
330
1F
100
AcDbEntity
  8
FRAME
100
AcDbSpline
210
0.0
220
0.0
230
1.0
 70
    12
 71
     2
 72
     6
 73
     3
 74
     0
 42
0.0000000001
 43
0.0000000001
 40
-74.66882224821464
 40
-74.66882224821464
 40
-74.66882224821464
 40
-73.89645051581677
 40
-73.89645051581677
 40
-73.89645051581677
 10
-24.60303038261228
 20
-28.97944398197074
 30
0.0
 41
0.9554995831109184
 10
-24.22885677780441
 20
-29.07879420993038
 30
0.0
 41
0.9565917242900412
 10
-23.85303038261226
 20
-29.17169671262753
 30
0.0
 41
0.9577558942323906
  0
ENDSEC
  0
SECTION
  2
OBJECTS
  0
DICTIONARY
  5
C
330
0
100
AcDbDictionary
281
     1
  3
ACAD_GROUP
350
D
  3
ACAD_LAYOUT
350
1A
  3
ACAD_MLEADERSTYLE
350
14F
  3
ACAD_MLINESTYLE
350
17
  3
ACAD_PLOTSETTINGS
350
19
  3
ACAD_PLOTSTYLENAME
350
E
  3
ACAD_TABLESTYLE
350
14E
  3
ACAD_VISUALSTYLE
350
2A
  0
DICTIONARY
  5
D
102
{ACAD_REACTORS
330
C
102
}
330
C
100
AcDbDictionary
281
     1
  0
DICTIONARY
  5
1A
102
{ACAD_REACTORS
330
C
102
}
330
C
100
AcDbDictionary
281
     1
  3
Layout1
350
1E
  3
Layout2
350
26
  3
Model
350
22
  0
DICTIONARY
  5
14F
102
{ACAD_REACTORS
330
C
102
}
330
C
100
AcDbDictionary
281
     1
  0
DICTIONARY
  5
17
102
{ACAD_REACTORS
330
C
102
}
330
C
100
AcDbDictionary
281
     1
  3
Standard
350
18
  0
DICTIONARY
  5
19
102
{ACAD_REACTORS
330
C
102
}
330
C
100
AcDbDictionary
281
     1
  0
ACDBDICTIONARYWDFLT
  5
E
102
{ACAD_REACTORS
330
C
102
}
330
C
100
AcDbDictionary
281
     1
  3
Normal
350
F
100
AcDbDictionaryWithDefault
340
F
  0
DICTIONARY
  5
14E
102
{ACAD_REACTORS
330
C
102
}
330
C
100
AcDbDictionary
281
     1
  0
DICTIONARY
  5
2A
102
{ACAD_REACTORS
330
C
102
}
330
C
100
AcDbDictionary
281
     1
  3
2dWireframe
350
2F
  3
3D Hidden
350
31
  3
3dWireframe
350
30
  3
Basic
350
32
  3
Brighten
350
36
  3
ColorChange
350
3A
  3
Conceptual
350
34
  3
Dim
350
35
  3
Facepattern
350
39
  3
Flat
350
2B
  3
FlatWithEdges
350
2C
  3
Gouraud
350
2D
  3
GouraudWithEdges
350
2E
  3
Linepattern
350
38
  3
Realistic
350
33
  3
Thicken
350
37
  0
LAYOUT
  5
1E
102
{ACAD_REACTORS
330
1A
102
}
330
1A
100
AcDbPlotSettings
  1

  2
none_device
  4

  6

 40
0.0
 41
0.0
 42
0.0
 43
0.0
 44
0.0
 45
0.0
 46
0.0
 47
0.0
 48
0.0
 49
0.0
140
0.0
141
0.0
142
1.0
143
1.0
 70
   688
 72
     0
 73
     0
 74
     5
  7

 75
    16
 76
     0
 77
     2
 78
   300
147
1.0
148
0.0
149
0.0
100
AcDbLayout
  1
Layout1
 70
     1
 71
     1
 10
0.0
 20
0.0
 11
12.0
 21
9.0
 12
0.0
 22
0.0
 32
0.0
 14
1.000000000000000E+20
 24
1.000000000000000E+20
 34
1.000000000000000E+20
 15
-1.000000000000000E+20
 25
-1.000000000000000E+20
 35
-1.000000000000000E+20
146
0.0
 13
0.0
 23
0.0
 33
0.0
 16
1.0
 26
0.0
 36
0.0
 17
0.0
 27
1.0
 37
0.0
 76
     0
330
1B
  0
LAYOUT
  5
26
102
{ACAD_REACTORS
330
1A
102
}
330
1A
100
AcDbPlotSettings
  1

  2
none_device
  4

  6

 40
0.0
 41
0.0
 42
0.0
 43
0.0
 44
0.0
 45
0.0
 46
0.0
 47
0.0
 48
0.0
 49
0.0
140
0.0
141
0.0
142
1.0
143
1.0
 70
   688
 72
     0
 73
     0
 74
     5
  7

 75
    16
 76
     0
 77
     2
 78
   300
147
1.0
148
0.0
149
0.0
100
AcDbLayout
  1
Layout2
 70
     1
 71
     2
 10
0.0
 20
0.0
 11
0.0
 21
0.0
 12
0.0
 22
0.0
 32
0.0
 14
0.0
 24
0.0
 34
0.0
 15
0.0
 25
0.0
 35
0.0
146
0.0
 13
0.0
 23
0.0
 33
0.0
 16
1.0
 26
0.0
 36
0.0
 17
0.0
 27
1.0
 37
0.0
 76
     0
330
23
  0
LAYOUT
  5
22
102
{ACAD_REACTORS
330
1A
102
}
330
1A
100
AcDbPlotSettings
  1

  2
none_device
  4

  6

 40
0.0
 41
0.0
 42
0.0
 43
0.0
 44
0.0
 45
0.0
 46
0.0
 47
0.0
 48
0.0
 49
0.0
140
0.0
141
0.0
142
1.0
143
1.0
 70
  1712
 72
     0
 73
     0
 74
     0
  7

 75
     0
 76
     0
 77
     2
 78
   300
147
1.0
148
0.0
149
0.0
100
AcDbLayout
  1
Model
 70
     1
 71
     0
 10
0.0
 20
0.0
 11
12.0
 21
9.0
 12
0.0
 22
0.0
 32
0.0
 14
-65.82837213200882
 24
-67.17314208098969
 34
0.0
 15
65.82837213166157
 25
67.1731420809777
 35
0.0
146
0.0
 13
0.0
 23
0.0
 33
0.0
 16
1.0
 26
0.0
 36
0.0
 17
0.0
 27
1.0
 37
0.0
 76
     0
330
1F
331
29
  0
MLINESTYLE
  5
18
102
{ACAD_REACTORS
330
17
102
}
330
17
100
AcDbMlineStyle
  2
Standard
 70
     0
  3

 62
   256
 51
90.0
 52
90.0
 71
     2
 49
0.5
 62
   256
  6
BYLAYER
 49
-0.5
 62
   256
  6
BYLAYER
  0
ACDBPLACEHOLDER
  5
F
102
{ACAD_REACTORS
330
E
102
}
330
E
  0
VISUALSTYLE
  5
2F
102
{ACAD_REACTORS
330
2A
102
}
330
2A
100
AcDbVisualStyle
  2
2dWireframe
 70
     4
 71
     0
 72
     2
 73
     0
 90
        0
 40
-0.6
 41
-30.0
 62
     5
 63
     7
421
 16777215
 74
     1
 91
        4
 64
     7
 65
   257
 75
     1
175
     1
 42
1.0
 92
        0
 66
   257
 43
1.0
 76
     1
 77
     6
 78
     2
 67
     7
 79
     5
170
     0
171
     0
290
     0
174
     0
 93
        1
 44
0.0
173
     0
291
     0
 45
0.0
1001
ACAD
1000
AcDbSavedByObjectVersion
1070
     0
  0
VISUALSTYLE
  5
31
102
{ACAD_REACTORS
330
2A
102
}
330
2A
100
AcDbVisualStyle
  2
3D Hidden
 70
     6
 71
     1
 72
     2
 73
     2
 90
        0
 40
-0.6
 41
-30.0
 62
     5
 63
     7
421
 16777215
 74
     2
 91
        2
 64
     7
 65
   257
 75
     2
175
     1
 42
40.0
 92
        0
 66
   257
 43
1.0
 76
     1
 77
     6
 78
     2
 67
     7
 79
     3
170
     0
171
     0
290
     0
174
     0
 93
        1
 44
0.0
173
     0
291
     0
 45
0.0
1001
ACAD
1000
AcDbSavedByObjectVersion
1070
     0
  0
VISUALSTYLE
  5
30
102
{ACAD_REACTORS
330
2A
102
}
330
2A
100
AcDbVisualStyle
  2
3dWireframe
 70
     5
 71
     0
 72
     2
 73
     0
 90
        0
 40
-0.6
 41
-30.0
 62
     5
 63
     7
421
 16777215
 74
     1
 91
        4
 64
     7
 65
   257
 75
     1
175
     1
 42
1.0
 92
        0
 66
   257
 43
1.0
 76
     1
 77
     6
 78
     2
 67
     7
 79
     5
170
     0
171
     0
290
     0
174
     0
 93
        1
 44
0.0
173
     0
291
     0
 45
0.0
1001
ACAD
1000
AcDbSavedByObjectVersion
1070
     0
  0
VISUALSTYLE
  5
32
102
{ACAD_REACTORS
330
2A
102
}
330
2A
100
AcDbVisualStyle
  2
Basic
 70
     7
 71
     1
 72
     0
 73
     1
 90
        0
 40
-0.6
 41
-30.0
 62
     5
 63
     7
421
 16777215
 74
     0
 91
        4
 64
     7
 65
   257
 75
     1
175
     1
 42
1.0
 92
        8
 66
     7
 43
1.0
 76
     1
 77
     6
 78
     2
 67
     7
 79
     5
170
     0
171
     0
290
     0
174
     0
 93
        1
 44
0.0
173
     0
291
     1
 45
0.0
1001
ACAD
1000
AcDbSavedByObjectVersion
1070
     0
  0
VISUALSTYLE
  5
36
102
{ACAD_REACTORS
330
2A
102
}
330
2A
100
AcDbVisualStyle
  2
Brighten
 70
    12
 71
     2
 72
     2
 73
     0
 90
        0
 40
-0.6
 41
-30.0
 62
     5
 63
     7
421
 16777215
 74
     1
 91
        4
 64
     7
 65
   257
 75
     1
175
     1
 42
1.0
 92
        8
 66
     7
 43
1.0
 76
     1
 77
     6
 78
     2
 67
     7
 79
     5
170
     0
171
     0
290
     0
174
     0
 93
        1
 44
50.0
173
     0
291
     1
 45
0.0
1001
ACAD
1000
AcDbSavedByObjectVersion
1070
     0
  0
VISUALSTYLE
  5
3A
102
{ACAD_REACTORS
330
2A
102
}
330
2A
100
AcDbVisualStyle
  2
ColorChange
 70
    16
 71
     2
 72
     2
 73
     3
 90
        0
 40
-0.6
 41
-30.0
 62
     5
 63
     8
421
  8421504
 74
     1
 91
        4
 64
     7
 65
   257
 75
     1
175
     1
 42
1.0
 92
        8
 66
     8
424
  8421504
 43
1.0
 76
     1
 77
     6
 78
     2
 67
     7
 79
     5
170
     0
171
     0
290
     0
174
     0
 93
        1
 44
0.0
173
     0
291
     1
 45
0.0
1001
ACAD
1000
AcDbSavedByObjectVersion
1070
     0
  0
VISUALSTYLE
  5
34
102
{ACAD_REACTORS
330
2A
102
}
330
2A
100
AcDbVisualStyle
  2
Conceptual
 70
     9
 71
     3
 72
     2
 73
     0
 90
        0
 40
-0.6
 41
-30.0
 62
     5
 63
     7
421
 16777215
 74
     2
 91
        2
 64
     7
 65
   257
 75
     1
175
     1
 42
40.0
 92
        8
 66
     7
 43
1.0
 76
     1
 77
     6
 78
     2
 67
     7
 79
     3
170
     0
171
     0
290
     0
174
     0
 93
        1
 44
0.0
173
     0
291
     0
 45
0.0
1001
ACAD
1000
AcDbSavedByObjectVersion
1070
     0
  0
VISUALSTYLE
  5
35
102
{ACAD_REACTORS
330
2A
102
}
330
2A
100
AcDbVisualStyle
  2
Dim
 70
    11
 71
     2
 72
     2
 73
     0
 90
        0
 40
-0.6
 41
-30.0
 62
     5
 63
     7
421
 16777215
 74
     1
 91
        4
 64
     7
 65
   257
 75
     1
175
     1
 42
1.0
 92
        8
 66
     7
 43
1.0
 76
     1
 77
     6
 78
     2
 67
     7
 79
     5
170
     0
171
     0
290
     0
174
     0
 93
        1
 44
-50.0
173
     0
291
     1
 45
0.0
1001
ACAD
1000
AcDbSavedByObjectVersion
1070
     0
  0
VISUALSTYLE
  5
39
102
{ACAD_REACTORS
330
2A
102
}
330
2A
100
AcDbVisualStyle
  2
Facepattern
 70
    15
 71
     2
 72
     2
 73
     0
 90
        0
 40
-0.6
 41
-30.0
 62
     5
 63
     7
421
 16777215
 74
     1
 91
        4
 64
     7
 65
   257
 75
     1
175
     1
 42
1.0
 92
        8
 66
     7
 43
1.0
 76
     1
 77
     6
 78
     2
 67
     7
 79
     5
170
     0
171
     0
290
     0
174
     0
 93
        1
 44
0.0
173
     0
291
     1
 45
0.0
1001
ACAD
1000
AcDbSavedByObjectVersion
1070
     0
  0
VISUALSTYLE
  5
2B
102
{ACAD_REACTORS
330
2A
102
}
330
2A
100
AcDbVisualStyle
  2
Flat
 70
     0
 71
     2
 72
     1
 73
     1
 90
        2
 40
-0.6
 41
30.0
 62
     5
 63
     7
421
 16777215
 74
     0
 91
        4
 64
     7
 65
   257
 75
     1
175
     1
 42
1.0
 92
        8
 66
     7
 43
1.0
 76
     1
 77
     6
 78
     2
 67
     7
 79
     5
170
     0
171
     0
290
     0
174
     0
 93
       13
 44
0.0
173
     0
291
     1
 45
0.0
1001
ACAD
1000
AcDbSavedByObjectVersion
1070
     0
  0
VISUALSTYLE
  5
2C
102
{ACAD_REACTORS
330
2A
102
}
330
2A
100
AcDbVisualStyle
  2
FlatWithEdges
 70
     1
 71
     2
 72
     1
 73
     1
 90
        2
 40
-0.6
 41
30.0
 62
     5
 63
     7
421
 16777215
 74
     1
 91
        4
 64
     7
 65
   257
 75
     1
175
     1
 42
1.0
 92
        0
 66
   257
 43
1.0
 76
     1
 77
     6
 78
     2
 67
     7
 79
     5
170
     0
171
     0
290
     0
174
     0
 93
       13
 44
0.0
173
     0
291
     1
 45
0.0
1001
ACAD
1000
AcDbSavedByObjectVersion
1070
     0
  0
VISUALSTYLE
  5
2D
102
{ACAD_REACTORS
330
2A
102
}
330
2A
100
AcDbVisualStyle
  2
Gouraud
 70
     2
 71
     2
 72
     2
 73
     1
 90
        2
 40
-0.6
 41
30.0
 62
     5
 63
     7
421
 16777215
 74
     0
 91
        4
 64
     7
 65
   257
 75
     1
175
     1
 42
1.0
 92
        0
 66
     7
 43
1.0
 76
     1
 77
     6
 78
     2
 67
     7
 79
     5
170
     0
171
     0
290
     0
174
     0
 93
       13
 44
0.0
173
     0
291
     1
 45
0.0
1001
ACAD
1000
AcDbSavedByObjectVersion
1070
     0
  0
VISUALSTYLE
  5
2E
102
{ACAD_REACTORS
330
2A
102
}
330
2A
100
AcDbVisualStyle
  2
GouraudWithEdges
 70
     3
 71
     2
 72
     2
 73
     1
 90
        2
 40
-0.6
 41
30.0
 62
     5
 63
     7
421
 16777215
 74
     1
 91
        4
 64
     7
 65
   257
 75
     1
175
     1
 42
1.0
 92
        0
 66
   257
 43
1.0
 76
     1
 77
     6
 78
     2
 67
     7
 79
     5
170
     0
171
     0
290
     0
174
     0
 93
       13
 44
0.0
173
     0
291
     1
 45
0.0
1001
ACAD
1000
AcDbSavedByObjectVersion
1070
     0
  0
VISUALSTYLE
  5
38
102
{ACAD_REACTORS
330
2A
102
}
330
2A
100
AcDbVisualStyle
  2
Linepattern
 70
    14
 71
     2
 72
     2
 73
     0
 90
        0
 40
-0.6
 41
-30.0
 62
     5
 63
     7
421
 16777215
 74
     1
 91
        4
 64
     7
 65
   257
 75
     7
175
     7
 42
1.0
 92
        8
 66
     7
 43
1.0
 76
     1
 77
     6
 78
     2
 67
     7
 79
     5
170
     0
171
     0
290
     0
174
     0
 93
        1
 44
0.0
173
     0
291
     1
 45
0.0
1001
ACAD
1000
AcDbSavedByObjectVersion
1070
     0
  0
VISUALSTYLE
  5
33
102
{ACAD_REACTORS
330
2A
102
}
330
2A
100
AcDbVisualStyle
  2
Realistic
 70
     8
 71
     2
 72
     2
 73
     0
 90
        0
 40
-0.6
 41
-30.0
 62
     5
 63
     7
421
 16777215
 74
     1
 91
        0
 64
     7
 65
   257
 75
     1
175
     1
 42
1.0
 92
        8
 66
     8
424
  7895160
 43
1.0
 76
     1
 77
     6
 78
     2
 67
     7
 79
     5
170
     0
171
     0
290
     0
174
     0
 93
       13
 44
0.0
173
     0
291
     0
 45
0.0
1001
ACAD
1000
AcDbSavedByObjectVersion
1070
     0
  0
VISUALSTYLE
  5
37
102
{ACAD_REACTORS
330
2A
102
}
330
2A
100
AcDbVisualStyle
  2
Thicken
 70
    13
 71
     2
 72
     2
 73
     0
 90
        0
 40
-0.6
 41
-30.0
 62
     5
 63
     7
421
 16777215
 74
     1
 91
        4
 64
     7
 65
   257
 75
     1
175
     1
 42
1.0
 92
       12
 66
     7
 43
1.0
 76
     1
 77
     6
 78
     2
 67
     7
 79
     5
170
     0
171
     0
290
     0
174
     0
 93
        1
 44
0.0
173
     0
291
     1
 45
0.0
1001
ACAD
1000
AcDbSavedByObjectVersion
1070
     0
  0
ENDSEC
  0
EOF
