  0
SECTION
  2
HEADER
  9
$ACADVER
  1
AC1018
  9
$ACADMAINTVER
 70
     0
  9
$DWGCODEPAGE
  3
ANSI_1252
  9
$INSBASE
 10
0.0
 20
0.0
 30
0.0
  9
$EXTMIN
 10
-117.4358150080946
 20
-81.62276299871853
 30
0.0
  9
$EXTMAX
 10
117.4359454214135
 20
81.62392003898489
 30
0.0
  9
$LIMMIN
 10
0.0
 20
0.0
  9
$LIMMAX
 10
12.0
 20
9.0
  9
$ORTHOMODE
 70
     0
  9
$REGENMODE
 70
     1
  9
$FILLMODE
 70
     1
  9
$QTEXTMODE
 70
     0
  9
$MIRRTEXT
 70
     1
  9
$LTSCALE
 40
0.0393700787401575
  9
$ATTMODE
 70
     1
  9
$TEXTSIZE
 40
0.2
  9
$TRACEWID
 40
0.05
  9
$TEXTSTYLE
  7
Standard
  9
$CLAYER
  8
SEATS
  9
$CELTYPE
  6
ByLayer
  9
$CECOLOR
 62
   256
  9
$CELTSCALE
 40
1.0
  9
$DISPSILH
 70
     0
  9
$DIMSCALE
 40
1.0
  9
$DIMASZ
 40
0.18
  9
$DIMEXO
 40
0.0625
  9
$DIMDLI
 40
0.38
  9
$DIMRND
 40
0.0
  9
$DIMDLE
 40
0.0
  9
$DIMEXE
 40
0.18
  9
$DIMTP
 40
0.0
  9
$DIMTM
 40
0.0
  9
$DIMTXT
 40
0.18
  9
$DIMCEN
 40
0.09
  9
$DIMTSZ
 40
0.0
  9
$DIMTOL
 70
     0
  9
$DIMLIM
 70
     0
  9
$DIMTIH
 70
     1
  9
$DIMTOH
 70
     1
  9
$DIMSE1
 70
     0
  9
$DIMSE2
 70
     0
  9
$DIMTAD
 70
     0
  9
$DIMZIN
 70
     0
  9
$DIMBLK
  1

  9
$DIMASO
 70
     1
  9
$DIMSHO
 70
     1
  9
$DIMPOST
  1

  9
$DIMAPOST
  1

  9
$DIMALT
 70
     0
  9
$DIMALTD
 70
     2
  9
$DIMALTF
 40
25.4
  9
$DIMLFAC
 40
1.0
  9
$DIMTOFL
 70
     0
  9
$DIMTVP
 40
0.0
  9
$DIMTIX
 70
     0
  9
$DIMSOXD
 70
     0
  9
$DIMSAH
 70
     0
  9
$DIMBLK1
  1

  9
$DIMBLK2
  1

  9
$DIMSTYLE
  2
Standard
  9
$DIMCLRD
 70
     0
  9
$DIMCLRE
 70
     0
  9
$DIMCLRT
 70
     0
  9
$DIMTFAC
 40
1.0
  9
$DIMGAP
 40
0.09
  9
$DIMJUST
 70
     0
  9
$DIMSD1
 70
     0
  9
$DIMSD2
 70
     0
  9
$DIMTOLJ
 70
     1
  9
$DIMTZIN
 70
     0
  9
$DIMALTZ
 70
     0
  9
$DIMALTTZ
 70
     0
  9
$DIMUPT
 70
     0
  9
$DIMDEC
 70
     4
  9
$DIMTDEC
 70
     4
  9
$DIMALTU
 70
     2
  9
$DIMALTTD
 70
     2
  9
$DIMTXSTY
  7
Standard
  9
$DIMAUNIT
 70
     0
  9
$DIMADEC
 70
     0
  9
$DIMALTRND
 40
0.0
  9
$DIMAZIN
 70
     0
  9
$DIMDSEP
 70
    46
  9
$DIMATFIT
 70
     3
  9
$DIMFRAC
 70
     0
  9
$DIMLDRBLK
  1

  9
$DIMLUNIT
 70
     2
  9
$DIMLWD
 70
    -2
  9
$DIMLWE
 70
    -2
  9
$DIMTMOVE
 70
     2
  9
$LUNITS
 70
     2
  9
$LUPREC
 70
     3
  9
$SKETCHINC
 40
0.1
  9
$FILLETRAD
 40
0.5
  9
$AUNITS
 70
     0
  9
$AUPREC
 70
     0
  9
$MENU
  1
.
  9
$ELEVATION
 40
0.0
  9
$PELEVATION
 40
0.0
  9
$THICKNESS
 40
0.0
  9
$LIMCHECK
 70
     0
  9
$CHAMFERA
 40
0.5
  9
$CHAMFERB
 40
0.5
  9
$CHAMFERC
 40
1.0
  9
$CHAMFERD
 40
0.0
  9
$SKPOLY
 70
     0
  9
$TDCREATE
 40
2457539.956146609
  9
$TDUCREATE
 40
2457540.122813276
  9
$TDUPDATE
 40
2457539.95614662
  9
$TDUUPDATE
 40
2457540.122813287
  9
$TDINDWG
 40
0.0000000116
  9
$TDUSRTIMER
 40
0.0000000116
  9
$USRTIMER
 70
     1
  9
$ANGBASE
 50
0.0
  9
$ANGDIR
 70
     0
  9
$PDMODE
 70
     0
  9
$PDSIZE
 40
0.0
  9
$PLINEWID
 40
0.0
  9
$SPLFRAME
 70
     0
  9
$SPLINETYPE
 70
     6
  9
$SPLINESEGS
 70
     8
  9
$HANDSEED
  5
175
  9
$SURFTAB1
 70
     6
  9
$SURFTAB2
 70
     6
  9
$SURFTYPE
 70
     6
  9
$SURFU
 70
     6
  9
$SURFV
 70
     6
  9
$UCSBASE
  2

  9
$UCSNAME
  2

  9
$UCSORG
 10
0.0
 20
0.0
 30
0.0
  9
$UCSXDIR
 10
1.0
 20
0.0
 30
0.0
  9
$UCSYDIR
 10
0.0
 20
1.0
 30
0.0
  9
$UCSORTHOREF
  2

  9
$UCSORTHOVIEW
 70
     0
  9
$UCSORGTOP
 10
0.0
 20
0.0
 30
0.0
  9
$UCSORGBOTTOM
 10
0.0
 20
0.0
 30
0.0
  9
$UCSORGLEFT
 10
0.0
 20
0.0
 30
0.0
  9
$UCSORGRIGHT
 10
0.0
 20
0.0
 30
0.0
  9
$UCSORGFRONT
 10
0.0
 20
0.0
 30
0.0
  9
$UCSORGBACK
 10
0.0
 20
0.0
 30
0.0
  9
$PUCSBASE
  2

  9
$PUCSNAME
  2

  9
$PUCSORG
 10
0.0
 20
0.0
 30
0.0
  9
$PUCSXDIR
 10
1.0
 20
0.0
 30
0.0
  9
$PUCSYDIR
 10
0.0
 20
1.0
 30
0.0
  9
$PUCSORTHOREF
  2

  9
$PUCSORTHOVIEW
 70
     0
  9
$PUCSORGTOP
 10
0.0
 20
0.0
 30
0.0
  9
$PUCSORGBOTTOM
 10
0.0
 20
0.0
 30
0.0
  9
$PUCSORGLEFT
 10
0.0
 20
0.0
 30
0.0
  9
$PUCSORGRIGHT
 10
0.0
 20
0.0
 30
0.0
  9
$PUCSORGFRONT
 10
0.0
 20
0.0
 30
0.0
  9
$PUCSORGBACK
 10
0.0
 20
0.0
 30
0.0
  9
$USERI1
 70
     0
  9
$USERI2
 70
     0
  9
$USERI3
 70
     0
  9
$USERI4
 70
     0
  9
$USERI5
 70
     0
  9
$USERR1
 40
0.0
  9
$USERR2
 40
0.0
  9
$USERR3
 40
0.0
  9
$USERR4
 40
0.0
  9
$USERR5
 40
0.0
  9
$WORLDVIEW
 70
     1
  9
$SHADEDGE
 70
     3
  9
$SHADEDIF
 70
    70
  9
$TILEMODE
 70
     1
  9
$MAXACTVP
 70
    64
  9
$PINSBASE
 10
0.0
 20
0.0
 30
0.0
  9
$PLIMCHECK
 70
     0
  9
$PEXTMIN
 10
1.000000000000000E+20
 20
1.000000000000000E+20
 30
1.000000000000000E+20
  9
$PEXTMAX
 10
-1.000000000000000E+20
 20
-1.000000000000000E+20
 30
-1.000000000000000E+20
  9
$PLIMMIN
 10
0.0
 20
0.0
  9
$PLIMMAX
 10
12.0
 20
9.0
  9
$UNITMODE
 70
     0
  9
$VISRETAIN
 70
     1
  9
$PLINEGEN
 70
     0
  9
$PSLTSCALE
 70
     1
  9
$TREEDEPTH
 70
  3020
  9
$CMLSTYLE
  2
Standard
  9
$CMLJUST
 70
     0
  9
$CMLSCALE
 40
1.0
  9
$PROXYGRAPHICS
 70
     1
  9
$MEASUREMENT
 70
     0
  9
$CELWEIGHT
370
    -1
  9
$ENDCAPS
280
     0
  9
$JOINSTYLE
280
     0
  9
$LWDISPLAY
290
     0
  9
$INSUNITS
 70
     1
  9
$HYPERLINKBASE
  1

  9
$STYLESHEET
  1

  9
$XEDIT
290
     1
  9
$CEPSNTYPE
380
     0
  9
$PSTYLEMODE
290
     1
  9
$FINGERPRINTGUID
  2
{2C82B560-EB8F-4E42-9F59-F96027FBC86A}
  9
$VERSIONGUID
  2
{FAEB1C32-E019-11D5-929B-00C0DF256EC4}
  9
$EXTNAMES
290
     1
  9
$PSVPSCALE
 40
0.0
  9
$OLESTARTUP
290
     0
  9
$SORTENTS
280
   127
  9
$INDEXCTL
280
     0
  9
$HIDETEXT
280
     1
  9
$XCLIPFRAME
290
     0
  9
$HALOGAP
280
     0
  9
$OBSCOLOR
 70
   257
  9
$OBSLTYPE
280
     0
  9
$INTERSECTIONDISPLAY
280
     0
  9
$INTERSECTIONCOLOR
 70
   257
  9
$DIMASSOC
280
     2
  9
$PROJECTNAME
  1

  0
ENDSEC
  0
SECTION
  2
CLASSES
  0
CLASS
  1
ACDBDICTIONARYWDFLT
  2
AcDbDictionaryWithDefault
  3
ObjectDBX Classes
 90
        0
 91
        4
280
     0
281
     0
  0
CLASS
  1
VISUALSTYLE
  2
AcDbVisualStyle
  3
ObjectDBX Classes
 90
     4095
 91
        4
280
     0
281
     0
  0
ENDSEC
  0
SECTION
  2
TABLES
  0
TABLE
  2
VPORT
  5
8
330
0
100
AcDbSymbolTable
 70
     1
  0
VPORT
  5
29
330
8
100
AcDbSymbolTableRecord
100
AcDbViewportTableRecord
  2
*Active
 70
     0
 10
0.0
 20
0.0
 11
1.0
 21
1.0
 12
0.0000652066594569
 22
0.0005785201331889
 13
0.0
 23
0.0
 14
0.5
 24
0.5
 15
0.5
 25
0.5
 16
0.0
 26
0.0
 36
1.0
 17
0.0
 27
0.0
 37
0.0
 40
166.5116166984575
 41
1.438753646071095
 42
50.0
 43
0.0
 44
0.0
 50
0.0
 51
0.0
 71
     0
 72
   100
 73
     1
 74
     3
 75
     0
 76
     0
 77
     0
 78
     0
281
     0
 65
     1
110
0.0
120
0.0
130
0.0
111
1.0
121
0.0
131
0.0
112
0.0
122
1.0
132
0.0
 79
     0
146
0.0
  0
ENDTAB
  0
TABLE
  2
LTYPE
  5
5
330
0
100
AcDbSymbolTable
 70
     1
  0
LTYPE
  5
14
330
5
100
AcDbSymbolTableRecord
100
AcDbLinetypeTableRecord
  2
ByBlock
 70
     0
  3

 72
    65
 73
     0
 40
0.0
  0
LTYPE
  5
15
330
5
100
AcDbSymbolTableRecord
100
AcDbLinetypeTableRecord
  2
ByLayer
 70
     0
  3

 72
    65
 73
     0
 40
0.0
  0
LTYPE
  5
16
330
5
100
AcDbSymbolTableRecord
100
AcDbLinetypeTableRecord
  2
Continuous
 70
     0
  3
Solid line
 72
    65
 73
     0
 40
0.0
  0
ENDTAB
  0
TABLE
  2
LAYER
  5
2
330
0
100
AcDbSymbolTable
 70
     7
  0
LAYER
  5
10
330
2
100
AcDbSymbolTableRecord
100
AcDbLayerTableRecord
  2
0
 70
     0
 62
     7
  6
Continuous
370
    -3
390
F
  0
LAYER
  5
3B
330
2
100
AcDbSymbolTableRecord
100
AcDbLayerTableRecord
  2
STOOL
 70
     0
 62
    33
  6
Continuous
370
    -3
390
F
  0
LAYER
  5
41
330
2
100
AcDbSymbolTableRecord
100
AcDbLayerTableRecord
  2
BACKS
 70
     0
 62
   253
  6
Continuous
370
    -3
390
F
  0
LAYER
  5
43
330
2
100
AcDbSymbolTableRecord
100
AcDbLayerTableRecord
  2
SEATS
 70
     0
 62
   251
  6
Continuous
370
    -3
390
F
  0
LAYER
  5
5A
330
2
100
AcDbSymbolTableRecord
100
AcDbLayerTableRecord
  2
FRAME
 70
     0
 62
    15
  6
Continuous
370
    -3
390
F
  0
LAYER
  5
D4
330
2
100
AcDbSymbolTableRecord
100
AcDbLayerTableRecord
  2
TABLE
 70
     0
 62
     7
  6
Continuous
370
    -3
390
F
  0
LAYER
  5
117
330
2
100
AcDbSymbolTableRecord
100
AcDbLayerTableRecord
  2
SCREEN
 70
     0
 62
    98
  6
Continuous
370
    -3
390
F
  0
ENDTAB
  0
TABLE
  2
STYLE
  5
3
330
0
100
AcDbSymbolTable
 70
     1
  0
STYLE
  5
11
330
3
100
AcDbSymbolTableRecord
100
AcDbTextStyleTableRecord
  2
Standard
 70
     0
 40
0.0
 41
1.0
 50
0.0
 71
     0
 42
0.2
  3
txt
  4

  0
ENDTAB
  0
TABLE
  2
VIEW
  5
6
330
0
100
AcDbSymbolTable
 70
     0
  0
ENDTAB
  0
TABLE
  2
UCS
  5
7
330
0
100
AcDbSymbolTable
 70
     0
  0
ENDTAB
  0
TABLE
  2
APPID
  5
9
330
0
100
AcDbSymbolTable
 70
     1
  0
APPID
  5
12
330
9
100
AcDbSymbolTableRecord
100
AcDbRegAppTableRecord
  2
ACAD
 70
     0
  0
ENDTAB
  0
TABLE
  2
DIMSTYLE
  5
A
330
0
100
AcDbSymbolTable
 70
     1
100
AcDbDimStyleTable
  0
DIMSTYLE
105
27
330
A
100
AcDbSymbolTableRecord
100
AcDbDimStyleTableRecord
  2
Standard
 70
     0
340
11
  0
ENDTAB
  0
TABLE
  2
BLOCK_RECORD
  5
1
330
0
100
AcDbSymbolTable
 70
     1
  0
BLOCK_RECORD
  5
1F
330
1
100
AcDbSymbolTableRecord
100
AcDbBlockTableRecord
  2
*Model_Space
340
22
  0
BLOCK_RECORD
  5
1B
330
1
100
AcDbSymbolTableRecord
100
AcDbBlockTableRecord
  2
*Paper_Space
340
1E
  0
BLOCK_RECORD
  5
23
330
1
100
AcDbSymbolTableRecord
100
AcDbBlockTableRecord
  2
*Paper_Space0
340
26
  0
ENDTAB
  0
ENDSEC
  0
SECTION
  2
BLOCKS
  0
BLOCK
  5
20
330
1F
100
AcDbEntity
  8
0
100
AcDbBlockBegin
  2
*Model_Space
 70
     0
 10
0.0
 20
0.0
 30
0.0
  3
*Model_Space
  1

  0
ENDBLK
  5
21
330
1F
100
AcDbEntity
  8
0
100
AcDbBlockEnd
  0
BLOCK
  5
1C
330
1B
100
AcDbEntity
 67
     1
  8
0
100
AcDbBlockBegin
  2
*Paper_Space
 70
     0
 10
0.0
 20
0.0
 30
0.0
  3
*Paper_Space
  1

  0
ENDBLK
  5
1D
330
1B
100
AcDbEntity
 67
     1
  8
0
100
AcDbBlockEnd
  0
BLOCK
  5
24
330
23
100
AcDbEntity
  8
0
100
AcDbBlockBegin
  2
*Paper_Space0
 70
     0
 10
0.0
 20
0.0
 30
0.0
  3
*Paper_Space0
  1

  0
ENDBLK
  5
25
330
23
100
AcDbEntity
  8
0
100
AcDbBlockEnd
  0
ENDSEC
  0
SECTION
  2
ENTITIES
  0
SPLINE
  5
3C
330
1F
100
AcDbEntity
  8
STOOL
100
AcDbSpline
210
0.0
220
0.0
230
1.0
 70
    12
 71
     2
 72
     6
 73
     3
 74
     0
 42
0.0000000001
 43
0.0000000001
 40
74.36663513112035
 40
74.36663513112035
 40
74.36663513112035
 40
75.39822368617703
 40
75.39822368617703
 40
75.39822368617703
 10
86.88404843798527
 20
17.36206851693674
 30
0.0
 41
0.9558596784096044
 10
86.95185163476864
 20
16.89110563738629
 30
0.0
 41
0.9759560415927161
 10
87.07500254157075
 20
16.43150019620626
 30
0.0
 41
1.0
  0
SPLINE
  5
3D
330
1F
100
AcDbEntity
  8
STOOL
100
AcDbSpline
210
0.0
220
0.0
230
1.0
 70
    12
 71
     2
 72
     6
 73
     3
 74
     0
 42
0.0000000001
 43
0.0000000001
 40
25.13274122872566
 40
25.13274122872566
 40
25.13274122872566
 40
26.16433108476997
 40
26.16433108476997
 40
26.16433108476997
 10
87.07500254157075
 20
16.43150019620626
 30
0.0
 41
1.0
 10
87.19815360751058
 20
15.97189416111473
 30
0.0
 41
0.9759560112697513
 10
87.37491604686126
 20
15.53012619875277
 30
0.0
 41
0.9558596277206857
  0
SPLINE
  5
3E
330
1F
100
AcDbEntity
  8
STOOL
100
AcDbSpline
210
0.0
220
0.0
230
1.0
 70
     8
 71
     3
 72
    19
 73
    15
 74
     0
 42
0.0000000001
 43
0.0000000001
 40
0.0
 40
0.0
 40
0.0
 40
0.0
 40
0.1561093611291618
 40
0.3157928697500008
 40
0.627604659554232
 40
0.9402628561725244
 40
1.255153859548137
 40
1.255153859548137
 40
1.255153859548137
 40
1.41025895790136
 40
1.567068035646838
 40
1.880720996840248
 40
2.194012832606177
 40
2.510307389915723
 40
2.510307389915723
 40
2.510307389915723
 40
2.510307389915723
 10
87.37491604686126
 20
15.53012619875277
 30
0.0
 10
87.32296110792727
 20
15.53300574447069
 30
0.0
 10
87.21829757925038
 20
15.54686662368574
 30
0.0
 10
87.01699316727998
 20
15.60608208609943
 30
0.0
 10
86.78735463904998
 20
15.73748071983816
 30
0.0
 10
86.57412095498115
 20
15.97208097599385
 30
0.0
 10
86.48750459374106
 20
16.16541599007435
 30
0.0
 10
86.46037164157268
 20
16.2668103429143
 30
0.0
 10
86.44697570882308
 20
16.3167511153153
 30
0.0
 10
86.42800003689577
 20
16.41928974361875
 30
0.0
 10
86.42252718470378
 20
16.62840820430955
 30
0.0
 10
86.47808463243756
 20
16.88703354210888
 30
0.0
 10
86.63794851548867
 20
17.16226717499352
 30
0.0
 10
86.79579753076648
 20
17.30438993474888
 30
0.0
 10
86.88404843798527
 20
17.36206851693674
 30
0.0
  0
SPLINE
  5
3F
330
1F
100
AcDbEntity
  8
STOOL
100
AcDbSpline
210
0.0
220
0.0
230
1.0
 70
    12
 71
     2
 72
     8
 73
     5
 74
     0
 42
0.0000000001
 43
0.0000000001
 40
-25.13274122872571
 40
-25.13274122872571
 40
-25.13274122872571
 40
-12.56637061436553
 40
-12.56637061436553
 40
0.0
 40
0.0
 40
0.0
 10
102.529815762193
 20
20.57260491785728
 30
0.0
 41
1.0
 10
104.6003681230297
 20
12.8451983075442
 30
0.0
 41
0.7071067811860405
 10
96.87296151271367
 20
10.77464594671851
 30
0.0
 41
1.0
 10
89.14555490239977
 20
8.704093585893492
 30
0.0
 41
0.7071067811867325
 10
87.07500254157075
 20
16.43150019620626
 30
0.0
 41
1.0
  0
SPLINE
  5
40
330
1F
100
AcDbEntity
  8
STOOL
100
AcDbSpline
210
0.0
220
0.0
230
1.0
 70
    12
 71
     2
 72
     8
 73
     5
 74
     0
 42
0.0000000001
 43
0.0000000001
 40
-25.13274122872566
 40
-25.13274122872566
 40
-25.13274122872566
 40
-12.5663706143655
 40
-12.5663706143655
 40
0.0
 40
0.0
 40
0.0
 10
87.07500254157075
 20
16.43150019620626
 30
0.0
 41
1.0
 10
85.00445018073407
 20
24.15890680651929
 30
0.0
 41
0.7071067811860445
 10
92.73185679105008
 20
26.22945916734498
 30
0.0
 41
1.0
 10
100.4592634013638
 20
28.30001152817007
 30
0.0
 41
0.7071067811867342
 10
102.529815762193
 20
20.57260491785728
 30
0.0
 41
1.0
  0
SPLINE
  5
42
330
1F
100
AcDbEntity
  8
BACKS
100
AcDbSpline
210
0.0
220
0.0
230
1.0
 70
    12
 71
     2
 72
     6
 73
     3
 74
     0
 42
0.0000000001
 43
0.0000000001
 40
-0.015709817003695
 40
-0.015709817003695
 40
-0.015709817003695
 40
0.0
 40
0.0
 40
0.0
 10
-63.70200059507017
 20
-24.97123204791446
 30
0.0
 41
1.0
 10
-63.7082075139759
 20
-24.96641767058842
 30
0.0
 41
0.9999451564360697
 10
-63.71450887926887
 20
-24.96172758125854
 30
0.0
 41
0.9999999999748281
  0
LINE
  5
44
330
1F
100
AcDbEntity
  8
SEATS
100
AcDbLine
 10
45.72784351080098
 20
26.93935359875678
 30
0.0
 11
60.45027563560708
 21
18.43935344837394
 31
0.0
  0
ARC
  5
45
330
1F
100
AcDbEntity
  8
SEATS
100
AcDbCircle
 10
60.95027563560707
 20
19.30537885215838
 30
0.0
 40
1.0
100
AcDbArc
 50
240.0000000000005
 51
329.9999999999769
  0
SPLINE
  5
46
330
1F
100
AcDbEntity
  8
SEATS
100
AcDbSpline
210
0.0
220
0.0
230
1.0
 70
    24
 71
     2
 72
     6
 73
     3
 74
     0
 42
0.0000000001
 43
0.0000000001
 40
0.0104022295436157
 40
0.0104022295436157
 40
0.0104022295436157
 40
61.00000000073199
 40
61.00000000073199
 40
61.00000000073199
 10
61.81630103939131
 20
18.80537885215804
 30
0.0
 10
77.06370048218828
 20
45.21464937038017
 30
0.0
 10
92.3110999249854
 20
71.62391988860207
 30
0.0
  0
ARC
  5
47
330
1F
100
AcDbEntity
  8
SEATS
100
AcDbCircle
 10
91.44507452120097
 20
72.12391988860207
 30
0.0
 40
1.0
100
AcDbArc
 50
329.9999999999999
 51
59.99999999999805
  0
SPLINE
  5
48
330
1F
100
AcDbEntity
  8
SEATS
100
AcDbSpline
210
0.0
220
0.0
230
1.0
 70
    24
 71
     2
 72
     6
 73
     3
 74
     0
 42
0.0000000001
 43
0.0000000001
 40
0.0
 40
0.0
 40
0.0
 40
17.00000030076561
 40
17.00000030076561
 40
17.00000030076561
 10
91.945074521201
 20
72.9899452923865
 30
0.0
 10
84.58385845879788
 20
77.23994536757789
 30
0.0
 10
77.22264239639487
 20
81.48994544276934
 30
0.0
  0
ARC
  5
49
330
1F
100
AcDbEntity
  8
SEATS
100
AcDbCircle
 10
76.72264239639487
 20
80.62392003898489
 30
0.0
 40
1.0
100
AcDbArc
 50
60.00000000000028
 51
149.9999999999992
  0
SPLINE
  5
4A
330
1F
100
AcDbEntity
  8
SEATS
100
AcDbSpline
210
0.0
220
0.0
230
1.0
 70
    24
 71
     2
 72
     6
 73
     3
 74
     0
 42
0.0000000001
 43
0.0000000001
 40
0.0
 40
0.0
 40
0.0
 40
60.98959777118844
 40
60.98959777118844
 40
60.98959777118844
 10
75.85661699261044
 20
81.1239200389849
 30
0.0
 10
60.60921754981327
 20
54.71464952076298
 30
0.0
 10
45.36181810701611
 20
28.30537900254096
 30
0.0
  0
ARC
  5
4B
330
1F
100
AcDbEntity
  8
SEATS
100
AcDbCircle
 10
46.22784351080018
 20
27.80537900254119
 30
0.0
 40
0.9999999999995747
100
AcDbArc
 50
150.000000000001
 51
240.0000000000386
  0
LINE
  5
4C
330
1F
100
AcDbEntity
  8
BACKS
100
AcDbLine
 10
67.1613007974188
 20
14.56474126466362
 30
0.0
 11
63.04702321939165
 21
16.94012053185839
 31
0.0
  0
ARC
  5
4D
330
1F
100
AcDbEntity
  8
BACKS
100
AcDbCircle
 10
62.54702321939024
 20
16.07409512807479
 30
0.0
 40
0.9999999999999861
100
AcDbArc
 50
59.99999999990599
 51
148.8538530785534
  0
ARC
  5
4E
330
1F
100
AcDbEntity
  8
BACKS
100
AcDbCircle
 10
22.42803596101958
 20
40.31950779708491
 30
0.0
 40
45.87614717666017
100
AcDbArc
 50
271.1464660983413
 51
328.8538530785474
  0
ARC
  5
4F
330
1F
100
AcDbEntity
  8
BACKS
100
AcDbCircle
 10
23.36594670854588
 20
-6.547255453192762
 30
0.0
 40
0.9999999999999787
100
AcDbArc
 50
91.14646609834762
 51
179.9999999999958
  0
LINE
  5
50
330
1F
100
AcDbEntity
  8
BACKS
100
AcDbLine
 10
22.36594670854591
 20
-6.547255453192689
 30
0.0
 11
22.36594670854588
 21
-11.29801446839532
 31
0.0
  0
ARC
  5
51
330
1F
100
AcDbEntity
  8
BACKS
100
AcDbCircle
 10
23.36594670854588
 20
-11.29801446839532
 30
0.0
 40
1.0
100
AcDbArc
 50
180.0
 51
271.0409723688026
  0
ARC
  5
52
330
1F
100
AcDbEntity
  8
BACKS
100
AcDbCircle
 10
22.42803596101986
 20
40.31950779708475
 30
0.0
 40
52.62604266644636
100
AcDbArc
 50
271.0409723688026
 51
328.9593174317761
  0
ARC
  5
53
330
1F
100
AcDbEntity
  8
BACKS
100
AcDbCircle
 10
66.66130079741885
 20
13.69871586087929
 30
0.0
 40
0.9999999999998809
100
AcDbArc
 50
328.9593174317694
 51
59.99999999999888
  0
SPLINE
  5
54
330
1F
100
AcDbEntity
  8
STOOL
100
AcDbSpline
210
0.0
220
0.0
230
1.0
 70
     8
 71
     3
 72
    19
 73
    15
 74
     0
 42
0.0000000001
 43
0.0000000001
 40
0.0
 40
0.0
 40
0.0
 40
0.0
 40
0.1561093611282298
 40
0.3157928697490486
 40
0.627604659553301
 40
0.9402628561716042
 40
1.255153859548202
 40
1.255153859548202
 40
1.255153859548202
 40
1.410258957901403
 40
1.56706803564689
 40
1.880720996840292
 40
2.194012832606239
 40
2.510307389915804
 40
2.510307389915804
 40
2.510307389915804
 40
2.510307389915804
 10
102.2299022568981
 20
21.47397891532178
 30
0.0
 10
102.2818571958364
 20
21.47109936959298
 30
0.0
 10
102.3865207245135
 20
21.45723849037807
 30
0.0
 10
102.5878251364833
 20
21.39802302796488
 30
0.0
 10
102.8174636647129
 20
21.26662439422608
 30
0.0
 10
103.0306973487827
 20
21.03202413807028
 30
0.0
 10
103.1173137100228
 20
20.83868912398958
 30
0.0
 10
103.144446662191
 20
20.73729477114928
 30
0.0
 10
103.1578425949406
 20
20.68735399874828
 30
0.0
 10
103.1768182668686
 20
20.58481537044497
 30
0.0
 10
103.18229111906
 20
20.37569690975398
 30
0.0
 10
103.1267336713261
 20
20.11707157195468
 30
0.0
 10
102.9668697882751
 20
19.84183793907007
 30
0.0
 10
102.809020772997
 20
19.69971517931498
 30
0.0
 10
102.7207698657785
 20
19.64203659712697
 30
0.0
  0
SPLINE
  5
55
330
1F
100
AcDbEntity
  8
STOOL
100
AcDbSpline
210
0.0
220
0.0
230
1.0
 70
    12
 71
     2
 72
     8
 73
     5
 74
     0
 42
0.0000000001
 43
0.0000000001
 40
49.23389390239485
 40
49.23389390239485
 40
49.23389390239485
 40
50.26548245745767
 40
50.26548245745767
 40
51.29707231352092
 40
51.29707231352092
 40
51.29707231352092
 10
102.7207698657785
 20
19.64203659712697
 30
0.0
 41
0.9558596784096105
 10
102.6529666689951
 20
20.11299947667728
 30
0.0
 41
0.9759560415927198
 10
102.529815762193
 20
20.57260491785728
 30
0.0
 41
1.0
 10
102.4066646962516
 20
21.03221095295457
 30
0.0
 41
0.9759560112694567
 10
102.2299022568981
 20
21.47397891532178
 30
0.0
 41
0.9558596277201934
  0
SPLINE
  5
56
330
1F
100
AcDbEntity
  8
STOOL
100
AcDbSpline
210
0.0
220
0.0
230
1.0
 70
     8
 71
     3
 72
    19
 73
    15
 74
     0
 42
0.0000000001
 43
0.0000000001
 40
0.0
 40
0.0
 40
0.0
 40
0.0
 40
0.1561093611246072
 40
0.3157928697455568
 40
0.627604659549732
 40
0.9402628561680703
 40
1.25515385954463
 40
1.25515385954463
 40
1.25515385954463
 40
1.41025895789783
 40
1.567068035643328
 40
1.880720996836787
 40
2.194012832602663
 40
2.510307389908721
 40
2.510307389908721
 40
2.510307389908721
 40
2.510307389908721
 10
116.489095835184
 20
46.17143330471397
 30
0.0
 10
116.5410507605665
 20
46.16855351452328
 30
0.0
 10
116.6457142240186
 20
46.15469214281678
 30
0.0
 10
116.8470183573488
 20
46.09547573317248
 30
0.0
 10
117.0766562672833
 20
45.96407601887718
 30
0.0
 10
117.2898888474457
 20
45.72947475935868
 30
0.0
 10
117.3765042989519
 20
45.53613933770907
 30
0.0
 10
117.4036367740115
 20
45.43474485719668
 30
0.0
 10
117.4170324717667
 20
45.38480402176218
 30
0.0
 10
117.4360076612013
 20
45.28226530417048
 30
0.0
 10
117.4414795293912
 20
45.07314681772948
 30
0.0
 10
117.3859208647035
 20
44.81452174135718
 30
0.0
 10
117.2260556865502
 20
44.53928886071148
 30
0.0
 10
117.0682060025201
 20
44.39716684371288
 30
0.0
 10
116.9799548238988
 20
44.33948867678808
 30
0.0
  0
SPLINE
  5
57
330
1F
100
AcDbEntity
  8
STOOL
100
AcDbSpline
210
0.0
220
0.0
230
1.0
 70
    12
 71
     2
 72
     8
 73
     5
 74
     0
 42
0.0000000001
 43
0.0000000001
 40
-13.59795916940344
 40
-13.59795916940344
 40
-13.59795916940344
 40
-12.56637061436556
 40
-12.56637061436556
 40
-11.53478075830474
 40
-11.53478075830474
 40
-11.53478075830474
 10
116.9799548238988
 20
44.33948867678808
 30
0.0
 41
0.9558596784103374
 10
116.9121538432208
 20
44.81045187537057
 30
0.0
 41
0.9759560415931545
 10
116.7890050990845
 20
45.27005789602057
 30
0.0
 41
1.0
 10
116.6658561958086
 20
45.72966451059878
 30
0.0
 41
0.9759560112693659
 10
116.489095835184
 20
46.17143330471397
 30
0.0
 41
0.9558596277200414
  0
SPLINE
  5
58
330
1F
100
AcDbEntity
  8
STOOL
100
AcDbSpline
210
0.0
220
0.0
230
1.0
 70
     8
 71
     3
 72
    19
 73
    15
 74
     0
 42
0.0000000001
 43
0.0000000001
 40
0.0
 40
0.0
 40
0.0
 40
0.0
 40
0.1561093611264011
 40
0.3157928697473099
 40
0.627604659551459
 40
0.9402628561697259
 40
1.255153859546801
 40
1.255153859546801
 40
1.255153859546801
 40
1.410258957899439
 40
1.567068035644962
 40
1.880720996838377
 40
2.194012832604308
 40
2.510307389915753
 40
2.510307389915753
 40
2.510307389915753
 40
2.510307389915753
 10
112.0334801543003
 20
35.77203480707728
 30
0.0
 10
112.0306003641094
 20
35.72007988169418
 30
0.0
 10
112.0167389924038
 20
35.61541641824178
 30
0.0
 10
111.9575225827585
 20
35.41411228491077
 30
0.0
 10
111.8261228684637
 20
35.18447437497628
 30
0.0
 10
111.5915216089451
 20
34.97124179481408
 30
0.0
 10
111.3981861872953
 20
34.88462634330737
 30
0.0
 10
111.2967917067829
 20
34.85749386824777
 30
0.0
 10
111.2468508713486
 20
34.84409817049338
 30
0.0
 10
111.1443121537571
 20
34.82512298105848
 30
0.0
 10
110.9351936673163
 20
34.81965111286797
 30
0.0
 10
110.6765685909436
 20
34.87520977755578
 30
0.0
 10
110.4013357102962
 20
35.03507495570967
 30
0.0
 10
110.2592136932969
 20
35.19292463974128
 30
0.0
 10
110.2015355263716
 20
35.28117581836467
 30
0.0
  0
SPLINE
  5
59
330
1F
100
AcDbEntity
  8
STOOL
100
AcDbSpline
210
0.0
220
0.0
230
1.0
 70
    12
 71
     2
 72
     8
 73
     5
 74
     0
 42
0.0000000001
 43
0.0000000001
 40
-26.16432978377091
 40
-26.16432978377091
 40
-26.16432978377091
 40
-25.13274122872577
 40
-25.13274122872577
 40
-24.10115137267
 40
-24.10115137267
 40
-24.10115137267
 10
110.2015355263716
 20
35.28117581836467
 30
0.0
 41
0.9558596784101748
 10
110.6724987249578
 20
35.34897679904278
 30
0.0
 41
0.9759560415930518
 10
111.1321047456112
 20
35.47212554317977
 30
0.0
 41
1.0
 10
111.5917113601872
 20
35.59527444645439
 30
0.0
 41
0.9759560112694177
 10
112.0334801543003
 20
35.77203480707728
 30
0.0
 41
0.9558596277201188
  0
POLYLINE
  5
5B
330
1F
100
AcDbEntity
  8
FRAME
100
AcDb2dPolyline
 66
     1
 10
0.0
 20
0.0
 30
0.0
  0
VERTEX
  5
5C
330
5B
100
AcDbEntity
  8
FRAME
100
AcDbVertex
100
AcDb2dVertex
 10
33.85640437837495
 20
-4.110361379987696
 30
0.0
  0
VERTEX
  5
5D
330
5B
100
AcDbEntity
  8
FRAME
100
AcDbVertex
100
AcDb2dVertex
 10
33.85640383185167
 20
-3.081561812335138
 30
0.0
  0
SEQEND
  5
5E
330
5B
100
AcDbEntity
  8
FRAME
  0
SPLINE
  5
5F
330
1F
100
AcDbEntity
  8
FRAME
100
AcDbSpline
210
0.0
220
0.0
230
1.0
 70
    12
 71
     2
 72
     6
 73
     3
 74
     0
 42
0.0000000001
 43
0.0000000001
 40
-258.2873964838304
 40
-258.2873964838304
 40
-258.2873964838304
 40
-257.5152774109893
 40
-257.5152774109893
 40
-257.5152774109893
 10
33.85640383185168
 20
-3.081561812335158
 30
0.0
 41
0.955067298243294
 10
33.48216493058877
 20
-3.180104165057368
 30
0.0
 41
0.9561709074550575
 10
33.10634363573267
 20
-3.272428430838811
 30
0.0
 41
0.9573469678003029
  0
POLYLINE
  5
60
330
1F
100
AcDbEntity
  8
FRAME
100
AcDb2dPolyline
 66
     1
 10
0.0
 20
0.0
 30
0.0
  0
VERTEX
  5
61
330
60
100
AcDbEntity
  8
FRAME
100
AcDbVertex
100
AcDb2dVertex
 10
33.10634363573267
 20
-3.272428430838811
 30
0.0
  0
VERTEX
  5
62
330
60
100
AcDbEntity
  8
FRAME
100
AcDbVertex
100
AcDb2dVertex
 10
33.10640437837496
 20
-4.296558005693043
 30
0.0
  0
SEQEND
  5
63
330
60
100
AcDbEntity
  8
FRAME
  0
SPLINE
  5
64
330
1F
100
AcDbEntity
  8
FRAME
100
AcDbSpline
210
0.0
220
0.0
230
1.0
 70
    12
 71
     2
 72
     6
 73
     3
 74
     0
 42
0.0000000001
 43
0.0000000001
 40
-97.24910653952114
 40
-97.24910653952114
 40
-97.24910653952114
 40
-96.477677419415
 40
-96.477677419415
 40
-96.477677419415
 10
33.10640437837496
 20
-4.296558005693043
 30
0.0
 41
0.9577430987429659
 10
33.48218851001058
 20
-4.206618175033397
 30
0.0
 41
0.9565720236233404
 10
33.85640437837495
 20
-4.110361379987696
 30
0.0
 41
0.9554701571652199
  0
SPLINE
  5
65
330
1F
100
AcDbEntity
  8
STOOL
100
AcDbSpline
210
0.0
220
0.0
230
1.0
 70
    12
 71
     2
 72
     8
 73
     5
 74
     0
 42
0.0000000001
 43
0.0000000001
 40
-38.73070039812908
 40
-38.73070039812908
 40
-38.73070039812908
 40
-37.699111843085
 40
-37.699111843085
 40
-36.66752198700539
 40
-36.66752198700539
 40
-36.66752198700539
 10
101.1432226679466
 20
42.05959511588487
 30
0.0
 41
0.9558596784103394
 10
101.2110236486247
 20
41.58863191730237
 30
0.0
 41
0.9759560415931559
 10
101.334172392761
 20
41.12902589665248
 30
0.0
 41
1.0
 10
101.4573212960383
 20
40.66941928206857
 30
0.0
 41
0.9759560112690748
 10
101.6340816566658
 20
40.22765048794818
 30
0.0
 41
0.9558596277195549
  0
SPLINE
  5
66
330
1F
100
AcDbEntity
  8
STOOL
100
AcDbSpline
210
0.0
220
0.0
230
1.0
 70
     8
 71
     3
 72
    19
 73
    15
 74
     0
 42
0.0000000001
 43
0.0000000001
 40
0.0
 40
0.0
 40
0.0
 40
0.0
 40
0.1561093611221069
 40
0.3157928697430524
 40
0.6276046595473017
 40
0.9402628561655334
 40
1.255153859544631
 40
1.255153859544631
 40
1.255153859544631
 40
1.410258957897563
 40
1.567068035643024
 40
1.880720996836426
 40
2.194012832602407
 40
2.510307389908646
 40
2.510307389908646
 40
2.510307389908646
 40
2.510307389908646
 10
101.6340816566658
 20
40.22765048794818
 30
0.0
 10
101.5821267312801
 20
40.23053027814977
 30
0.0
 10
101.4774632678282
 20
40.24439164985577
 30
0.0
 10
101.2761591344996
 20
40.30360805949978
 30
0.0
 10
101.046521224564
 20
40.43500777379438
 30
0.0
 10
100.8332886444011
 20
40.66960903331308
 30
0.0
 10
100.746673192894
 20
40.86294445496338
 30
0.0
 10
100.719540717834
 20
40.96433893547638
 30
0.0
 10
100.7061450200794
 20
41.01427977091097
 30
0.0
 10
100.6871698306445
 20
41.11681848850247
 30
0.0
 10
100.6816979624539
 20
41.32593697494347
 30
0.0
 10
100.737256627142
 20
41.58456205131588
 30
0.0
 10
100.8971218052952
 20
41.85979493196147
 30
0.0
 10
101.0549714893251
 20
42.00191694896017
 30
0.0
 10
101.1432226679466
 20
42.05959511588487
 30
0.0
  0
POLYLINE
  5
67
330
1F
100
AcDbEntity
  8
FRAME
100
AcDb2dPolyline
 66
     1
 10
0.0
 20
0.0
 30
0.0
  0
VERTEX
  5
68
330
67
100
AcDbEntity
  8
FRAME
100
AcDbVertex
100
AcDb2dVertex
 10
55.72766002631396
 20
8.763938784478313
 30
0.0
  0
VERTEX
  5
69
330
67
100
AcDbEntity
  8
FRAME
100
AcDbVertex
100
AcDb2dVertex
 10
54.84081095059166
 20
9.276042127606228
 30
0.0
  0
SEQEND
  5
6A
330
67
100
AcDbEntity
  8
FRAME
  0
SPLINE
  5
6B
330
1F
100
AcDbEntity
  8
FRAME
100
AcDbSpline
210
0.0
220
0.0
230
1.0
 70
    12
 71
     2
 72
     6
 73
     3
 74
     0
 42
0.0000000001
 43
0.0000000001
 40
-282.5820763502118
 40
-282.5820763502118
 40
-282.5820763502118
 40
-281.8099486892444
 40
-281.8099486892444
 40
-281.8099486892444
 10
54.84081095059167
 20
9.27604212760623
 30
0.0
 41
0.9573469992997351
 10
54.57293115016536
 20
8.996740921570412
 30
0.0
 41
0.9561709249031344
 10
54.30046861531818
 20
8.721908529426566
 30
0.0
 41
0.9550673032517435
  0
POLYLINE
  5
6C
330
1F
100
AcDbEntity
  8
FRAME
100
AcDb2dPolyline
 66
     1
 10
0.0
 20
0.0
 30
0.0
  0
VERTEX
  5
6D
330
6C
100
AcDbEntity
  8
FRAME
100
AcDbVertex
100
AcDb2dVertex
 10
54.30046861531828
 20
8.721908529426585
 30
0.0
  0
VERTEX
  5
6E
330
6C
100
AcDbEntity
  8
FRAME
100
AcDbVertex
100
AcDb2dVertex
 10
55.19143584441038
 20
8.207508359871062
 30
0.0
  0
SEQEND
  5
6F
330
6C
100
AcDbEntity
  8
FRAME
  0
SPLINE
  5
70
330
1F
100
AcDbEntity
  8
FRAME
100
AcDbSpline
210
0.0
220
0.0
230
1.0
 70
    12
 71
     2
 72
     6
 73
     3
 74
     0
 42
0.0000000001
 43
0.0000000001
 40
-71.9139208777536
 40
-71.9139208777536
 40
-71.9139208777536
 40
-71.14250317885144
 40
-71.14250317885144
 40
-71.14250317885144
 10
55.19143584441037
 20
8.20750835987106
 30
0.0
 41
0.9554701970903269
 10
55.46189897546278
 20
8.483457907444768
 30
0.0
 41
0.9565720484888712
 10
55.72766002631395
 20
8.763938784478311
 30
0.0
 41
0.9577431064996322
  0
SPLINE
  5
71
330
1F
100
AcDbEntity
  8
STOOL
100
AcDbSpline
210
0.0
220
0.0
230
1.0
 70
    12
 71
     2
 72
     8
 73
     5
 74
     0
 42
0.0000000001
 43
0.0000000001
 40
36.66752328802919
 40
36.66752328802919
 40
36.66752328802919
 40
37.69911184309119
 40
37.69911184309119
 40
38.73070169912808
 40
38.73070169912808
 40
38.73070169912808
 10
95.94239319197776
 20
10.58369184313343
 30
0.0
 41
0.9558596784095185
 10
96.41335607153097
 20
10.65149503991638
 30
0.0
 41
0.9759560415926591
 10
96.87296151271367
 20
10.77464594671851
 30
0.0
 41
1.0
 10
97.33256754780176
 20
10.89779701265712
 30
0.0
 41
0.9759560112698572
 10
97.77433551016054
 20
11.07455945200607
 30
0.0
 41
0.9558596277208534
  0
SPLINE
  5
72
330
1F
100
AcDbEntity
  8
STOOL
100
AcDbSpline
210
0.0
220
0.0
230
1.0
 70
     8
 71
     3
 72
    19
 73
    15
 74
     0
 42
0.0000000001
 43
0.0000000001
 40
0.0
 40
0.0
 40
0.0
 40
0.0
 40
0.1561093611231617
 40
0.3157928697440722
 40
0.627604659548152
 40
0.9402628561664632
 40
1.255153859543034
 40
1.255153859543034
 40
1.255153859543034
 40
1.410258957896461
 40
1.567068035641809
 40
1.880720996835249
 40
2.194012832601197
 40
2.510307389908618
 40
2.510307389908618
 40
2.510307389908618
 40
2.510307389908618
 10
97.77433551016055
 20
11.07455945200607
 30
0.0
 10
97.77145596444207
 20
11.0226045130739
 30
0.0
 10
97.75759508522778
 20
10.91794098439927
 30
0.0
 10
97.69837962281427
 20
10.71663657243079
 30
0.0
 10
97.56698098907636
 20
10.4869980442009
 30
0.0
 10
97.33238073292056
 20
10.27376436013135
 30
0.0
 10
97.13904571883937
 20
10.18714799889101
 30
0.0
 10
97.03765136599928
 20
10.16001504672261
 30
0.0
 10
96.98771059359838
 20
10.14661911397297
 30
0.0
 10
96.88517196529487
 20
10.12764344204504
 30
0.0
 10
96.67605350460427
 20
10.12217058985348
 30
0.0
 10
96.41742816680456
 20
10.17772803758723
 30
0.0
 10
96.14219453392046
 20
10.33759192063836
 30
0.0
 10
96.00007177416556
 20
10.49544093591533
 30
0.0
 10
95.94239319197774
 20
10.58369184313343
 30
0.0
  0
SPLINE
  5
73
330
1F
100
AcDbEntity
  8
STOOL
100
AcDbSpline
210
0.0
220
0.0
230
1.0
 70
     8
 71
     3
 72
    19
 73
    15
 74
     0
 42
0.0000000001
 43
0.0000000001
 40
0.0
 40
0.0
 40
0.0
 40
0.0
 40
0.1561093611235243
 40
0.3157928697444731
 40
0.6276046595485681
 40
0.9402628561669398
 40
1.255153859543177
 40
1.255153859543177
 40
1.255153859543177
 40
1.410258957896743
 40
1.567068035642263
 40
1.880720996835711
 40
2.194012832601628
 40
2.510307389908583
 40
2.510307389908583
 40
2.510307389908583
 40
2.510307389908583
 10
91.83048279360308
 20
25.92954566205738
 30
0.0
 10
91.83336233932106
 20
25.98150060098968
 30
0.0
 10
91.84722321853586
 20
26.08616412966478
 30
0.0
 10
91.90643868094908
 20
26.28746854163317
 30
0.0
 10
92.03783731468796
 20
26.51710706986327
 30
0.0
 10
92.27243757084356
 20
26.73034075393258
 30
0.0
 10
92.46577258492418
 20
26.81695711517268
 30
0.0
 10
92.56716693776436
 20
26.84409006734097
 30
0.0
 10
92.61710771016557
 20
26.85748600009067
 30
0.0
 10
92.71964633846908
 20
26.87646167201848
 30
0.0
 10
92.92876479916028
 20
26.88193452421008
 30
0.0
 10
93.18739013695948
 20
26.82637707647588
 30
0.0
 10
93.46262376984326
 20
26.66651319342508
 30
0.0
 10
93.60474652959748
 20
26.50866417814768
 30
0.0
 10
93.66242511178557
 20
26.42041327092998
 30
0.0
  0
SPLINE
  5
74
330
1F
100
AcDbEntity
  8
STOOL
100
AcDbSpline
210
0.0
220
0.0
230
1.0
 70
    12
 71
     2
 72
     8
 73
     5
 74
     0
 42
0.0000000001
 43
0.0000000001
 40
61.80026451675533
 40
61.80026451675533
 40
61.80026451675533
 40
62.83185307181687
 40
62.83185307181687
 40
63.86344292785385
 40
63.86344292785385
 40
63.86344292785385
 10
93.66242511178557
 20
26.42041327092999
 30
0.0
 41
0.9558596784095361
 10
93.19146223223257
 20
26.35261007414708
 30
0.0
 41
0.9759560415926697
 10
92.73185679105008
 20
26.22945916734498
 30
0.0
 41
1.0
 10
92.27225075596188
 20
26.10630810140638
 30
0.0
 41
0.9759560112698554
 10
91.83048279360308
 20
25.92954566205738
 30
0.0
 41
0.9558596277208504
  0
SPLINE
  5
75
330
1F
100
AcDbEntity
  8
BACKS
100
AcDbSpline
210
0.0
220
0.0
230
1.0
 70
    24
 71
     2
 72
     6
 73
     3
 74
     0
 42
0.0000000001
 43
0.0000000001
 40
0.2468935584247509
 40
0.2468935584247509
 40
0.2468935584247509
 40
4.996893558424962
 40
4.996893558424962
 40
4.996893558424962
 10
63.04839835817846
 20
16.93932659510972
 30
0.0
 10
65.10520869216656
 20
15.75182659510968
 30
0.0
 10
67.16201902615477
 20
14.56432659510962
 30
0.0
  0
ARC
  5
76
330
1F
100
AcDbEntity
  8
BACKS
100
AcDbCircle
 10
67.66201902615477
 20
15.43035199889405
 30
0.0
 40
1.0
100
AcDbArc
 50
240.0
 51
330.0000000000106
  0
SPLINE
  5
77
330
1F
100
AcDbEntity
  8
BACKS
100
AcDbSpline
210
0.0
220
0.0
230
1.0
 70
    24
 71
     2
 72
     6
 73
     3
 74
     0
 42
0.0000000001
 43
0.0000000001
 40
-60.98959792120331
 40
-60.98959792120331
 40
-60.98959792120331
 40
0.0
 40
0.0
 40
0.0
 10
68.5280444299393
 20
14.93035199889421
 30
0.0
 10
83.77544391024016
 20
41.33962258207448
 30
0.0
 10
99.0228433905411
 20
67.74889316525471
 30
0.0
  0
ARC
  5
78
330
1F
100
AcDbEntity
  8
BACKS
100
AcDbCircle
 10
98.15681798675728
 20
68.24889316525577
 30
0.0
 40
1.0
100
AcDbArc
 50
329.9999999999301
 51
60.00000000000169
  0
SPLINE
  5
79
330
1F
100
AcDbEntity
  8
BACKS
100
AcDbSpline
210
0.0
220
0.0
230
1.0
 70
    24
 71
     2
 72
     6
 73
     3
 74
     0
 42
0.0000000001
 43
0.0000000001
 40
-4.999999999999968
 40
-4.999999999999968
 40
-4.999999999999968
 40
-0.2500000000000193
 40
-0.2500000000000193
 40
-0.2500000000000193
 10
98.65681798675725
 20
69.11491856904021
 30
0.0
 10
96.60000765276918
 20
70.30241856904027
 30
0.0
 10
94.54319731878125
 20
71.48991856904036
 30
0.0
  0
ARC
  5
7A
330
1F
100
AcDbEntity
  8
BACKS
100
AcDbCircle
 10
94.04319731878117
 20
70.62389316525596
 30
0.0
 40
1.0
100
AcDbArc
 50
59.99999999999441
 51
150.0000000000003
  0
SPLINE
  5
7B
330
1F
100
AcDbEntity
  8
BACKS
100
AcDbSpline
210
0.0
220
0.0
230
1.0
 70
    24
 71
     2
 72
     6
 73
     3
 74
     0
 42
0.0000000001
 43
0.0000000001
 40
-61.00000030076362
 40
-61.00000030076362
 40
-61.00000030076362
 40
-0.0104023795593044
 40
-0.0104023795593044
 40
-0.0104023795593044
 10
93.17717191499672
 20
71.12389316525596
 30
0.0
 10
77.92977243469518
 20
44.71462258207448
 30
0.0
 10
62.68237295439415
 20
18.30535199889372
 30
0.0
  0
ARC
  5
7C
330
1F
100
AcDbEntity
  8
BACKS
100
AcDbCircle
 10
63.54839835817828
 20
17.80535199889387
 30
0.0
 40
0.9999999999996628
100
AcDbArc
 50
149.9999999999987
 51
240.0000000000005
  0
POLYLINE
  5
7D
330
1F
100
AcDbEntity
  8
FRAME
100
AcDb2dPolyline
 66
     1
 10
0.0
 20
0.0
 30
0.0
  0
VERTEX
  5
7E
330
7D
100
AcDbEntity
  8
FRAME
100
AcDbVertex
100
AcDb2dVertex
 10
-57.8500633880637
 20
-9.263628642591115
 30
0.0
  0
VERTEX
  5
7F
330
7D
100
AcDbEntity
  8
FRAME
100
AcDbVertex
100
AcDb2dVertex
 10
-57.35020801717283
 20
-10.12941394693249
 30
0.0
  0
SEQEND
  5
80
330
7D
100
AcDbEntity
  8
FRAME
  0
SPLINE
  5
81
330
1F
100
AcDbEntity
  8
FRAME
100
AcDbSpline
210
0.0
220
0.0
230
1.0
 70
    12
 71
     2
 72
     6
 73
     3
 74
     0
 42
0.0000000001
 43
0.0000000001
 40
22.23507720299898
 40
22.23507720299898
 40
22.23507720299898
 40
23.08591702916131
 40
23.08591702916131
 40
23.08591702916131
 10
-57.35020801717283
 20
-10.12941394693249
 30
0.0
 41
1.120703366789569
 10
-57.01164634035527
 20
-9.928430506500728
 30
0.0
 41
1.125660878836837
 10
-56.66835901529907
 20
-9.73562966419689
 30
0.0
 41
1.130803149323109
  0
POLYLINE
  5
82
330
1F
100
AcDbEntity
  8
FRAME
100
AcDb2dPolyline
 66
     1
 10
0.0
 20
0.0
 30
0.0
  0
VERTEX
  5
83
330
82
100
AcDbEntity
  8
FRAME
100
AcDbVertex
100
AcDb2dVertex
 10
-56.66835901529907
 20
-9.735629664196892
 30
0.0
  0
VERTEX
  5
84
330
82
100
AcDbEntity
  8
FRAME
100
AcDbVertex
100
AcDb2dVertex
 10
-57.16821734288236
 20
-8.869849644236199
 30
0.0
  0
SEQEND
  5
85
330
82
100
AcDbEntity
  8
FRAME
  0
SPLINE
  5
86
330
1F
100
AcDbEntity
  8
FRAME
100
AcDbSpline
210
0.0
220
0.0
230
1.0
 70
    12
 71
     2
 72
     6
 73
     3
 74
     0
 42
0.0000000001
 43
0.0000000001
 40
-35.73796198862738
 40
-35.73796198862738
 40
-35.73796198862738
 40
-34.89597713808212
 40
-34.89597713808212
 40
-34.89597713808212
 10
-57.16821734288236
 20
-8.869849644236199
 30
0.0
 41
1.122311959911555
 10
-57.51143326977596
 20
-9.062768876493754
 30
0.0
 41
1.117572076835079
 10
-57.8500633880637
 20
-9.263628642591115
 30
0.0
 41
1.113003137866845
  0
ARC
  5
87
330
1F
100
AcDbEntity
  8
SEATS
100
AcDbCircle
 10
-84.97103117217796
 20
-11.60712789910829
 30
0.0
 40
1.000000000000003
100
AcDbArc
 50
148.9288941039401
 51
239.9999999999992
  0
POLYLINE
  5
88
330
1F
100
AcDbEntity
  8
SEATS
100
AcDb2dPolyline
 66
     1
 10
0.0
 20
0.0
 30
0.0
  0
VERTEX
  5
89
330
88
100
AcDbEntity
  8
SEATS
100
AcDbVertex
100
AcDb2dVertex
 10
-85.47103117217797
 20
-12.47315330289273
 30
0.0
  0
VERTEX
  5
8A
330
88
100
AcDbEntity
  8
SEATS
100
AcDbVertex
100
AcDb2dVertex
 10
-70.75148356221868
 20
-20.97148807785225
 30
0.0
  0
SEQEND
  5
8B
330
88
100
AcDbEntity
  8
SEATS
  0
ARC
  5
8C
330
1F
100
AcDbEntity
  8
SEATS
100
AcDbCircle
 10
-70.25148356221868
 20
-20.10546267406781
 30
0.0
 40
1.0
100
AcDbArc
 50
240.0
 51
328.4059033523052
  0
SPLINE
  5
8D
330
1F
100
AcDbEntity
  8
SEATS
100
AcDbSpline
210
0.0
220
0.0
230
1.0
 70
    12
 71
     2
 72
     8
 73
     5
 74
     0
 42
0.0000000001
 43
0.0000000001
 40
-232.8289113150089
 40
-232.8289113150089
 40
-232.8289113150089
 40
-212.4238908702094
 40
-212.4238908702094
 40
-198.5268125450736
 40
-198.5268125450736
 40
-198.5268125450736
 10
-69.399702644791
 20
-20.62936082133126
 30
0.0
 41
0.8614042188772854
 10
-63.97720045025555
 20
-11.8131740908737
 30
0.0
 41
0.8874610178064528
 10
-54.5485433256542
 20
-7.543618687469078
 30
0.0
 41
1.0
 10
-48.37666492359769
 20
-4.748822309530938
 30
0.0
 41
0.9233540071961365
 10
-41.60446840439136
 20
-4.548013671378763
 30
0.0
 41
0.8868223484604271
  0
ARC
  5
8E
330
1F
100
AcDbEntity
  8
SEATS
100
AcDbCircle
 10
-41.63410729874691
 20
-3.548452999912854
 30
0.0
 40
1.0
100
AcDbArc
 50
271.6984322865478
 51
359.9999999999852
  0
POLYLINE
  5
8F
330
1F
100
AcDbEntity
  8
SEATS
100
AcDb2dPolyline
 66
     1
 10
0.0
 20
0.0
 30
0.0
  0
VERTEX
  5
90
330
8F
100
AcDbEntity
  8
SEATS
100
AcDbVertex
100
AcDb2dVertex
 10
-40.63410729874691
 20
-3.548452999913111
 30
0.0
  0
VERTEX
  5
91
330
8F
100
AcDbEntity
  8
SEATS
100
AcDbVertex
100
AcDb2dVertex
 10
-40.63410729874688
 20
13.44881417421868
 30
0.0
  0
SEQEND
  5
92
330
8F
100
AcDbEntity
  8
SEATS
  0
ARC
  5
93
330
1F
100
AcDbEntity
  8
SEATS
100
AcDbCircle
 10
-41.63410729874688
 20
13.4488141742202
 30
0.0
 40
1.0
100
AcDbArc
 50
359.9999999999129
 51
91.14120020985618
  0
ARC
  5
94
330
1F
100
AcDbEntity
  8
SEATS
100
AcDbCircle
 10
-40.60242740889562
 20
-38.34147297791749
 30
0.0
 40
52.80056183764807
100
AcDbArc
 50
91.14120020985578
 51
148.9288941039413
  0
ARC
  5
95
330
1F
100
AcDbEntity
  8
BACKS
100
AcDbCircle
 10
-63.53793612738598
 20
-23.98153109278579
 30
0.0
 40
1.000000000000003
100
AcDbArc
 50
240.0000000000001
 51
327.9492819202014
  0
ARC
  5
96
330
1F
100
AcDbEntity
  8
BACKS
100
AcDbCircle
 10
-40.60242740889626
 20
-38.34147297791912
 30
0.0
 40
26.06003494307232
100
AcDbArc
 50
92.18496514185703
 51
147.9492819202001
  0
ARC
  5
97
330
1F
100
AcDbEntity
  8
BACKS
100
AcDbCircle
 10
-41.63410729874667
 20
-11.3011118907376
 30
0.0
 40
0.9999999999997726
100
AcDbArc
 50
272.1849651418406
 51
359.9999999999995
  0
POLYLINE
  5
98
330
1F
100
AcDbEntity
  8
BACKS
100
AcDb2dPolyline
 66
     1
 10
0.0
 20
0.0
 30
0.0
  0
VERTEX
  5
99
330
98
100
AcDbEntity
  8
BACKS
100
AcDbVertex
100
AcDb2dVertex
 10
-40.6341072987469
 20
-11.30111189073761
 30
0.0
  0
VERTEX
  5
9A
330
98
100
AcDbEntity
  8
BACKS
100
AcDbVertex
100
AcDb2dVertex
 10
-40.63410729874691
 20
-6.549544147173847
 30
0.0
  0
SEQEND
  5
9B
330
98
100
AcDbEntity
  8
BACKS
  0
ARC
  5
9C
330
1F
100
AcDbEntity
  8
BACKS
100
AcDbCircle
 10
-41.63410729874691
 20
-6.549544147173748
 30
0.0
 40
1.0
100
AcDbArc
 50
359.9999999999943
 51
91.85865310835611
  0
SPLINE
  5
9D
330
1F
100
AcDbEntity
  8
BACKS
100
AcDbSpline
210
0.0
220
0.0
230
1.0
 70
    12
 71
     2
 72
     8
 73
     5
 74
     0
 42
0.0000000001
 43
0.0000000001
 40
191.8253680556103
 40
191.8253680556103
 40
191.8253680556103
 40
206.1429152679976
 40
206.1429152679976
 40
224.9633230371153
 40
224.9633230371153
 40
224.9633230371153
 10
-41.66654122591622
 20
-5.550070265389748
 30
0.0
 41
0.8824706747999761
 10
-48.67891465181955
 20
-5.777628797058131
 30
0.0
 41
0.918629025244979
 10
-54.98490118454191
 20
-8.853290969465192
 30
0.0
 41
1.0
 10
-63.5116548583836
 20
-13.0121031699007
 30
0.0
 41
0.8930378993871855
 10
-68.50301426792649
 20
-21.0797904703376
 30
0.0
 41
0.8641990889881517
  0
ARC
  5
9E
330
1F
100
AcDbEntity
  8
BACKS
100
AcDbCircle
 10
-67.6526112492904
 20
-21.60592230352641
 30
0.0
 40
1.0
100
AcDbArc
 50
148.2555309981677
 51
239.9999999999943
  0
POLYLINE
  5
9F
330
1F
100
AcDbEntity
  8
BACKS
100
AcDb2dPolyline
 66
     1
 10
0.0
 20
0.0
 30
0.0
  0
VERTEX
  5
A0
330
9F
100
AcDbEntity
  8
BACKS
100
AcDbVertex
100
AcDb2dVertex
 10
-68.15261124929049
 20
-22.47194770731079
 30
0.0
  0
VERTEX
  5
A1
330
9F
100
AcDbEntity
  8
BACKS
100
AcDbVertex
100
AcDb2dVertex
 10
-64.03793612738598
 20
-24.84755649657023
 30
0.0
  0
SEQEND
  5
A2
330
9F
100
AcDbEntity
  8
BACKS
  0
POLYLINE
  5
A3
330
1F
100
AcDbEntity
  8
FRAME
100
AcDb2dPolyline
 66
     1
 10
0.0
 20
0.0
 30
0.0
  0
VERTEX
  5
A4
330
A3
100
AcDbEntity
  8
FRAME
100
AcDbVertex
100
AcDb2dVertex
 10
-73.5123545490179
 20
-29.75972044872074
 30
0.0
  0
VERTEX
  5
A5
330
A3
100
AcDbEntity
  8
FRAME
100
AcDbVertex
100
AcDb2dVertex
 10
-74.37842646402086
 20
-29.25969359545622
 30
0.0
  0
SEQEND
  5
A6
330
A3
100
AcDbEntity
  8
FRAME
  0
SPLINE
  5
A7
330
1F
100
AcDbEntity
  8
FRAME
100
AcDbSpline
210
0.0
220
0.0
230
1.0
 70
    28
 71
     2
 72
     6
 73
     3
 74
     0
 42
0.0000000001
 43
0.0000000001
 40
90.76687602067899
 40
90.76687602067899
 40
90.76687602067899
 40
91.55427759548179
 40
91.55427759548179
 40
91.55427759548179
 10
-74.37842646402086
 20
-29.25969359545622
 30
0.0
 41
1.0
 10
-74.57527685772155
 20
-29.60064847883578
 30
0.0
 41
1.0
 10
-74.77212725142226
 20
-29.94160336221533
 30
0.0
 41
1.0
  0
POLYLINE
  5
A8
330
1F
100
AcDbEntity
  8
FRAME
100
AcDb2dPolyline
 66
     1
 10
0.0
 20
0.0
 30
0.0
  0
VERTEX
  5
A9
330
A8
100
AcDbEntity
  8
FRAME
100
AcDbVertex
100
AcDb2dVertex
 10
-74.77212725142226
 20
-29.94160336221533
 30
0.0
  0
VERTEX
  5
AA
330
A8
100
AcDbEntity
  8
FRAME
100
AcDbVertex
100
AcDb2dVertex
 10
-73.90605533641931
 20
-30.44163021547985
 30
0.0
  0
SEQEND
  5
AB
330
A8
100
AcDbEntity
  8
FRAME
  0
SPLINE
  5
AC
330
1F
100
AcDbEntity
  8
FRAME
100
AcDbSpline
210
0.0
220
0.0
230
1.0
 70
    28
 71
     3
 72
     8
 73
     4
 74
     0
 42
0.0000000001
 43
0.0000000001
 40
122.8868448896433
 40
122.8868448896433
 40
122.8868448896433
 40
122.8868448896433
 40
123.6742464644461
 40
123.6742464644461
 40
123.6742464644461
 40
123.6742464644461
 10
-73.9060553364193
 20
-30.44163021547985
 30
0.0
 41
0.9999999998981712
 10
-73.77482174061885
 20
-30.21432695989347
 30
0.0
 41
0.9999999998981712
 10
-73.64358814481838
 20
-29.98702370430711
 30
0.0
 41
0.9999999998981712
 10
-73.5123545490179
 20
-29.75972044872074
 30
0.0
 41
0.9999999998981712
  0
LINE
  5
AD
330
1F
100
AcDbEntity
  8
BACKS
100
AcDbLine
 10
-40.63410716287294
 20
-6.058158068759795
 30
0.0
 11
-40.63410716287294
 21
-10.8081580687596
 31
0.0
  0
ARC
  5
AE
330
1F
100
AcDbEntity
  8
BACKS
100
AcDbCircle
 10
-39.63410716287294
 20
-10.8081580687596
 30
0.0
 40
1.0
100
AcDbArc
 50
180.0
 51
270.0015307937015
  0
SPLINE
  5
AF
330
1F
100
AcDbEntity
  8
BACKS
100
AcDbSpline
210
0.0
220
0.0
230
1.0
 70
     8
 71
     2
 72
     6
 73
     3
 74
     0
 42
0.0000000001
 43
0.0000000001
 40
-61.00000030076379
 40
-61.00000030076379
 40
-61.00000030076379
 40
0.0
 40
0.0
 40
0.0
 10
-39.63408044548268
 20
-11.80815806840269
 30
0.0
 10
-9.13408029510073
 20
-11.80815806875944
 30
0.0
 10
21.36591985528118
 20
-11.80815806875944
 30
0.0
  0
ARC
  5
B0
330
1F
100
AcDbEntity
  8
BACKS
100
AcDbCircle
 10
21.36591985528118
 20
-10.80815806875944
 30
0.0
 40
1.0
100
AcDbArc
 50
270.0
 51
359.9999999999821
  0
POLYLINE
  5
B1
330
1F
100
AcDbEntity
  8
BACKS
100
AcDb2dPolyline
 66
     1
 10
0.0
 20
0.0
 30
0.0
  0
VERTEX
  5
B2
330
B1
100
AcDbEntity
  8
BACKS
100
AcDbVertex
100
AcDb2dVertex
 10
22.36591985528118
 20
-10.80815806875975
 30
0.0
  0
VERTEX
  5
B3
330
B1
100
AcDbEntity
  8
BACKS
100
AcDbVertex
100
AcDb2dVertex
 10
22.36591985528166
 20
-6.058158068759653
 30
0.0
  0
SEQEND
  5
B4
330
B1
100
AcDbEntity
  8
BACKS
  0
ARC
  5
B5
330
1F
100
AcDbEntity
  8
BACKS
100
AcDbCircle
 10
21.36591985528166
 20
-6.05815806875944
 30
0.0
 40
1.0
100
AcDbArc
 50
359.9999999999878
 51
90.0
  0
SPLINE
  5
B6
330
1F
100
AcDbEntity
  8
BACKS
100
AcDbSpline
210
0.0
220
0.0
230
1.0
 70
    24
 71
     2
 72
     6
 73
     3
 74
     0
 42
0.0000000001
 43
0.0000000001
 40
-61.00000030076374
 40
-61.00000030076374
 40
-61.00000030076374
 40
0.0
 40
0.0
 40
0.0
 10
21.36591985528166
 20
-5.05815806875944
 30
0.0
 10
-9.134080295100233
 20
-5.05815806875944
 30
0.0
 10
-39.63408044548206
 20
-5.05815806875944
 30
0.0
  0
ARC
  5
B7
330
1F
100
AcDbEntity
  8
BACKS
100
AcDbCircle
 10
-39.63410716287294
 20
-6.058158068759797
 30
0.0
 40
1.000000000000002
100
AcDbArc
 50
89.99846920626355
 51
179.9999999999999
  0
LINE
  5
B8
330
1F
100
AcDbEntity
  8
SEATS
100
AcDbLine
 10
22.36594670854596
 20
13.43007509641743
 30
0.0
 11
22.36594670854596
 21
-3.569978910875932
 31
0.0
  0
ARC
  5
B9
330
1F
100
AcDbEntity
  8
SEATS
100
AcDbCircle
 10
21.36594670854596
 20
-3.569978910875761
 30
0.0
 40
1.0
100
AcDbArc
 50
270.0
 51
359.9999999999902
  0
SPLINE
  5
BA
330
1F
100
AcDbEntity
  8
SEATS
100
AcDbSpline
210
0.0
220
0.0
230
1.0
 70
    24
 71
     2
 72
     6
 73
     3
 74
     0
 42
0.0000000001
 43
0.0000000001
 40
0.0
 40
0.0
 40
0.0
 40
61.0000540072929
 40
61.0000540072929
 40
61.0000540072929
 10
21.36594670854596
 20
-4.569978910875761
 30
0.0
 10
-9.134080295100532
 20
-4.569978910875761
 30
0.0
 10
-39.63410729874694
 20
-4.569978910875761
 30
0.0
  0
ARC
  5
BB
330
1F
100
AcDbEntity
  8
SEATS
100
AcDbCircle
 10
-39.63410729874694
 20
-3.569978910875761
 30
0.0
 40
1.0
100
AcDbArc
 50
180.0000000000073
 51
270.0
  0
LINE
  5
BC
330
1F
100
AcDbEntity
  8
SEATS
100
AcDbLine
 10
-40.63410729874694
 20
-3.569978910875889
 30
0.0
 11
-40.6341072987469
 21
13.43007509641751
 31
0.0
  0
ARC
  5
BD
330
1F
100
AcDbEntity
  8
SEATS
100
AcDbCircle
 10
-39.6341072987469
 20
13.43007509641751
 30
0.0
 40
1.0
100
AcDbArc
 50
90.00000000000163
 51
180.0
  0
SPLINE
  5
BE
330
1F
100
AcDbEntity
  8
SEATS
100
AcDbSpline
210
0.0
220
0.0
230
1.0
 70
    24
 71
     2
 72
     6
 73
     3
 74
     0
 42
0.0000000001
 43
0.0000000001
 40
0.0
 40
0.0
 40
0.0
 40
61.00005400729289
 40
61.00005400729289
 40
61.00005400729289
 10
-39.63410729874693
 20
14.43007509641751
 30
0.0
 10
-9.134080295100432
 20
14.43007509641713
 30
0.0
 10
21.36594670854596
 20
14.43007509641713
 30
0.0
  0
ARC
  5
BF
330
1F
100
AcDbEntity
  8
SEATS
100
AcDbCircle
 10
21.36594670854596
 20
13.43007509641713
 30
0.0
 40
1.0
100
AcDbArc
 50
0.0000000000170987
 51
90.0
  0
SPLINE
  5
C0
330
1F
100
AcDbEntity
  8
FRAME
100
AcDbSpline
210
0.0
220
0.0
230
1.0
 70
    28
 71
     2
 72
     6
 73
     3
 74
     0
 42
0.0000000001
 43
0.0000000001
 40
-59.26180643559515
 40
-59.26180643559515
 40
-59.26180643559515
 40
-58.47440486079235
 40
-58.47440486079235
 40
-58.47440486079235
 10
13.30690294592758
 20
-11.80815806875633
 30
0.0
 41
1.0
 10
12.91320215852618
 20
-11.8081580687526
 30
0.0
 41
1.0
 10
12.51950137112478
 20
-11.80815806875569
 30
0.0
 41
1.0
  0
POLYLINE
  5
C1
330
1F
100
AcDbEntity
  8
FRAME
100
AcDb2dPolyline
 66
     1
 10
0.0
 20
0.0
 30
0.0
  0
VERTEX
  5
C2
330
C1
100
AcDbEntity
  8
FRAME
100
AcDbVertex
100
AcDb2dVertex
 10
12.51950137112478
 20
-11.80815806875569
 30
0.0
  0
VERTEX
  5
C3
330
C1
100
AcDbEntity
  8
FRAME
100
AcDbVertex
100
AcDb2dVertex
 10
12.51950137112478
 20
-12.80818507240591
 30
0.0
  0
SEQEND
  5
C4
330
C1
100
AcDbEntity
  8
FRAME
  0
SPLINE
  5
C5
330
1F
100
AcDbEntity
  8
FRAME
100
AcDbSpline
210
0.0
220
0.0
230
1.0
 70
    28
 71
     2
 72
     6
 73
     3
 74
     0
 42
0.0000000001
 43
0.0000000001
 40
134.8661056648422
 40
134.8661056648422
 40
134.8661056648422
 40
135.653507239645
 40
135.653507239645
 40
135.653507239645
 10
12.51950137112478
 20
-12.80818507240591
 30
0.0
 41
1.0
 10
12.91320215852618
 20
-12.80818507240591
 30
0.0
 41
1.0
 10
13.30690294592758
 20
-12.80818507240591
 30
0.0
 41
1.0
  0
POLYLINE
  5
C6
330
1F
100
AcDbEntity
  8
FRAME
100
AcDb2dPolyline
 66
     1
 10
0.0
 20
0.0
 30
0.0
  0
VERTEX
  5
C7
330
C6
100
AcDbEntity
  8
FRAME
100
AcDbVertex
100
AcDb2dVertex
 10
13.30690294592758
 20
-12.80818507240591
 30
0.0
  0
VERTEX
  5
C8
330
C6
100
AcDbEntity
  8
FRAME
100
AcDbVertex
100
AcDb2dVertex
 10
13.30690294592758
 20
-11.80815806875633
 30
0.0
  0
SEQEND
  5
C9
330
C6
100
AcDbEntity
  8
FRAME
  0
SPLINE
  5
CA
330
1F
100
AcDbEntity
  8
FRAME
100
AcDbSpline
210
0.0
220
0.0
230
1.0
 70
    28
 71
     3
 72
     8
 73
     4
 74
     0
 42
0.0000000001
 43
0.0000000001
 40
53.63796375690317
 40
53.63796375690317
 40
53.63796375690317
 40
53.63796375690317
 40
54.42536533170595
 40
54.42536533170595
 40
54.42536533170595
 40
54.42536533170595
 10
-89.71392716780498
 20
-71.3216673869768
 30
0.0
 41
0.9999999999748281
 10
-89.84516076360545
 20
-71.54897064256316
 30
0.0
 41
0.9999999999748281
 10
-89.9763943594059
 20
-71.77627389814951
 30
0.0
 41
0.9999999999748281
 10
-90.10762795520637
 20
-72.00357715373588
 30
0.0
 41
0.9999999999748281
  0
POLYLINE
  5
CB
330
1F
100
AcDbEntity
  8
FRAME
100
AcDb2dPolyline
 66
     1
 10
0.0
 20
0.0
 30
0.0
  0
VERTEX
  5
CC
330
CB
100
AcDbEntity
  8
FRAME
100
AcDbVertex
100
AcDb2dVertex
 10
-90.10762795520637
 20
-72.00357715373588
 30
0.0
  0
VERTEX
  5
CD
330
CB
100
AcDbEntity
  8
FRAME
100
AcDbVertex
100
AcDb2dVertex
 10
-89.36642245124061
 20
-72.43151235097534
 30
0.0
  0
SEQEND
  5
CE
330
CB
100
AcDbEntity
  8
FRAME
  0
SPLINE
  5
CF
330
1F
100
AcDbEntity
  8
FRAME
100
AcDbSpline
210
0.0
220
0.0
230
1.0
 70
    28
 71
     2
 72
     6
 73
     3
 74
     0
 42
0.0000000001
 43
0.0000000001
 40
78.0084852036899
 40
78.0084852036899
 40
78.0084852036899
 40
78.79588677849269
 40
78.79588677849269
 40
78.79588677849269
 10
-89.36642245124062
 20
-72.43151235097534
 30
0.0
 41
1.000000000052143
 10
-89.16957205753992
 20
-72.0905574675958
 30
0.0
 41
1.000000000052143
 10
-88.97272166383922
 20
-71.74960258421625
 30
0.0
 41
1.000000000052143
  0
POLYLINE
  5
D0
330
1F
100
AcDbEntity
  8
FRAME
100
AcDb2dPolyline
 66
     1
 10
0.0
 20
0.0
 30
0.0
  0
VERTEX
  5
D1
330
D0
100
AcDbEntity
  8
FRAME
100
AcDbVertex
100
AcDb2dVertex
 10
-88.97272166383922
 20
-71.74960258421625
 30
0.0
  0
VERTEX
  5
D2
330
D0
100
AcDbEntity
  8
FRAME
100
AcDbVertex
100
AcDb2dVertex
 10
-89.71392716780498
 20
-71.3216673869768
 30
0.0
  0
SEQEND
  5
D3
330
D0
100
AcDbEntity
  8
FRAME
  0
SPLINE
  5
D5
330
1F
100
AcDbEntity
  8
TABLE
100
AcDbSpline
210
0.0
220
0.0
230
1.0
 70
    12
 71
     2
 72
     6
 73
     3
 74
     0
 42
0.0000000001
 43
0.0000000001
 40
0.0
 40
0.0
 40
0.0
 40
0.7853981633974477
 40
0.7853981633974477
 40
0.7853981633974477
 10
76.93173138444148
 20
9.598193770081565
 30
0.0
 41
1.0
 10
77.36474408633364
 20
9.348193770081553
 30
0.0
 41
0.7071067811865251
 10
77.61474408633366
 20
9.781206471973789
 30
0.0
 41
1.0
  0
SPLINE
  5
D6
330
1F
100
AcDbEntity
  8
TABLE
100
AcDbSpline
210
0.0
220
0.0
230
1.0
 70
    24
 71
     2
 72
     6
 73
     3
 74
     0
 42
0.0000000001
 43
0.0000000001
 40
0.0
 40
0.0
 40
0.0
 40
60.81102362915328
 40
60.81102362915328
 40
60.81102362915328
 10
77.61474408633366
 20
9.781206471973789
 30
0.0
 10
92.81749999362206
 20
36.11315211846498
 30
0.0
 10
108.0202559009104
 20
62.44509776495627
 30
0.0
  0
SPLINE
  5
D7
330
1F
100
AcDbEntity
  8
TABLE
100
AcDbSpline
210
0.0
220
0.0
230
1.0
 70
    12
 71
     2
 72
     6
 73
     3
 74
     0
 42
0.0000000001
 43
0.0000000001
 40
0.0
 40
0.0
 40
0.0
 40
0.7853981633975129
 40
0.7853981633975129
 40
0.7853981633975129
 10
108.0202559009104
 20
62.44509776495627
 30
0.0
 41
1.0
 10
108.2702559009105
 20
62.87811046684848
 30
0.0
 41
0.70710678118652
 10
107.8372431990182
 20
63.12811046684857
 30
0.0
 41
1.0
  0
SPLINE
  5
D8
330
1F
100
AcDbEntity
  8
TABLE
100
AcDbSpline
210
0.0
220
0.0
230
1.0
 70
    24
 71
     2
 72
     6
 73
     3
 74
     0
 42
0.0000000001
 43
0.0000000001
 40
-8.842526007215064
 40
-8.842526007215064
 40
-8.842526007215064
 40
0.0
 40
0.0
 40
0.0
 10
107.8372431990182
 20
63.12811046684857
 30
0.0
 10
104.0083171210818
 20
65.33874196865227
 30
0.0
 10
100.1793910431453
 20
67.54937347045609
 30
0.0
  0
SPLINE
  5
D9
330
1F
100
AcDbEntity
  8
TABLE
100
AcDbSpline
210
0.0
220
0.0
230
1.0
 70
    12
 71
     2
 72
     6
 73
     3
 74
     0
 42
0.0000000001
 43
0.0000000001
 40
0.0
 40
0.0
 40
0.0
 40
0.7853981633974688
 40
0.7853981633974688
 40
0.7853981633974688
 10
100.1793910431453
 20
67.54937347045609
 30
0.0
 41
1.0
 10
99.74637834125308
 20
67.79937347045617
 30
0.0
 41
0.7071067811864303
 10
99.49637834125308
 20
67.36636076856388
 30
0.0
 41
1.0
  0
SPLINE
  5
DA
330
1F
100
AcDbEntity
  8
TABLE
100
AcDbSpline
210
0.0
220
0.0
230
1.0
 70
    24
 71
     2
 72
     6
 73
     3
 74
     0
 42
0.0000000001
 43
0.0000000001
 40
0.0
 40
0.0
 40
0.0
 40
60.81102362915328
 40
60.81102362915328
 40
60.81102362915328
 10
99.49637834125308
 20
67.36636076856388
 30
0.0
 10
84.29362243396476
 20
41.03441512207257
 30
0.0
 10
69.09086652667646
 20
14.70246947558135
 30
0.0
  0
SPLINE
  5
DB
330
1F
100
AcDbEntity
  8
TABLE
100
AcDbSpline
210
0.0
220
0.0
230
1.0
 70
    12
 71
     2
 72
     6
 73
     3
 74
     0
 42
0.0000000001
 43
0.0000000001
 40
0.0
 40
0.0
 40
0.0
 40
0.7853981633974423
 40
0.7853981633974423
 40
0.7853981633974423
 10
69.09086652667646
 20
14.70246947558135
 30
0.0
 41
1.0
 10
68.84086652667645
 20
14.26945677368915
 30
0.0
 41
0.7071067811865974
 10
69.27387922856867
 20
14.01945677368911
 30
0.0
 41
1.0
  0
SPLINE
  5
DC
330
1F
100
AcDbEntity
  8
TABLE
100
AcDbSpline
210
0.0
220
0.0
230
1.0
 70
    24
 71
     2
 72
     6
 73
     3
 74
     0
 42
0.0000000001
 43
0.0000000001
 40
0.0
 40
0.0
 40
0.0
 40
8.842526007215085
 40
8.842526007215085
 40
8.842526007215085
 10
69.27387922856867
 20
14.01945677368913
 30
0.0
 10
73.10280530650506
 20
11.80882527188535
 30
0.0
 10
76.93173138444148
 20
9.598193770081565
 30
0.0
  0
SPLINE
  5
DD
330
1F
100
AcDbEntity
  8
FRAME
100
AcDbSpline
210
0.0
220
0.0
230
1.0
 70
    28
 71
     2
 72
     6
 73
     3
 74
     0
 42
0.0000000001
 43
0.0000000001
 40
-59.49819417848076
 40
-59.49819417848076
 40
-59.49819417848076
 40
-58.71079260367794
 40
-58.71079260367794
 40
-58.71079260367794
 10
94.99329657656976
 20
60.76951335197919
 30
0.0
 41
1.0
 10
94.79644618286908
 20
60.42855846859959
 30
0.0
 41
1.0
 10
94.59959578916828
 20
60.08760358522008
 30
0.0
 41
1.0
  0
POLYLINE
  5
DE
330
1F
100
AcDbEntity
  8
FRAME
100
AcDb2dPolyline
 66
     1
 10
0.0
 20
0.0
 30
0.0
  0
VERTEX
  5
DF
330
DE
100
AcDbEntity
  8
FRAME
100
AcDbVertex
100
AcDb2dVertex
 10
94.59959578916828
 20
60.08760358522008
 30
0.0
  0
VERTEX
  5
E0
330
DE
100
AcDbEntity
  8
FRAME
100
AcDbVertex
100
AcDb2dVertex
 10
95.12038838885478
 20
59.78692383759909
 30
0.0
  0
SEQEND
  5
E1
330
DE
100
AcDbEntity
  8
FRAME
  0
SPLINE
  5
E2
330
1F
100
AcDbEntity
  8
FRAME
100
AcDbSpline
210
0.0
220
0.0
230
1.0
 70
    28
 71
     2
 72
     6
 73
     3
 74
     0
 42
0.0000000001
 43
0.0000000001
 40
-89.60425003857249
 40
-89.60425003857249
 40
-89.60425003857249
 40
-88.8168484637696
 40
-88.8168484637696
 40
-88.8168484637696
 10
95.12038838885478
 20
59.78692383759909
 30
0.0
 41
1.0
 10
95.31723878255546
 20
60.12787872097869
 30
0.0
 41
1.0
 10
95.51408917625618
 20
60.46883360435828
 30
0.0
 41
1.0
  0
POLYLINE
  5
E3
330
1F
100
AcDbEntity
  8
FRAME
100
AcDb2dPolyline
 66
     1
 10
0.0
 20
0.0
 30
0.0
  0
VERTEX
  5
E4
330
E3
100
AcDbEntity
  8
FRAME
100
AcDbVertex
100
AcDb2dVertex
 10
95.51408917625618
 20
60.46883360435828
 30
0.0
  0
VERTEX
  5
E5
330
E3
100
AcDbEntity
  8
FRAME
100
AcDbVertex
100
AcDb2dVertex
 10
94.99329657656976
 20
60.76951335197919
 30
0.0
  0
SEQEND
  5
E6
330
E3
100
AcDbEntity
  8
FRAME
  0
POLYLINE
  5
E7
330
1F
100
AcDbEntity
  8
FRAME
100
AcDb2dPolyline
 66
     1
 10
0.0
 20
0.0
 30
0.0
  0
VERTEX
  5
E8
330
E7
100
AcDbEntity
  8
FRAME
100
AcDbVertex
100
AcDb2dVertex
 10
-96.81937134575428
 20
-68.12855030047139
 30
0.0
  0
VERTEX
  5
E9
330
E7
100
AcDbEntity
  8
FRAME
100
AcDbVertex
100
AcDb2dVertex
 10
-95.95329943075133
 20
-68.6285771537359
 30
0.0
  0
SEQEND
  5
EA
330
E7
100
AcDbEntity
  8
FRAME
  0
SPLINE
  5
EB
330
1F
100
AcDbEntity
  8
FRAME
100
AcDbSpline
210
0.0
220
0.0
230
1.0
 70
    28
 71
     3
 72
     8
 73
     4
 74
     0
 42
0.0000000001
 43
0.0000000001
 40
78.79235670097917
 40
78.79235670097917
 40
78.79235670097917
 40
78.79235670097917
 40
79.57975827578196
 40
79.57975827578196
 40
79.57975827578196
 40
79.57975827578196
 10
-95.95329943075133
 20
-68.62857715373589
 30
0.0
 41
0.9999999998981712
 10
-95.82206583495088
 20
-68.40127389814954
 30
0.0
 41
0.9999999998981712
 10
-95.69083223915042
 20
-68.17397064256318
 30
0.0
 41
0.9999999998981712
 10
-95.55959864334994
 20
-67.94666738697681
 30
0.0
 41
0.9999999998981712
  0
POLYLINE
  5
EC
330
1F
100
AcDbEntity
  8
FRAME
100
AcDb2dPolyline
 66
     1
 10
0.0
 20
0.0
 30
0.0
  0
VERTEX
  5
ED
330
EC
100
AcDbEntity
  8
FRAME
100
AcDbVertex
100
AcDb2dVertex
 10
-95.55959864334994
 20
-67.94666738697681
 30
0.0
  0
VERTEX
  5
EE
330
EC
100
AcDbEntity
  8
FRAME
100
AcDbVertex
100
AcDb2dVertex
 10
-96.42567055835288
 20
-67.4466405337123
 30
0.0
  0
SEQEND
  5
EF
330
EC
100
AcDbEntity
  8
FRAME
  0
SPLINE
  5
F0
330
1F
100
AcDbEntity
  8
FRAME
100
AcDbSpline
210
0.0
220
0.0
230
1.0
 70
    28
 71
     2
 72
     6
 73
     3
 74
     0
 42
0.0000000001
 43
0.0000000001
 40
134.8613642093432
 40
134.8613642093432
 40
134.8613642093432
 40
135.648765784146
 40
135.648765784146
 40
135.648765784146
 10
-96.42567055835288
 20
-67.4466405337123
 30
0.0
 41
1.0
 10
-96.62252095205358
 20
-67.78759541709184
 30
0.0
 41
1.0
 10
-96.81937134575428
 20
-68.12855030047139
 30
0.0
 41
1.0
  0
SPLINE
  5
F1
330
1F
100
AcDbEntity
  8
FRAME
100
AcDbSpline
210
0.0
220
0.0
230
1.0
 70
    28
 71
     2
 72
     6
 73
     3
 74
     0
 42
0.0000000001
 43
0.0000000001
 40
122.1029733923541
 40
122.1029733923541
 40
122.1029733923541
 40
122.8903749671569
 40
122.8903749671569
 40
122.8903749671569
 10
-67.31917835690858
 20
-34.24456541271928
 30
0.0
 41
1.000000000052143
 10
-67.12232796320787
 20
-33.9036105293397
 30
0.0
 41
1.000000000052143
 10
-66.92547756950717
 20
-33.56265564596015
 30
0.0
 41
1.000000000052143
  0
POLYLINE
  5
F2
330
1F
100
AcDbEntity
  8
FRAME
100
AcDb2dPolyline
 66
     1
 10
0.0
 20
0.0
 30
0.0
  0
VERTEX
  5
F3
330
F2
100
AcDbEntity
  8
FRAME
100
AcDbVertex
100
AcDb2dVertex
 10
-66.92547756950717
 20
-33.56265564596014
 30
0.0
  0
VERTEX
  5
F4
330
F2
100
AcDbEntity
  8
FRAME
100
AcDbVertex
100
AcDb2dVertex
 10
-67.66668307347292
 20
-33.13472044872069
 30
0.0
  0
SEQEND
  5
F5
330
F2
100
AcDbEntity
  8
FRAME
  0
SPLINE
  5
F6
330
1F
100
AcDbEntity
  8
FRAME
100
AcDbSpline
210
0.0
220
0.0
230
1.0
 70
    28
 71
     3
 72
     8
 73
     4
 74
     0
 42
0.0000000001
 43
0.0000000001
 40
9.543475568238955
 40
9.543475568238955
 40
9.543475568238955
 40
9.543475568238955
 40
10.33087714304178
 40
10.33087714304178
 40
10.33087714304178
 40
10.33087714304178
 10
-67.66668307347292
 20
-33.13472044872069
 30
0.0
 41
0.9999999999748281
 10
-67.7979166692734
 20
-33.36202370430705
 30
0.0
 41
0.9999999999748281
 10
-67.92915026507387
 20
-33.58932695989342
 30
0.0
 41
0.9999999999748281
 10
-68.06038386087434
 20
-33.8166302154798
 30
0.0
 41
0.9999999999748281
  0
POLYLINE
  5
F7
330
1F
100
AcDbEntity
  8
FRAME
100
AcDb2dPolyline
 66
     1
 10
0.0
 20
0.0
 30
0.0
  0
VERTEX
  5
F8
330
F7
100
AcDbEntity
  8
FRAME
100
AcDbVertex
100
AcDb2dVertex
 10
-68.06038386087434
 20
-33.8166302154798
 30
0.0
  0
VERTEX
  5
F9
330
F7
100
AcDbEntity
  8
FRAME
100
AcDbVertex
100
AcDb2dVertex
 10
-67.31917835690858
 20
-34.24456541271928
 30
0.0
  0
SEQEND
  5
FA
330
F7
100
AcDbEntity
  8
FRAME
  0
SPLINE
  5
FB
330
1F
100
AcDbEntity
  8
SEATS
100
AcDbSpline
210
0.0
220
0.0
230
1.0
 70
    24
 71
     2
 72
     6
 73
     3
 74
     0
 42
0.0000000001
 43
0.0000000001
 40
0.0
 40
0.0
 40
0.0
 40
17.0000540072929
 40
17.0000540072929
 40
17.0000540072929
 10
22.36594670854596
 20
-13.80818507240589
 30
0.0
 10
22.36594670854596
 20
-22.30821207605234
 30
0.0
 10
22.36594670854596
 20
-30.80823907969879
 30
0.0
  0
ARC
  5
FC
330
1F
100
AcDbEntity
  8
SEATS
100
AcDbCircle
 10
21.36594670854596
 20
-30.80823907969879
 30
0.0
 40
1.0
100
AcDbArc
 50
270.0
 51
0.0
  0
SPLINE
  5
FD
330
1F
100
AcDbEntity
  8
SEATS
100
AcDbSpline
210
0.0
220
0.0
230
1.0
 70
    24
 71
     2
 72
     6
 73
     3
 74
     0
 42
0.0000000001
 43
0.0000000001
 40
0.0
 40
0.0
 40
0.0
 40
61.0000540072929
 40
61.0000540072929
 40
61.0000540072929
 10
21.36594670854596
 20
-31.80823907969879
 30
0.0
 10
-9.134080295100532
 20
-31.80823907969879
 30
0.0
 10
-39.63410729874694
 20
-31.80823907969879
 30
0.0
  0
ARC
  5
FE
330
1F
100
AcDbEntity
  8
SEATS
100
AcDbCircle
 10
-39.63410729874694
 20
-30.80823907969879
 30
0.0
 40
1.0
100
AcDbArc
 50
180.0
 51
270.0
  0
SPLINE
  5
FF
330
1F
100
AcDbEntity
  8
SEATS
100
AcDbSpline
210
0.0
220
0.0
230
1.0
 70
    24
 71
     2
 72
     6
 73
     3
 74
     0
 42
0.0000000001
 43
0.0000000001
 40
-17.00005400729289
 40
-17.00005400729289
 40
-17.00005400729289
 40
0.0
 40
0.0
 40
0.0
 10
-40.63410729874694
 20
-30.80823907969879
 30
0.0
 10
-40.63410729874694
 20
-22.30821207605235
 30
0.0
 10
-40.63410729874694
 20
-13.80818507240591
 30
0.0
  0
ARC
  5
100
330
1F
100
AcDbEntity
  8
SEATS
100
AcDbCircle
 10
-39.63410729874694
 20
-13.80818507240591
 30
0.0
 40
1.0
100
AcDbArc
 50
90.0
 51
180.0
  0
SPLINE
  5
101
330
1F
100
AcDbEntity
  8
SEATS
100
AcDbSpline
210
0.0
220
0.0
230
1.0
 70
    24
 71
     2
 72
     6
 73
     3
 74
     0
 42
0.0000000001
 43
0.0000000001
 40
-61.0000540072929
 40
-61.0000540072929
 40
-61.0000540072929
 40
0.0
 40
0.0
 40
0.0
 10
-39.63410729874694
 20
-12.80818507240591
 30
0.0
 10
-9.134080295100532
 20
-12.80818507240591
 30
0.0
 10
21.36594670854596
 20
-12.80818507240591
 30
0.0
  0
ARC
  5
102
330
1F
100
AcDbEntity
  8
SEATS
100
AcDbCircle
 10
21.36594670854596
 20
-13.80818507240591
 30
0.0
 40
1.0
100
AcDbArc
 50
0.0000000000008142
 51
90.0
  0
POLYLINE
  5
103
330
1F
100
AcDbEntity
  8
FRAME
100
AcDb2dPolyline
 66
     1
 10
0.0
 20
0.0
 30
0.0
  0
VERTEX
  5
104
330
103
100
AcDbEntity
  8
FRAME
100
AcDbVertex
100
AcDb2dVertex
 10
65.84060830428827
 20
25.77568350022828
 30
0.0
  0
VERTEX
  5
105
330
103
100
AcDbEntity
  8
FRAME
100
AcDbVertex
100
AcDb2dVertex
 10
66.70668021929107
 20
25.27565664696378
 30
0.0
  0
SEQEND
  5
106
330
103
100
AcDbEntity
  8
FRAME
  0
SPLINE
  5
107
330
1F
100
AcDbEntity
  8
FRAME
100
AcDbSpline
210
0.0
220
0.0
230
1.0
 70
    28
 71
     2
 72
     6
 73
     3
 74
     0
 42
0.0000000001
 43
0.0000000001
 40
-128.3898638514248
 40
-128.3898638514248
 40
-128.3898638514248
 40
-127.6024622766217
 40
-127.6024622766217
 40
-127.6024622766217
 10
66.70668021929107
 20
25.27565664696378
 30
0.0
 41
1.0
 10
66.90353061299187
 20
25.61661153034348
 30
0.0
 41
1.0
 10
67.10038100669267
 20
25.95756641372317
 30
0.0
 41
1.0
  0
POLYLINE
  5
108
330
1F
100
AcDbEntity
  8
FRAME
100
AcDb2dPolyline
 66
     1
 10
0.0
 20
0.0
 30
0.0
  0
VERTEX
  5
109
330
108
100
AcDbEntity
  8
FRAME
100
AcDbVertex
100
AcDb2dVertex
 10
67.10038100669267
 20
25.95756641372317
 30
0.0
  0
VERTEX
  5
10A
330
108
100
AcDbEntity
  8
FRAME
100
AcDbVertex
100
AcDb2dVertex
 10
66.23430909168978
 20
26.45759326698767
 30
0.0
  0
SEQEND
  5
10B
330
108
100
AcDbEntity
  8
FRAME
  0
SPLINE
  5
10C
330
1F
100
AcDbEntity
  8
FRAME
100
AcDbSpline
210
0.0
220
0.0
230
1.0
 70
    28
 71
     2
 72
     6
 73
     3
 74
     0
 42
0.0000000001
 43
0.0000000001
 40
-27.38630242909796
 40
-27.38630242909796
 40
-27.38630242909796
 40
-26.59890085429478
 40
-26.59890085429478
 40
-26.59890085429478
 10
66.23430909168978
 20
26.45759326698767
 30
0.0
 41
1.0
 10
66.03745869798907
 20
26.11663838360798
 30
0.0
 41
1.0
 10
65.84060830428827
 20
25.77568350022828
 30
0.0
 41
1.0
  0
POLYLINE
  5
10D
330
1F
100
AcDbEntity
  8
FRAME
100
AcDb2dPolyline
 66
     1
 10
0.0
 20
0.0
 30
0.0
  0
VERTEX
  5
10E
330
10D
100
AcDbEntity
  8
FRAME
100
AcDbVertex
100
AcDb2dVertex
 10
-31.5749868175394
 20
-4.569978910875761
 30
0.0
  0
VERTEX
  5
10F
330
10D
100
AcDbEntity
  8
FRAME
100
AcDbVertex
100
AcDb2dVertex
 10
-31.57498681753938
 20
-5.05815806875944
 30
0.0
  0
SEQEND
  5
110
330
10D
100
AcDbEntity
  8
FRAME
  0
SPLINE
  5
111
330
1F
100
AcDbEntity
  8
FRAME
100
AcDbSpline
210
0.0
220
0.0
230
1.0
 70
    28
 71
     2
 72
     6
 73
     3
 74
     0
 42
0.0000000001
 43
0.0000000001
 40
-128.1533226713596
 40
-128.1533226713596
 40
-128.1533226713596
 40
-127.3659210965567
 40
-127.3659210965567
 40
-127.3659210965567
 10
-31.57498681753938
 20
-5.05815806875944
 30
0.0
 41
1.0
 10
-31.18128603013795
 20
-5.05815806875944
 30
0.0
 41
1.0
 10
-30.78758524273654
 20
-5.05815806875944
 30
0.0
 41
1.0
  0
POLYLINE
  5
112
330
1F
100
AcDbEntity
  8
FRAME
100
AcDb2dPolyline
 66
     1
 10
0.0
 20
0.0
 30
0.0
  0
VERTEX
  5
113
330
112
100
AcDbEntity
  8
FRAME
100
AcDbVertex
100
AcDb2dVertex
 10
-30.78758524273654
 20
-5.05815806875944
 30
0.0
  0
VERTEX
  5
114
330
112
100
AcDbEntity
  8
FRAME
100
AcDbVertex
100
AcDb2dVertex
 10
-30.78758524273654
 20
-4.569978910875761
 30
0.0
  0
SEQEND
  5
115
330
112
100
AcDbEntity
  8
FRAME
  0
SPLINE
  5
116
330
1F
100
AcDbEntity
  8
FRAME
100
AcDbSpline
210
0.0
220
0.0
230
1.0
 70
    28
 71
     2
 72
     6
 73
     3
 74
     0
 42
0.0000000001
 43
0.0000000001
 40
52.1535319512825
 40
52.1535319512825
 40
52.1535319512825
 40
52.94093352608534
 40
52.94093352608534
 40
52.94093352608534
 10
-30.78758524273654
 20
-4.569978910875761
 30
0.0
 41
1.0
 10
-31.18128603013798
 20
-4.569978910875761
 30
0.0
 41
1.0
 10
-31.5749868175394
 20
-4.569978910875761
 30
0.0
 41
1.0
  0
SPLINE
  5
118
330
1F
100
AcDbEntity
  8
SCREEN
100
AcDbSpline
210
0.0
220
0.0
230
1.0
 70
    24
 71
     2
 72
     6
 73
     3
 74
     0
 42
0.0000000001
 43
0.0000000001
 40
0.0
 40
0.0
 40
0.0
 40
0.2496186850154002
 40
0.2496186850154002
 40
0.2496186850154002
 10
-59.95841802708676
 20
-27.99535453912996
 30
0.0
 10
-60.02091991855908
 20
-28.10361099072962
 30
0.0
 10
-60.08332458981293
 20
-28.21169905197092
 30
0.0
  0
SPLINE
  5
119
330
1F
100
AcDbEntity
  8
SCREEN
100
AcDbSpline
210
0.0
220
0.0
230
1.0
 70
    24
 71
     2
 72
     6
 73
     3
 74
     0
 42
0.0000000001
 43
0.0000000001
 40
0.0
 40
0.0
 40
0.0
 40
60.99212600891975
 40
60.99212600891975
 40
60.99212600891975
 10
-60.08332458981293
 20
-28.21169905197092
 30
0.0
 10
-75.33135609204282
 20
-54.62206432924398
 30
0.0
 10
-90.57938759427273
 20
-81.03242960651706
 30
0.0
  0
SPLINE
  5
11A
330
1F
100
AcDbEntity
  8
SCREEN
100
AcDbSpline
210
0.0
220
0.0
230
1.0
 70
    24
 71
     2
 72
     6
 73
     3
 74
     0
 42
0.0000000001
 43
0.0000000001
 40
0.0
 40
0.0
 40
0.0
 40
0.2495920347328544
 40
0.2495920347328544
 40
0.2495920347328544
 10
-90.57938759427273
 20
-81.03242960651706
 30
0.0
 10
-90.64178560295595
 20
-81.1405061278475
 30
0.0
 10
-90.70428703599188
 20
-81.24876178541024
 30
0.0
  0
SPLINE
  5
11B
330
1F
100
AcDbEntity
  8
SCREEN
100
AcDbSpline
210
0.0
220
0.0
230
1.0
 70
    12
 71
     2
 72
     6
 73
     3
 74
     0
 42
0.0000000001
 43
0.0000000001
 40
0.0
 40
0.0
 40
0.0
 40
1.178105090587848
 40
1.178105090587848
 40
1.178105090587848
 10
-90.70428703599188
 20
-81.24876178541024
 30
0.0
 41
1.0
 10
-91.07938936804473
 20
-81.89846405084434
 30
0.0
 41
0.7071093892586715
 10
-91.72891095536036
 20
-81.52346247240816
 30
0.0
 41
0.9999999999459606
  0
SPLINE
  5
11C
330
1F
100
AcDbEntity
  8
SCREEN
100
AcDbSpline
210
0.0
220
0.0
230
1.0
 70
     8
 71
     2
 72
     6
 73
     3
 74
     0
 42
0.0000000001
 43
0.0000000001
 40
-1.749999999999996
 40
-1.749999999999996
 40
-1.749999999999996
 40
0.0
 40
0.0
 40
0.0
 10
-91.72891095536036
 20
-81.52346247240816
 30
0.0
 10
-92.48667887542297
 20
-81.08595501030237
 30
0.0
 10
-93.24445785464593
 20
-80.64846670322422
 30
0.0
  0
SPLINE
  5
11D
330
1F
100
AcDbEntity
  8
SCREEN
100
AcDbSpline
210
0.0
220
0.0
230
1.0
 70
    12
 71
     2
 72
     6
 73
     3
 74
     0
 42
0.0000000001
 43
0.0000000001
 40
0.0
 40
0.0
 40
0.0
 40
1.178112099083052
 40
1.178112099083052
 40
1.178112099083052
 10
-93.24445785464593
 20
-80.64846670322423
 30
0.0
 41
0.9999999998938172
 10
-93.89398590282093
 20
-80.27346476799015
 30
0.0
 41
0.7071076873230445
 10
-93.5188767192988
 20
-79.6237741193588
 30
0.0
 41
1.0
  0
SPLINE
  5
11E
330
1F
100
AcDbEntity
  8
SCREEN
100
AcDbSpline
210
0.0
220
0.0
230
1.0
 70
    24
 71
     2
 72
     6
 73
     3
 74
     0
 42
0.0000000001
 43
0.0000000001
 40
0.0
 40
0.0
 40
0.0
 40
0.2496186850153827
 40
0.2496186850153827
 40
0.2496186850153827
 10
-93.5188767192988
 20
-79.6237741193588
 30
0.0
 10
-93.45637482782654
 20
-79.51551766775923
 30
0.0
 10
-93.39397015657269
 20
-79.40742960651794
 30
0.0
  0
SPLINE
  5
11F
330
1F
100
AcDbEntity
  8
SCREEN
100
AcDbSpline
210
0.0
220
0.0
230
1.0
 70
    24
 71
     2
 72
     6
 73
     3
 74
     0
 42
0.0000000001
 43
0.0000000001
 40
0.0
 40
0.0
 40
0.0
 40
60.99212600891978
 40
60.99212600891978
 40
60.99212600891978
 10
-93.39397015657269
 20
-79.40742960651794
 30
0.0
 10
-78.14593865434277
 20
-52.99706432924486
 30
0.0
 10
-62.89790715211285
 20
-26.58669905197178
 30
0.0
  0
SPLINE
  5
120
330
1F
100
AcDbEntity
  8
SCREEN
100
AcDbSpline
210
0.0
220
0.0
230
1.0
 70
    24
 71
     2
 72
     6
 73
     3
 74
     0
 42
0.0000000001
 43
0.0000000001
 40
0.0
 40
0.0
 40
0.0
 40
0.2495920347328471
 40
0.2495920347328471
 40
0.2495920347328471
 10
-62.89790715211285
 20
-26.58669905197178
 30
0.0
 10
-62.83550914342964
 20
-26.47862253064133
 30
0.0
 10
-62.77300771039389
 20
-26.37036687307889
 30
0.0
  0
SPLINE
  5
121
330
1F
100
AcDbEntity
  8
SCREEN
100
AcDbSpline
210
0.0
220
0.0
230
1.0
 70
    12
 71
     2
 72
     6
 73
     3
 74
     0
 42
0.0000000001
 43
0.0000000001
 40
0.0
 40
0.0
 40
0.0
 40
1.178105090588554
 40
1.178105090588554
 40
1.178105090588554
 10
-62.77300771039389
 20
-26.37036687307889
 30
0.0
 41
1.0
 10
-62.39790537834148
 20
-25.72066460764412
 30
0.0
 41
0.7071093892583389
 10
-61.74838379102523
 20
-26.09566618608067
 30
0.0
 41
0.9999999999459592
  0
SPLINE
  5
122
330
1F
100
AcDbEntity
  8
SCREEN
100
AcDbSpline
210
0.0
220
0.0
230
1.0
 70
     8
 71
     2
 72
     6
 73
     3
 74
     0
 42
0.0000000001
 43
0.0000000001
 40
0.0
 40
0.0
 40
0.0
 40
1.750000000000008
 40
1.750000000000008
 40
1.750000000000008
 10
-61.74838379102523
 20
-26.09566618608067
 30
0.0
 10
-60.99061587096264
 20
-26.53317364818647
 30
0.0
 10
-60.23283689173966
 20
-26.97066195526461
 30
0.0
  0
SPLINE
  5
123
330
1F
100
AcDbEntity
  8
SCREEN
100
AcDbSpline
210
0.0
220
0.0
230
1.0
 70
    12
 71
     2
 72
     6
 73
     3
 74
     0
 42
0.0000000001
 43
0.0000000001
 40
0.0
 40
0.0
 40
0.0
 40
1.178112099082917
 40
1.178112099082917
 40
1.178112099082917
 10
-60.23283689173966
 20
-26.97066195526461
 30
0.0
 41
0.9999999998938152
 10
-59.58330884356474
 20
-27.34566389049859
 30
0.0
 41
0.7071076873230953
 10
-59.95841802708676
 20
-27.99535453912996
 30
0.0
 41
1.0
  0
POLYLINE
  5
124
330
1F
100
AcDbEntity
  8
FRAME
100
AcDb2dPolyline
 66
     1
 10
0.0
 20
0.0
 30
0.0
  0
VERTEX
  5
125
330
124
100
AcDbEntity
  8
FRAME
100
AcDbVertex
100
AcDb2dVertex
 10
72.55235169483616
 20
21.90065664696408
 30
0.0
  0
VERTEX
  5
126
330
124
100
AcDbEntity
  8
FRAME
100
AcDbVertex
100
AcDb2dVertex
 10
73.07314429452278
 20
21.59997689934308
 30
0.0
  0
SEQEND
  5
127
330
124
100
AcDbEntity
  8
FRAME
  0
SPLINE
  5
128
330
1F
100
AcDbEntity
  8
FRAME
100
AcDbSpline
210
0.0
220
0.0
230
1.0
 70
    28
 71
     2
 72
     6
 73
     3
 74
     0
 42
0.0000000001
 43
0.0000000001
 40
-133.6987382272366
 40
-133.6987382272366
 40
-133.6987382272366
 40
-132.9113366524338
 40
-132.9113366524338
 40
-132.9113366524338
 10
73.07314429452278
 20
21.59997689934308
 30
0.0
 41
1.0
 10
73.26999468822338
 20
21.94093178272257
 30
0.0
 41
1.0
 10
73.46684508192406
 20
22.28188666610218
 30
0.0
 41
1.0
  0
POLYLINE
  5
129
330
1F
100
AcDbEntity
  8
FRAME
100
AcDb2dPolyline
 66
     1
 10
0.0
 20
0.0
 30
0.0
  0
VERTEX
  5
12A
330
129
100
AcDbEntity
  8
FRAME
100
AcDbVertex
100
AcDb2dVertex
 10
73.46684508192406
 20
22.28188666610218
 30
0.0
  0
VERTEX
  5
12B
330
129
100
AcDbEntity
  8
FRAME
100
AcDbVertex
100
AcDb2dVertex
 10
72.94605248223756
 20
22.58256641372317
 30
0.0
  0
SEQEND
  5
12C
330
129
100
AcDbEntity
  8
FRAME
  0
SPLINE
  5
12D
330
1F
100
AcDbEntity
  8
FRAME
100
AcDbSpline
210
0.0
220
0.0
230
1.0
 70
    28
 71
     2
 72
     6
 73
     3
 74
     0
 42
0.0000000001
 43
0.0000000001
 40
-15.40370598981655
 40
-15.40370598981655
 40
-15.40370598981655
 40
-14.61630441501377
 40
-14.61630441501377
 40
-14.61630441501377
 10
72.94605248223756
 20
22.58256641372317
 30
0.0
 41
1.0
 10
72.74920208853688
 20
22.24161153034368
 30
0.0
 41
1.0
 10
72.55235169483616
 20
21.90065664696408
 30
0.0
 41
1.0
  0
POLYLINE
  5
12E
330
1F
100
AcDbEntity
  8
BACKS
100
AcDb2dPolyline
 66
     1
 10
0.0
 20
0.0
 30
0.0
  0
VERTEX
  5
12F
330
12E
100
AcDbEntity
  8
BACKS
100
AcDbVertex
100
AcDb2dVertex
 10
-68.42489756133457
 20
-22.24443595232752
 30
0.0
  0
VERTEX
  5
130
330
12E
100
AcDbEntity
  8
BACKS
100
AcDbVertex
100
AcDb2dVertex
 10
-63.71450887926886
 20
-24.96172758125854
 30
0.0
  0
SEQEND
  5
131
330
12E
100
AcDbEntity
  8
BACKS
  0
SPLINE
  5
132
330
1F
100
AcDbEntity
  8
BACKS
100
AcDbSpline
210
0.0
220
0.0
230
1.0
 70
    12
 71
     2
 72
     6
 73
     3
 74
     0
 42
0.0000000001
 43
0.0000000001
 40
0.0
 40
0.0
 40
0.0
 40
1.091722591168626
 40
1.091722591168626
 40
1.091722591168626
 10
-63.71450887926886
 20
-24.96172758125854
 30
0.0
 41
1.0
 10
-63.17803677000776
 20
-25.36014163602633
 30
0.0
 41
0.7466440868622406
 10
-63.51214832828957
 20
-25.93885518825151
 30
0.0
 41
1.0
  0
SPLINE
  5
133
330
1F
100
AcDbEntity
  8
BACKS
100
AcDbSpline
210
0.0
220
0.0
230
1.0
 70
    28
 71
     3
 72
     8
 73
     4
 74
     0
 42
0.0000000001
 43
0.0000000001
 40
0.0
 40
0.0
 40
0.0
 40
0.0
 40
0.3926863527735771
 40
0.3926863527735771
 40
0.3926863527735771
 40
0.3926863527735771
 10
-63.51214832828957
 20
-25.93885518825151
 30
0.0
 41
1.0
 10
-63.51189337403772
 20
-25.93841359453507
 30
0.0
 41
1.0
 10
-63.56858367547613
 20
-26.03660407692281
 30
0.0
 41
1.0
 10
-63.63714976132457
 20
-26.1553640212884
 30
0.0
 41
1.0
  0
SPLINE
  5
134
330
1F
100
AcDbEntity
  8
BACKS
100
AcDbSpline
210
0.0
220
0.0
230
1.0
 70
    24
 71
     2
 72
     6
 73
     3
 74
     0
 42
0.0000000001
 43
0.0000000001
 40
0.0
 40
0.0
 40
0.0
 40
61.0000003007635
 40
61.0000003007635
 40
61.0000003007635
 10
-63.63714976132457
 20
-26.1553640212884
 30
0.0
 10
-78.8871498365154
 20
-52.56913896694822
 30
0.0
 10
-94.13714991170625
 20
-78.98291391260803
 30
0.0
  0
SPLINE
  5
135
330
1F
100
AcDbEntity
  8
BACKS
100
AcDbSpline
210
0.0
220
0.0
230
1.0
 70
    24
 71
     2
 72
     6
 73
     3
 74
     0
 42
0.0000000001
 43
0.0000000001
 40
0.0
 40
0.0
 40
0.0
 40
0.2500000000020212
 40
0.2500000000020212
 40
0.2500000000020212
 10
-94.13714991170625
 20
-78.98291391260803
 30
0.0
 10
-94.19964991170676
 20
-79.09116708808195
 30
0.0
 10
-94.2621518031797
 20
-79.19942353968179
 30
0.0
  0
SPLINE
  5
136
330
1F
100
AcDbEntity
  8
BACKS
100
AcDbSpline
210
0.0
220
0.0
230
1.0
 70
    12
 71
     2
 72
     6
 73
     3
 74
     0
 42
0.0000000001
 43
0.0000000001
 40
0.0
 40
0.0
 40
0.0
 40
1.178111453563639
 40
1.178111453563639
 40
1.178111453563639
 10
-94.2621518031797
 20
-79.19942353968179
 30
0.0
 41
1.0
 10
-94.63715103950047
 20
-79.84895577738104
 30
0.0
 41
0.707109105292339
 10
-95.28667571545661
 20
-79.47395100931509
 30
0.0
 41
0.9999999998788616
  0
SPLINE
  5
137
330
1F
100
AcDbEntity
  8
BACKS
100
AcDbSpline
210
0.0
220
0.0
230
1.0
 70
     8
 71
     2
 72
     6
 73
     3
 74
     0
 42
0.0000000001
 43
0.0000000001
 40
0.0
 40
0.0
 40
0.0
 40
5.250000000000005
 40
5.250000000000005
 40
5.250000000000005
 10
-95.2866757154566
 20
-79.47395100931509
 30
0.0
 10
-97.55998564947917
 20
-78.16143931639323
 30
0.0
 10
-99.83330664266211
 20
-76.84894677849903
 30
0.0
  0
SPLINE
  5
138
330
1F
100
AcDbEntity
  8
BACKS
100
AcDbSpline
210
0.0
220
0.0
230
1.0
 70
    12
 71
     2
 72
     6
 73
     3
 74
     0
 42
0.0000000001
 43
0.0000000001
 40
0.0
 40
0.0
 40
0.0
 40
1.178105736934794
 40
1.178105736934794
 40
1.178105736934794
 10
-99.83330664266211
 20
-76.84894677849903
 30
0.0
 41
0.9999999999555185
 10
-100.4828303868405
 20
-76.47394592399824
 30
0.0
 41
0.7071079694676446
 10
-100.1078228202859
 20
-75.82442274564441
 30
0.0
 41
1.0
  0
SPLINE
  5
139
330
1F
100
AcDbEntity
  8
BACKS
100
AcDbSpline
210
0.0
220
0.0
230
1.0
 70
    28
 71
     3
 72
     8
 73
     4
 74
     0
 42
0.0000000001
 43
0.0000000001
 40
0.0
 40
0.0
 40
0.0
 40
0.0
 40
0.3926863527735757
 40
0.3926863527735757
 40
0.3926863527735757
 40
0.3926863527735757
 10
-100.1078228202859
 20
-75.82442274564441
 30
0.0
 41
1.0
 10
-100.1080777745547
 20
-75.82486433939009
 30
0.0
 41
1.0
 10
-100.0513874731035
 20
-75.72667385698034
 30
0.0
 41
1.0
 10
-99.98282138725105
 20
-75.60791391260777
 30
0.0
 41
1.0
  0
SPLINE
  5
13A
330
1F
100
AcDbEntity
  8
BACKS
100
AcDbSpline
210
0.0
220
0.0
230
1.0
 70
    24
 71
     2
 72
     6
 73
     3
 74
     0
 42
0.0000000001
 43
0.0000000001
 40
0.0
 40
0.0
 40
0.0
 40
61.00000030076355
 40
61.00000030076355
 40
61.00000030076355
 10
-99.98282138725105
 20
-75.60791391260777
 30
0.0
 10
-84.7328213120602
 20
-49.19413896694792
 30
0.0
 10
-69.48282123686934
 20
-22.78036402128808
 30
0.0
  0
SPLINE
  5
13B
330
1F
100
AcDbEntity
  8
BACKS
100
AcDbSpline
210
0.0
220
0.0
230
1.0
 70
    24
 71
     2
 72
     6
 73
     3
 74
     0
 42
0.0000000001
 43
0.0000000001
 40
0.0
 40
0.0
 40
0.0
 40
0.2500000000020203
 40
0.2500000000020203
 40
0.2500000000020203
 10
-69.48282123686934
 20
-22.78036402128808
 30
0.0
 10
-69.42032123686883
 20
-22.67211084581416
 30
0.0
 10
-69.35781934539588
 20
-22.56385439421429
 30
0.0
  0
SPLINE
  5
13C
330
1F
100
AcDbEntity
  8
BACKS
100
AcDbSpline
210
0.0
220
0.0
230
1.0
 70
    12
 71
     2
 72
     6
 73
     3
 74
     0
 42
0.0000000001
 43
0.0000000001
 40
0.0
 40
0.0
 40
0.0
 40
1.07602008410933
 40
1.07602008410933
 40
1.07602008410933
 10
-69.35781934539588
 20
-22.56385439421429
 30
0.0
 41
1.0
 10
-69.03067865080918
 20
-21.99722651978886
 30
0.0
 41
0.7535649378363397
 10
-68.42489756133457
 20
-22.24443595232752
 30
0.0
 41
1.0
  0
SPLINE
  5
13D
330
1F
100
AcDbEntity
  8
FRAME
100
AcDbSpline
210
0.0
220
0.0
230
1.0
 70
    28
 71
     2
 72
     6
 73
     3
 74
     0
 42
0.0000000001
 43
0.0000000001
 40
-84.29537566276103
 40
-84.29537566276103
 40
-84.29537566276103
 40
-83.50797408795822
 40
-83.50797408795822
 40
-83.50797408795822
 10
88.75392431362327
 20
63.46260358522008
 30
0.0
 41
1.0
 10
88.95077470732396
 20
63.80355846859968
 30
0.0
 41
1.0
 10
89.14762510102476
 20
64.14451335197919
 30
0.0
 41
1.0
  0
POLYLINE
  5
13E
330
1F
100
AcDbEntity
  8
FRAME
100
AcDb2dPolyline
 66
     1
 10
0.0
 20
0.0
 30
0.0
  0
VERTEX
  5
13F
330
13E
100
AcDbEntity
  8
FRAME
100
AcDbVertex
100
AcDb2dVertex
 10
89.14762510102476
 20
64.14451335197919
 30
0.0
  0
VERTEX
  5
140
330
13E
100
AcDbEntity
  8
FRAME
100
AcDbVertex
100
AcDb2dVertex
 10
88.28155318602187
 20
64.64454020524369
 30
0.0
  0
SEQEND
  5
141
330
13E
100
AcDbEntity
  8
FRAME
  0
SPLINE
  5
142
330
1F
100
AcDbEntity
  8
FRAME
100
AcDbSpline
210
0.0
220
0.0
230
1.0
 70
    28
 71
     2
 72
     6
 73
     3
 74
     0
 42
0.0000000001
 43
0.0000000001
 40
-71.48079061776205
 40
-71.48079061776205
 40
-71.48079061776205
 40
-70.6933890429592
 40
-70.6933890429592
 40
-70.6933890429592
 10
88.28155318602187
 20
64.64454020524369
 30
0.0
 41
1.0
 10
88.08470279232107
 20
64.30358532186418
 30
0.0
 41
1.0
 10
87.88785239862038
 20
63.96263043848458
 30
0.0
 41
1.0
  0
POLYLINE
  5
143
330
1F
100
AcDbEntity
  8
FRAME
100
AcDb2dPolyline
 66
     1
 10
0.0
 20
0.0
 30
0.0
  0
VERTEX
  5
144
330
143
100
AcDbEntity
  8
FRAME
100
AcDbVertex
100
AcDb2dVertex
 10
87.88785239862038
 20
63.96263043848458
 30
0.0
  0
VERTEX
  5
145
330
143
100
AcDbEntity
  8
FRAME
100
AcDbVertex
100
AcDb2dVertex
 10
88.75392431362327
 20
63.46260358522008
 30
0.0
  0
SEQEND
  5
146
330
143
100
AcDbEntity
  8
FRAME
  0
SPLINE
  5
147
330
1F
100
AcDbEntity
  8
SEATS
100
AcDbSpline
210
0.0
220
0.0
230
1.0
 70
    24
 71
     2
 72
     6
 73
     3
 74
     0
 42
0.0000000001
 43
0.0000000001
 40
-17.00000030076559
 40
-17.00000030076559
 40
-17.00000030076559
 40
0.0
 40
0.0
 40
0.0
 10
-102.2149186310306
 20
-75.47391233321038
 30
0.0
 10
-109.5761346934337
 20
-71.223912258019
 30
0.0
 10
-116.9373507558367
 20
-66.9739121828276
 30
0.0
  0
SPLINE
  5
148
330
1F
100
AcDbEntity
  8
SEATS
100
AcDbSpline
210
0.0
220
0.0
230
1.0
 70
    12
 71
     2
 72
     6
 73
     3
 74
     0
 42
0.0000000001
 43
0.0000000001
 40
0.0
 40
0.0
 40
0.0
 40
1.570796326794895
 40
1.570796326794895
 40
1.570796326794895
 10
-116.9373507558367
 20
-66.9739121828276
 30
0.0
 41
1.0
 10
-117.8033761596212
 20
-66.47391218282762
 30
0.0
 41
0.7071067811865337
 10
-117.3033761596212
 20
-65.60788677904317
 30
0.0
 41
1.0
  0
SPLINE
  5
149
330
1F
100
AcDbEntity
  8
SEATS
100
AcDbSpline
210
0.0
220
0.0
230
1.0
 70
    24
 71
     2
 72
     6
 73
     3
 74
     0
 42
0.0000000001
 43
0.0000000001
 40
-61.00000000073202
 40
-61.00000000073202
 40
-61.00000000073202
 40
0.0
 40
0.0
 40
0.0
 10
-117.3033761596212
 20
-65.60788677904317
 30
0.0
 10
-102.0533761594382
 20
-39.1941119633008
 30
0.0
 10
-86.80337615925524
 20
-12.78033714755843
 30
0.0
  0
SPLINE
  5
14A
330
1F
100
AcDbEntity
  8
SEATS
100
AcDbSpline
210
0.0
220
0.0
230
1.0
 70
    12
 71
     2
 72
     6
 73
     3
 74
     0
 42
0.0000000001
 43
0.0000000001
 40
0.0
 40
0.0
 40
0.0
 40
1.468850324475319
 40
1.468850324475319
 40
1.468850324475319
 10
-86.80337615925524
 20
-12.78033714755843
 30
0.0
 41
1.0
 10
-86.3519169387962
 20
-11.99838684017793
 30
0.0
 41
0.7422161096363769
 10
-85.5280817310279
 20
-12.36792338964401
 30
0.0
 41
1.0
  0
POLYLINE
  5
14B
330
1F
100
AcDbEntity
  8
SEATS
100
AcDb2dPolyline
 66
     1
 10
0.0
 20
0.0
 30
0.0
  0
VERTEX
  5
14C
330
14B
100
AcDbEntity
  8
SEATS
100
AcDbVertex
100
AcDb2dVertex
 10
-85.5280817310279
 20
-12.36792338964401
 30
0.0
  0
VERTEX
  5
14D
330
14B
100
AcDbEntity
  8
SEATS
100
AcDbVertex
100
AcDb2dVertex
 10
-70.71716020156776
 20
-20.91810216838953
 30
0.0
  0
SEQEND
  5
14E
330
14B
100
AcDbEntity
  8
SEATS
  0
ARC
  5
14F
330
1F
100
AcDbEntity
  8
SEATS
100
AcDbCircle
 10
-71.21712025974513
 20
-21.78415063136795
 30
0.0
 40
1.0
100
AcDbArc
 50
329.9999999999997
 51
60.00264249453378
  0
SPLINE
  5
150
330
1F
100
AcDbEntity
  8
SEATS
100
AcDbSpline
210
0.0
220
0.0
230
1.0
 70
    24
 71
     2
 72
     6
 73
     3
 74
     0
 42
0.0000000001
 43
0.0000000001
 40
-60.9955967425711
 40
-60.9955967425711
 40
-60.9955967425711
 40
0.0
 40
0.0
 40
0.0
 10
-70.3510948559607
 20
-22.28415063136795
 30
0.0
 10
-85.59999404160342
 20
-48.69601878039692
 30
0.0
 10
-100.8488932272462
 20
-75.10788692942592
 30
0.0
  0
ARC
  5
151
330
1F
100
AcDbEntity
  8
SEATS
100
AcDbCircle
 10
-101.7149186310307
 20
-74.6078869294259
 30
0.0
 40
1.000000000000028
100
AcDbArc
 50
240.0000000000029
 51
330.0
  0
SPLINE
  5
152
330
1F
100
AcDbEntity
  8
FRAME
100
AcDbSpline
210
0.0
220
0.0
230
1.0
 70
    28
 71
     2
 72
     6
 73
     3
 74
     0
 42
0.0000000001
 43
0.0000000001
 40
90.77161747617808
 40
90.77161747617808
 40
90.77161747617808
 40
91.55901905098091
 40
91.55901905098091
 40
91.55901905098091
 10
-31.57498681753934
 20
-12.80818507240591
 30
0.0
 41
1.0
 10
-31.18128603013793
 20
-12.80818507240591
 30
0.0
 41
1.0
 10
-30.78758524273651
 20
-12.80818507240591
 30
0.0
 41
1.0
  0
POLYLINE
  5
153
330
1F
100
AcDbEntity
  8
FRAME
100
AcDb2dPolyline
 66
     1
 10
0.0
 20
0.0
 30
0.0
  0
VERTEX
  5
154
330
153
100
AcDbEntity
  8
FRAME
100
AcDbVertex
100
AcDb2dVertex
 10
-30.78758524273651
 20
-12.80818507240591
 30
0.0
  0
VERTEX
  5
155
330
153
100
AcDbEntity
  8
FRAME
100
AcDbVertex
100
AcDb2dVertex
 10
-30.78758524273651
 20
-11.80815806862906
 30
0.0
  0
SEQEND
  5
156
330
153
100
AcDbEntity
  8
FRAME
  0
SPLINE
  5
157
330
1F
100
AcDbEntity
  8
FRAME
100
AcDbSpline
210
0.0
220
0.0
230
1.0
 70
    12
 71
     2
 72
     6
 73
     3
 74
     0
 42
0.0000000001
 43
0.0000000001
 40
-15.16731824693112
 40
-15.16731824693112
 40
-15.16731824693112
 40
-14.37991667212829
 40
-14.37991667212829
 40
-14.37991667212829
 10
-30.78758524273651
 20
-11.80815806862906
 30
0.0
 41
1.0
 10
-31.18128603013791
 20
-11.80815806849473
 30
0.0
 41
1.0
 10
-31.57498681753934
 20
-11.80815806862509
 30
0.0
 41
1.0
  0
POLYLINE
  5
158
330
1F
100
AcDbEntity
  8
FRAME
100
AcDb2dPolyline
 66
     1
 10
0.0
 20
0.0
 30
0.0
  0
VERTEX
  5
159
330
158
100
AcDbEntity
  8
FRAME
100
AcDbVertex
100
AcDb2dVertex
 10
-31.57498681753934
 20
-11.80815806862509
 30
0.0
  0
VERTEX
  5
15A
330
158
100
AcDbEntity
  8
FRAME
100
AcDbVertex
100
AcDb2dVertex
 10
-31.57498681753934
 20
-12.80818507240591
 30
0.0
  0
SEQEND
  5
15B
330
158
100
AcDbEntity
  8
FRAME
  0
ARC
  5
15C
330
1F
100
AcDbEntity
  8
SEATS
100
AcDbCircle
 10
59.95217134138117
 20
17.57223355835161
 30
0.0
 40
0.9999999999990671
100
AcDbArc
 50
328.7755963426914
 51
59.99999999999922
  0
LINE
  5
15D
330
1F
100
AcDbEntity
  8
SEATS
100
AcDbLine
 10
60.45217134138072
 20
18.43825896213524
 30
0.0
 11
45.72451082914342
 21
26.94127772340891
 31
0.0
  0
ARC
  5
15E
330
1F
100
AcDbEntity
  8
SEATS
100
AcDbCircle
 10
45.22451082914337
 20
26.07525231962439
 30
0.0
 40
1.000000000000095
100
AcDbArc
 50
59.99999999999984
 51
148.0010176735859
  0
ARC
  5
15F
330
1F
100
AcDbEntity
  8
SEATS
100
AcDbCircle
 10
22.42803596101985
 20
40.31950779708452
 30
0.0
 40
25.88081249739552
100
AcDbArc
 50
271.999539151092
 51
328.0010176735881
  0
ARC
  5
160
330
1F
100
AcDbEntity
  8
SEATS
100
AcDbCircle
 10
23.36594670854595
 20
13.45506281957178
 30
0.0
 40
0.9999999999999858
100
AcDbArc
 50
91.9995391510952
 51
179.9999999999731
  0
LINE
  5
161
330
1F
100
AcDbEntity
  8
SEATS
100
AcDbLine
 10
22.36594670854596
 20
13.45506281957225
 30
0.0
 11
22.36594670854588
 21
-3.550978235844497
 31
0.0
  0
ARC
  5
162
330
1F
100
AcDbEntity
  8
SEATS
100
AcDbCircle
 10
23.36594670854586
 20
-3.550978235844312
 30
0.0
 40
0.9999999999999787
100
AcDbArc
 50
180.0000000000106
 51
271.2247446333776
  0
ARC
  5
163
330
1F
100
AcDbEntity
  8
SEATS
100
AcDbCircle
 10
22.42803596101992
 20
40.31950779708433
 30
0.0
 40
44.88051072327794
100
AcDbArc
 50
271.2247446333604
 51
328.7755963427476
  0
SPLINE
  5
164
330
1F
100
AcDbEntity
  8
FRAME
100
AcDbSpline
210
0.0
220
0.0
230
1.0
 70
    28
 71
     2
 72
     6
 73
     3
 74
     0
 42
0.0000000001
 43
0.0000000001
 40
-84.05883448269542
 40
-84.05883448269542
 40
-84.05883448269542
 40
-83.27143290789262
 40
-83.27143290789262
 40
-83.27143290789262
 10
12.51950137112478
 20
-5.05815806875944
 30
0.0
 41
1.0
 10
12.91320215852618
 20
-5.05815806875944
 30
0.0
 41
1.0
 10
13.30690294592758
 20
-5.05815806875944
 30
0.0
 41
1.0
  0
POLYLINE
  5
165
330
1F
100
AcDbEntity
  8
FRAME
100
AcDb2dPolyline
 66
     1
 10
0.0
 20
0.0
 30
0.0
  0
VERTEX
  5
166
330
165
100
AcDbEntity
  8
FRAME
100
AcDbVertex
100
AcDb2dVertex
 10
13.30690294592758
 20
-5.05815806875944
 30
0.0
  0
VERTEX
  5
167
330
165
100
AcDbEntity
  8
FRAME
100
AcDbVertex
100
AcDb2dVertex
 10
13.30690294592758
 20
-4.569978910875761
 30
0.0
  0
SEQEND
  5
168
330
165
100
AcDbEntity
  8
FRAME
  0
SPLINE
  5
169
330
1F
100
AcDbEntity
  8
FRAME
100
AcDbSpline
210
0.0
220
0.0
230
1.0
 70
    28
 71
     2
 72
     6
 73
     3
 74
     0
 42
0.0000000001
 43
0.0000000001
 40
8.059043762618385
 40
8.059043762618385
 40
8.059043762618385
 40
8.846445337421189
 40
8.846445337421189
 40
8.846445337421189
 10
13.30690294592758
 20
-4.569978910875761
 30
0.0
 41
1.0
 10
12.91320215852618
 20
-4.569978910875761
 30
0.0
 41
1.0
 10
12.51950137112478
 20
-4.569978910875761
 30
0.0
 41
1.0
  0
POLYLINE
  5
16A
330
1F
100
AcDbEntity
  8
FRAME
100
AcDb2dPolyline
 66
     1
 10
0.0
 20
0.0
 30
0.0
  0
VERTEX
  5
16B
330
16A
100
AcDbEntity
  8
FRAME
100
AcDbVertex
100
AcDb2dVertex
 10
12.51950137112478
 20
-4.569978910875761
 30
0.0
  0
VERTEX
  5
16C
330
16A
100
AcDbEntity
  8
FRAME
100
AcDbVertex
100
AcDb2dVertex
 10
12.51950137112478
 20
-5.05815806875944
 30
0.0
  0
SEQEND
  5
16D
330
16A
100
AcDbEntity
  8
FRAME
  0
SPLINE
  5
16E
330
1F
100
AcDbEntity
  8
STOOL
100
AcDbSpline
210
0.0
220
0.0
230
1.0
 70
    12
 71
     2
 72
     8
 73
     5
 74
     0
 42
0.0000000001
 43
0.0000000001
 40
-25.13274122872569
 40
-25.13274122872569
 40
-25.13274122872569
 40
-12.56637061436551
 40
-12.56637061436551
 40
0.0
 40
0.0
 40
0.0
 10
106.9910727462343
 20
50.92695824949328
 30
0.0
 41
1.0
 10
99.26365639307028
 20
48.85644224981358
 30
0.0
 41
0.7071067811860381
 10
101.334172392761
 20
41.12902589665248
 30
0.0
 41
1.0
 10
103.4046883924512
 20
33.40160954349358
 30
0.0
 41
0.7071067811867299
 10
111.1321047456112
 20
35.47212554317977
 30
0.0
 41
1.0
  0
SPLINE
  5
16F
330
1F
100
AcDbEntity
  8
STOOL
100
AcDbSpline
210
0.0
220
0.0
230
1.0
 70
    12
 71
     2
 72
     8
 73
     5
 74
     0
 42
0.0000000001
 43
0.0000000001
 40
-25.13274122872577
 40
-25.13274122872577
 40
-25.13274122872577
 40
-12.56637061436556
 40
-12.56637061436556
 40
0.0
 40
0.0
 40
0.0
 10
111.1321047456112
 20
35.47212554317977
 30
0.0
 41
1.0
 10
118.8595210987752
 20
37.54264154285949
 30
0.0
 41
0.7071067811860453
 10
116.7890050990845
 20
45.27005789602057
 30
0.0
 41
1.0
 10
114.7184890993943
 20
52.99747424917958
 30
0.0
 41
0.7071067811867265
 10
106.9910727462343
 20
50.92695824949328
 30
0.0
 41
1.0
  0
SPLINE
  5
170
330
1F
100
AcDbEntity
  8
STOOL
100
AcDbSpline
210
0.0
220
0.0
230
1.0
 70
    12
 71
     2
 72
     6
 73
     3
 74
     0
 42
0.0000000001
 43
0.0000000001
 40
-50.26548245745145
 40
-50.26548245745145
 40
-50.26548245745145
 40
-49.23389260139567
 40
-49.23389260139567
 40
-49.23389260139567
 10
106.9910727462343
 20
50.92695824949328
 30
0.0
 41
1.0
 10
106.5314661316582
 20
50.80380934621866
 30
0.0
 41
0.9759560112694166
 10
106.0896973375452
 20
50.62704898559578
 30
0.0
 41
0.9558596277201168
  0
SPLINE
  5
171
330
1F
100
AcDbEntity
  8
STOOL
100
AcDbSpline
210
0.0
220
0.0
230
1.0
 70
     8
 71
     3
 72
    19
 73
    15
 74
     0
 42
0.0000000001
 43
0.0000000001
 40
0.0
 40
0.0
 40
0.0
 40
0.0
 40
0.1561093611267493
 40
0.3157928697477171
 40
0.6276046595518007
 40
0.9402628561701776
 40
1.255153859546715
 40
1.255153859546715
 40
1.255153859546715
 40
1.410258957899611
 40
1.567068035645071
 40
1.880720996838474
 40
2.194012832604372
 40
2.510307389915909
 40
2.510307389915909
 40
2.510307389915909
 40
2.510307389915909
 10
106.0896973375452
 20
50.62704898559579
 30
0.0
 10
106.0925771277356
 20
50.67900391097857
 30
0.0
 10
106.1064384994426
 20
50.78366737443207
 30
0.0
 10
106.1656549090865
 20
50.98497150776228
 30
0.0
 10
106.2970546233819
 20
51.21460941769749
 30
0.0
 10
106.5316558829006
 20
51.42784199785919
 30
0.0
 10
106.7249913045504
 20
51.51445744936578
 30
0.0
 10
106.8263857850626
 20
51.54158992442538
 30
0.0
 10
106.8763266204972
 20
51.55498562217977
 30
0.0
 10
106.9788653380881
 20
51.57396081161457
 30
0.0
 10
107.1879838245291
 20
51.57943267980517
 30
0.0
 10
107.4466089009021
 20
51.52387401511749
 30
0.0
 10
107.7218417815492
 20
51.36400883696317
 30
0.0
 10
107.8639637985489
 20
51.20615915293189
 30
0.0
 10
107.9216419654741
 20
51.11790797430837
 30
0.0
  0
SPLINE
  5
172
330
1F
100
AcDbEntity
  8
STOOL
100
AcDbSpline
210
0.0
220
0.0
230
1.0
 70
    12
 71
     2
 72
     6
 73
     3
 74
     0
 42
0.0000000001
 43
0.0000000001
 40
-1.031588555045344
 40
-1.031588555045344
 40
-1.031588555045344
 40
0.0
 40
0.0
 40
0.0
 10
107.9216419654741
 20
51.11790797430837
 30
0.0
 41
0.9558596784101664
 10
107.4506787668878
 20
51.05010699363026
 30
0.0
 41
0.9759560415930468
 10
106.9910727462343
 20
50.92695824949328
 30
0.0
 41
1.0
  0
ENDSEC
  0
SECTION
  2
OBJECTS
  0
DICTIONARY
  5
C
330
0
100
AcDbDictionary
281
     1
  3
ACAD_GROUP
350
D
  3
ACAD_LAYOUT
350
1A
  3
ACAD_MLEADERSTYLE
350
174
  3
ACAD_MLINESTYLE
350
17
  3
ACAD_PLOTSETTINGS
350
19
  3
ACAD_PLOTSTYLENAME
350
E
  3
ACAD_TABLESTYLE
350
173
  3
ACAD_VISUALSTYLE
350
2A
  0
DICTIONARY
  5
D
102
{ACAD_REACTORS
330
C
102
}
330
C
100
AcDbDictionary
281
     1
  0
DICTIONARY
  5
1A
102
{ACAD_REACTORS
330
C
102
}
330
C
100
AcDbDictionary
281
     1
  3
Layout1
350
1E
  3
Layout2
350
26
  3
Model
350
22
  0
DICTIONARY
  5
174
102
{ACAD_REACTORS
330
C
102
}
330
C
100
AcDbDictionary
281
     1
  0
DICTIONARY
  5
17
102
{ACAD_REACTORS
330
C
102
}
330
C
100
AcDbDictionary
281
     1
  3
Standard
350
18
  0
DICTIONARY
  5
19
102
{ACAD_REACTORS
330
C
102
}
330
C
100
AcDbDictionary
281
     1
  0
ACDBDICTIONARYWDFLT
  5
E
102
{ACAD_REACTORS
330
C
102
}
330
C
100
AcDbDictionary
281
     1
  3
Normal
350
F
100
AcDbDictionaryWithDefault
340
F
  0
DICTIONARY
  5
173
102
{ACAD_REACTORS
330
C
102
}
330
C
100
AcDbDictionary
281
     1
  0
DICTIONARY
  5
2A
102
{ACAD_REACTORS
330
C
102
}
330
C
100
AcDbDictionary
281
     1
  3
2dWireframe
350
2F
  3
3D Hidden
350
31
  3
3dWireframe
350
30
  3
Basic
350
32
  3
Brighten
350
36
  3
ColorChange
350
3A
  3
Conceptual
350
34
  3
Dim
350
35
  3
Facepattern
350
39
  3
Flat
350
2B
  3
FlatWithEdges
350
2C
  3
Gouraud
350
2D
  3
GouraudWithEdges
350
2E
  3
Linepattern
350
38
  3
Realistic
350
33
  3
Thicken
350
37
  0
LAYOUT
  5
1E
102
{ACAD_REACTORS
330
1A
102
}
330
1A
100
AcDbPlotSettings
  1

  2
none_device
  4

  6

 40
0.0
 41
0.0
 42
0.0
 43
0.0
 44
0.0
 45
0.0
 46
0.0
 47
0.0
 48
0.0
 49
0.0
140
0.0
141
0.0
142
1.0
143
1.0
 70
   688
 72
     0
 73
     0
 74
     5
  7

 75
    16
 76
     0
 77
     2
 78
   300
147
1.0
148
0.0
149
0.0
100
AcDbLayout
  1
Layout1
 70
     1
 71
     1
 10
0.0
 20
0.0
 11
12.0
 21
9.0
 12
0.0
 22
0.0
 32
0.0
 14
1.000000000000000E+20
 24
1.000000000000000E+20
 34
1.000000000000000E+20
 15
-1.000000000000000E+20
 25
-1.000000000000000E+20
 35
-1.000000000000000E+20
146
0.0
 13
0.0
 23
0.0
 33
0.0
 16
1.0
 26
0.0
 36
0.0
 17
0.0
 27
1.0
 37
0.0
 76
     0
330
1B
  0
LAYOUT
  5
26
102
{ACAD_REACTORS
330
1A
102
}
330
1A
100
AcDbPlotSettings
  1

  2
none_device
  4

  6

 40
0.0
 41
0.0
 42
0.0
 43
0.0
 44
0.0
 45
0.0
 46
0.0
 47
0.0
 48
0.0
 49
0.0
140
0.0
141
0.0
142
1.0
143
1.0
 70
   688
 72
     0
 73
     0
 74
     5
  7

 75
    16
 76
     0
 77
     2
 78
   300
147
1.0
148
0.0
149
0.0
100
AcDbLayout
  1
Layout2
 70
     1
 71
     2
 10
0.0
 20
0.0
 11
0.0
 21
0.0
 12
0.0
 22
0.0
 32
0.0
 14
0.0
 24
0.0
 34
0.0
 15
0.0
 25
0.0
 35
0.0
146
0.0
 13
0.0
 23
0.0
 33
0.0
 16
1.0
 26
0.0
 36
0.0
 17
0.0
 27
1.0
 37
0.0
 76
     0
330
23
  0
LAYOUT
  5
22
102
{ACAD_REACTORS
330
1A
102
}
330
1A
100
AcDbPlotSettings
  1

  2
none_device
  4

  6

 40
0.0
 41
0.0
 42
0.0
 43
0.0
 44
0.0
 45
0.0
 46
0.0
 47
0.0
 48
0.0
 49
0.0
140
0.0
141
0.0
142
1.0
143
1.0
 70
  1712
 72
     0
 73
     0
 74
     0
  7

 75
     0
 76
     0
 77
     2
 78
   300
147
1.0
148
0.0
149
0.0
100
AcDbLayout
  1
Model
 70
     1
 71
     0
 10
0.0
 20
0.0
 11
12.0
 21
9.0
 12
0.0
 22
0.0
 32
0.0
 14
-117.4358150080946
 24
-81.62276299871853
 34
0.0
 15
117.4359454214135
 25
81.62392003898489
 35
0.0
146
0.0
 13
0.0
 23
0.0
 33
0.0
 16
1.0
 26
0.0
 36
0.0
 17
0.0
 27
1.0
 37
0.0
 76
     0
330
1F
331
29
  0
MLINESTYLE
  5
18
102
{ACAD_REACTORS
330
17
102
}
330
17
100
AcDbMlineStyle
  2
Standard
 70
     0
  3

 62
   256
 51
90.0
 52
90.0
 71
     2
 49
0.5
 62
   256
  6
BYLAYER
 49
-0.5
 62
   256
  6
BYLAYER
  0
ACDBPLACEHOLDER
  5
F
102
{ACAD_REACTORS
330
E
102
}
330
E
  0
VISUALSTYLE
  5
2F
102
{ACAD_REACTORS
330
2A
102
}
330
2A
100
AcDbVisualStyle
  2
2dWireframe
 70
     4
 71
     0
 72
     2
 73
     0
 90
        0
 40
-0.6
 41
-30.0
 62
     5
 63
     7
421
 16777215
 74
     1
 91
        4
 64
     7
 65
   257
 75
     1
175
     1
 42
1.0
 92
        0
 66
   257
 43
1.0
 76
     1
 77
     6
 78
     2
 67
     7
 79
     5
170
     0
171
     0
290
     0
174
     0
 93
        1
 44
0.0
173
     0
291
     0
 45
0.0
1001
ACAD
1000
AcDbSavedByObjectVersion
1070
     0
  0
VISUALSTYLE
  5
31
102
{ACAD_REACTORS
330
2A
102
}
330
2A
100
AcDbVisualStyle
  2
3D Hidden
 70
     6
 71
     1
 72
     2
 73
     2
 90
        0
 40
-0.6
 41
-30.0
 62
     5
 63
     7
421
 16777215
 74
     2
 91
        2
 64
     7
 65
   257
 75
     2
175
     1
 42
40.0
 92
        0
 66
   257
 43
1.0
 76
     1
 77
     6
 78
     2
 67
     7
 79
     3
170
     0
171
     0
290
     0
174
     0
 93
        1
 44
0.0
173
     0
291
     0
 45
0.0
1001
ACAD
1000
AcDbSavedByObjectVersion
1070
     0
  0
VISUALSTYLE
  5
30
102
{ACAD_REACTORS
330
2A
102
}
330
2A
100
AcDbVisualStyle
  2
3dWireframe
 70
     5
 71
     0
 72
     2
 73
     0
 90
        0
 40
-0.6
 41
-30.0
 62
     5
 63
     7
421
 16777215
 74
     1
 91
        4
 64
     7
 65
   257
 75
     1
175
     1
 42
1.0
 92
        0
 66
   257
 43
1.0
 76
     1
 77
     6
 78
     2
 67
     7
 79
     5
170
     0
171
     0
290
     0
174
     0
 93
        1
 44
0.0
173
     0
291
     0
 45
0.0
1001
ACAD
1000
AcDbSavedByObjectVersion
1070
     0
  0
VISUALSTYLE
  5
32
102
{ACAD_REACTORS
330
2A
102
}
330
2A
100
AcDbVisualStyle
  2
Basic
 70
     7
 71
     1
 72
     0
 73
     1
 90
        0
 40
-0.6
 41
-30.0
 62
     5
 63
     7
421
 16777215
 74
     0
 91
        4
 64
     7
 65
   257
 75
     1
175
     1
 42
1.0
 92
        8
 66
     7
 43
1.0
 76
     1
 77
     6
 78
     2
 67
     7
 79
     5
170
     0
171
     0
290
     0
174
     0
 93
        1
 44
0.0
173
     0
291
     1
 45
0.0
1001
ACAD
1000
AcDbSavedByObjectVersion
1070
     0
  0
VISUALSTYLE
  5
36
102
{ACAD_REACTORS
330
2A
102
}
330
2A
100
AcDbVisualStyle
  2
Brighten
 70
    12
 71
     2
 72
     2
 73
     0
 90
        0
 40
-0.6
 41
-30.0
 62
     5
 63
     7
421
 16777215
 74
     1
 91
        4
 64
     7
 65
   257
 75
     1
175
     1
 42
1.0
 92
        8
 66
     7
 43
1.0
 76
     1
 77
     6
 78
     2
 67
     7
 79
     5
170
     0
171
     0
290
     0
174
     0
 93
        1
 44
50.0
173
     0
291
     1
 45
0.0
1001
ACAD
1000
AcDbSavedByObjectVersion
1070
     0
  0
VISUALSTYLE
  5
3A
102
{ACAD_REACTORS
330
2A
102
}
330
2A
100
AcDbVisualStyle
  2
ColorChange
 70
    16
 71
     2
 72
     2
 73
     3
 90
        0
 40
-0.6
 41
-30.0
 62
     5
 63
     8
421
  8421504
 74
     1
 91
        4
 64
     7
 65
   257
 75
     1
175
     1
 42
1.0
 92
        8
 66
     8
424
  8421504
 43
1.0
 76
     1
 77
     6
 78
     2
 67
     7
 79
     5
170
     0
171
     0
290
     0
174
     0
 93
        1
 44
0.0
173
     0
291
     1
 45
0.0
1001
ACAD
1000
AcDbSavedByObjectVersion
1070
     0
  0
VISUALSTYLE
  5
34
102
{ACAD_REACTORS
330
2A
102
}
330
2A
100
AcDbVisualStyle
  2
Conceptual
 70
     9
 71
     3
 72
     2
 73
     0
 90
        0
 40
-0.6
 41
-30.0
 62
     5
 63
     7
421
 16777215
 74
     2
 91
        2
 64
     7
 65
   257
 75
     1
175
     1
 42
40.0
 92
        8
 66
     7
 43
1.0
 76
     1
 77
     6
 78
     2
 67
     7
 79
     3
170
     0
171
     0
290
     0
174
     0
 93
        1
 44
0.0
173
     0
291
     0
 45
0.0
1001
ACAD
1000
AcDbSavedByObjectVersion
1070
     0
  0
VISUALSTYLE
  5
35
102
{ACAD_REACTORS
330
2A
102
}
330
2A
100
AcDbVisualStyle
  2
Dim
 70
    11
 71
     2
 72
     2
 73
     0
 90
        0
 40
-0.6
 41
-30.0
 62
     5
 63
     7
421
 16777215
 74
     1
 91
        4
 64
     7
 65
   257
 75
     1
175
     1
 42
1.0
 92
        8
 66
     7
 43
1.0
 76
     1
 77
     6
 78
     2
 67
     7
 79
     5
170
     0
171
     0
290
     0
174
     0
 93
        1
 44
-50.0
173
     0
291
     1
 45
0.0
1001
ACAD
1000
AcDbSavedByObjectVersion
1070
     0
  0
VISUALSTYLE
  5
39
102
{ACAD_REACTORS
330
2A
102
}
330
2A
100
AcDbVisualStyle
  2
Facepattern
 70
    15
 71
     2
 72
     2
 73
     0
 90
        0
 40
-0.6
 41
-30.0
 62
     5
 63
     7
421
 16777215
 74
     1
 91
        4
 64
     7
 65
   257
 75
     1
175
     1
 42
1.0
 92
        8
 66
     7
 43
1.0
 76
     1
 77
     6
 78
     2
 67
     7
 79
     5
170
     0
171
     0
290
     0
174
     0
 93
        1
 44
0.0
173
     0
291
     1
 45
0.0
1001
ACAD
1000
AcDbSavedByObjectVersion
1070
     0
  0
VISUALSTYLE
  5
2B
102
{ACAD_REACTORS
330
2A
102
}
330
2A
100
AcDbVisualStyle
  2
Flat
 70
     0
 71
     2
 72
     1
 73
     1
 90
        2
 40
-0.6
 41
30.0
 62
     5
 63
     7
421
 16777215
 74
     0
 91
        4
 64
     7
 65
   257
 75
     1
175
     1
 42
1.0
 92
        8
 66
     7
 43
1.0
 76
     1
 77
     6
 78
     2
 67
     7
 79
     5
170
     0
171
     0
290
     0
174
     0
 93
       13
 44
0.0
173
     0
291
     1
 45
0.0
1001
ACAD
1000
AcDbSavedByObjectVersion
1070
     0
  0
VISUALSTYLE
  5
2C
102
{ACAD_REACTORS
330
2A
102
}
330
2A
100
AcDbVisualStyle
  2
FlatWithEdges
 70
     1
 71
     2
 72
     1
 73
     1
 90
        2
 40
-0.6
 41
30.0
 62
     5
 63
     7
421
 16777215
 74
     1
 91
        4
 64
     7
 65
   257
 75
     1
175
     1
 42
1.0
 92
        0
 66
   257
 43
1.0
 76
     1
 77
     6
 78
     2
 67
     7
 79
     5
170
     0
171
     0
290
     0
174
     0
 93
       13
 44
0.0
173
     0
291
     1
 45
0.0
1001
ACAD
1000
AcDbSavedByObjectVersion
1070
     0
  0
VISUALSTYLE
  5
2D
102
{ACAD_REACTORS
330
2A
102
}
330
2A
100
AcDbVisualStyle
  2
Gouraud
 70
     2
 71
     2
 72
     2
 73
     1
 90
        2
 40
-0.6
 41
30.0
 62
     5
 63
     7
421
 16777215
 74
     0
 91
        4
 64
     7
 65
   257
 75
     1
175
     1
 42
1.0
 92
        0
 66
     7
 43
1.0
 76
     1
 77
     6
 78
     2
 67
     7
 79
     5
170
     0
171
     0
290
     0
174
     0
 93
       13
 44
0.0
173
     0
291
     1
 45
0.0
1001
ACAD
1000
AcDbSavedByObjectVersion
1070
     0
  0
VISUALSTYLE
  5
2E
102
{ACAD_REACTORS
330
2A
102
}
330
2A
100
AcDbVisualStyle
  2
GouraudWithEdges
 70
     3
 71
     2
 72
     2
 73
     1
 90
        2
 40
-0.6
 41
30.0
 62
     5
 63
     7
421
 16777215
 74
     1
 91
        4
 64
     7
 65
   257
 75
     1
175
     1
 42
1.0
 92
        0
 66
   257
 43
1.0
 76
     1
 77
     6
 78
     2
 67
     7
 79
     5
170
     0
171
     0
290
     0
174
     0
 93
       13
 44
0.0
173
     0
291
     1
 45
0.0
1001
ACAD
1000
AcDbSavedByObjectVersion
1070
     0
  0
VISUALSTYLE
  5
38
102
{ACAD_REACTORS
330
2A
102
}
330
2A
100
AcDbVisualStyle
  2
Linepattern
 70
    14
 71
     2
 72
     2
 73
     0
 90
        0
 40
-0.6
 41
-30.0
 62
     5
 63
     7
421
 16777215
 74
     1
 91
        4
 64
     7
 65
   257
 75
     7
175
     7
 42
1.0
 92
        8
 66
     7
 43
1.0
 76
     1
 77
     6
 78
     2
 67
     7
 79
     5
170
     0
171
     0
290
     0
174
     0
 93
        1
 44
0.0
173
     0
291
     1
 45
0.0
1001
ACAD
1000
AcDbSavedByObjectVersion
1070
     0
  0
VISUALSTYLE
  5
33
102
{ACAD_REACTORS
330
2A
102
}
330
2A
100
AcDbVisualStyle
  2
Realistic
 70
     8
 71
     2
 72
     2
 73
     0
 90
        0
 40
-0.6
 41
-30.0
 62
     5
 63
     7
421
 16777215
 74
     1
 91
        0
 64
     7
 65
   257
 75
     1
175
     1
 42
1.0
 92
        8
 66
     8
424
  7895160
 43
1.0
 76
     1
 77
     6
 78
     2
 67
     7
 79
     5
170
     0
171
     0
290
     0
174
     0
 93
       13
 44
0.0
173
     0
291
     0
 45
0.0
1001
ACAD
1000
AcDbSavedByObjectVersion
1070
     0
  0
VISUALSTYLE
  5
37
102
{ACAD_REACTORS
330
2A
102
}
330
2A
100
AcDbVisualStyle
  2
Thicken
 70
    13
 71
     2
 72
     2
 73
     0
 90
        0
 40
-0.6
 41
-30.0
 62
     5
 63
     7
421
 16777215
 74
     1
 91
        4
 64
     7
 65
   257
 75
     1
175
     1
 42
1.0
 92
       12
 66
     7
 43
1.0
 76
     1
 77
     6
 78
     2
 67
     7
 79
     5
170
     0
171
     0
290
     0
174
     0
 93
        1
 44
0.0
173
     0
291
     1
 45
0.0
1001
ACAD
1000
AcDbSavedByObjectVersion
1070
     0
  0
ENDSEC
  0
EOF
