  0
SECTION
  2
HEADER
  9
$ACADVER
  1
AC1018
  9
$ACADMAINTVER
 70
     0
  9
$DWGCODEPAGE
  3
ANSI_1252
  9
$INSBASE
 10
0.0
 20
0.0
 30
0.0
  9
$EXTMIN
 10
-115.8114533171887
 20
-107.9296620071639
 30
0.0
  9
$EXTMAX
 10
115.8114533171888
 20
107.929662007164
 30
0.0
  9
$LIMMIN
 10
0.0
 20
0.0
  9
$LIMMAX
 10
12.0
 20
9.0
  9
$ORTHOMODE
 70
     0
  9
$REGENMODE
 70
     1
  9
$FILLMODE
 70
     1
  9
$QTEXTMODE
 70
     0
  9
$MIRRTEXT
 70
     1
  9
$LTSCALE
 40
0.0393700787401575
  9
$ATTMODE
 70
     1
  9
$TEXTSIZE
 40
0.2
  9
$TRACEWID
 40
0.05
  9
$TEXTSTYLE
  7
Standard
  9
$CLAYER
  8
SEATS
  9
$CELTYPE
  6
ByLayer
  9
$CECOLOR
 62
   256
  9
$CELTSCALE
 40
1.0
  9
$DISPSILH
 70
     0
  9
$DIMSCALE
 40
1.0
  9
$DIMASZ
 40
0.18
  9
$DIMEXO
 40
0.0625
  9
$DIMDLI
 40
0.38
  9
$DIMRND
 40
0.0
  9
$DIMDLE
 40
0.0
  9
$DIMEXE
 40
0.18
  9
$DIMTP
 40
0.0
  9
$DIMTM
 40
0.0
  9
$DIMTXT
 40
0.18
  9
$DIMCEN
 40
0.09
  9
$DIMTSZ
 40
0.0
  9
$DIMTOL
 70
     0
  9
$DIMLIM
 70
     0
  9
$DIMTIH
 70
     1
  9
$DIMTOH
 70
     1
  9
$DIMSE1
 70
     0
  9
$DIMSE2
 70
     0
  9
$DIMTAD
 70
     0
  9
$DIMZIN
 70
     0
  9
$DIMBLK
  1

  9
$DIMASO
 70
     1
  9
$DIMSHO
 70
     1
  9
$DIMPOST
  1

  9
$DIMAPOST
  1

  9
$DIMALT
 70
     0
  9
$DIMALTD
 70
     2
  9
$DIMALTF
 40
25.4
  9
$DIMLFAC
 40
1.0
  9
$DIMTOFL
 70
     0
  9
$DIMTVP
 40
0.0
  9
$DIMTIX
 70
     0
  9
$DIMSOXD
 70
     0
  9
$DIMSAH
 70
     0
  9
$DIMBLK1
  1

  9
$DIMBLK2
  1

  9
$DIMSTYLE
  2
Standard
  9
$DIMCLRD
 70
     0
  9
$DIMCLRE
 70
     0
  9
$DIMCLRT
 70
     0
  9
$DIMTFAC
 40
1.0
  9
$DIMGAP
 40
0.09
  9
$DIMJUST
 70
     0
  9
$DIMSD1
 70
     0
  9
$DIMSD2
 70
     0
  9
$DIMTOLJ
 70
     1
  9
$DIMTZIN
 70
     0
  9
$DIMALTZ
 70
     0
  9
$DIMALTTZ
 70
     0
  9
$DIMUPT
 70
     0
  9
$DIMDEC
 70
     4
  9
$DIMTDEC
 70
     4
  9
$DIMALTU
 70
     2
  9
$DIMALTTD
 70
     2
  9
$DIMTXSTY
  7
Standard
  9
$DIMAUNIT
 70
     0
  9
$DIMADEC
 70
     0
  9
$DIMALTRND
 40
0.0
  9
$DIMAZIN
 70
     0
  9
$DIMDSEP
 70
    46
  9
$DIMATFIT
 70
     3
  9
$DIMFRAC
 70
     0
  9
$DIMLDRBLK
  1

  9
$DIMLUNIT
 70
     2
  9
$DIMLWD
 70
    -2
  9
$DIMLWE
 70
    -2
  9
$DIMTMOVE
 70
     2
  9
$LUNITS
 70
     2
  9
$LUPREC
 70
     3
  9
$SKETCHINC
 40
0.1
  9
$FILLETRAD
 40
0.5
  9
$AUNITS
 70
     0
  9
$AUPREC
 70
     0
  9
$MENU
  1
.
  9
$ELEVATION
 40
0.0
  9
$PELEVATION
 40
0.0
  9
$THICKNESS
 40
0.0
  9
$LIMCHECK
 70
     0
  9
$CHAMFERA
 40
0.5
  9
$CHAMFERB
 40
0.5
  9
$CHAMFERC
 40
1.0
  9
$CHAMFERD
 40
0.0
  9
$SKPOLY
 70
     0
  9
$TDCREATE
 40
2457539.95980287
  9
$TDUCREATE
 40
2457540.126469537
  9
$TDUPDATE
 40
2457539.959802882
  9
$TDUUPDATE
 40
2457540.126469549
  9
$TDINDWG
 40
0.0000000116
  9
$TDUSRTIMER
 40
0.0000000116
  9
$USRTIMER
 70
     1
  9
$ANGBASE
 50
0.0
  9
$ANGDIR
 70
     0
  9
$PDMODE
 70
     0
  9
$PDSIZE
 40
0.0
  9
$PLINEWID
 40
0.0
  9
$SPLFRAME
 70
     0
  9
$SPLINETYPE
 70
     6
  9
$SPLINESEGS
 70
     8
  9
$HANDSEED
  5
23A
  9
$SURFTAB1
 70
     6
  9
$SURFTAB2
 70
     6
  9
$SURFTYPE
 70
     6
  9
$SURFU
 70
     6
  9
$SURFV
 70
     6
  9
$UCSBASE
  2

  9
$UCSNAME
  2

  9
$UCSORG
 10
0.0
 20
0.0
 30
0.0
  9
$UCSXDIR
 10
1.0
 20
0.0
 30
0.0
  9
$UCSYDIR
 10
0.0
 20
1.0
 30
0.0
  9
$UCSORTHOREF
  2

  9
$UCSORTHOVIEW
 70
     0
  9
$UCSORGTOP
 10
0.0
 20
0.0
 30
0.0
  9
$UCSORGBOTTOM
 10
0.0
 20
0.0
 30
0.0
  9
$UCSORGLEFT
 10
0.0
 20
0.0
 30
0.0
  9
$UCSORGRIGHT
 10
0.0
 20
0.0
 30
0.0
  9
$UCSORGFRONT
 10
0.0
 20
0.0
 30
0.0
  9
$UCSORGBACK
 10
0.0
 20
0.0
 30
0.0
  9
$PUCSBASE
  2

  9
$PUCSNAME
  2

  9
$PUCSORG
 10
0.0
 20
0.0
 30
0.0
  9
$PUCSXDIR
 10
1.0
 20
0.0
 30
0.0
  9
$PUCSYDIR
 10
0.0
 20
1.0
 30
0.0
  9
$PUCSORTHOREF
  2

  9
$PUCSORTHOVIEW
 70
     0
  9
$PUCSORGTOP
 10
0.0
 20
0.0
 30
0.0
  9
$PUCSORGBOTTOM
 10
0.0
 20
0.0
 30
0.0
  9
$PUCSORGLEFT
 10
0.0
 20
0.0
 30
0.0
  9
$PUCSORGRIGHT
 10
0.0
 20
0.0
 30
0.0
  9
$PUCSORGFRONT
 10
0.0
 20
0.0
 30
0.0
  9
$PUCSORGBACK
 10
0.0
 20
0.0
 30
0.0
  9
$USERI1
 70
     0
  9
$USERI2
 70
     0
  9
$USERI3
 70
     0
  9
$USERI4
 70
     0
  9
$USERI5
 70
     0
  9
$USERR1
 40
0.0
  9
$USERR2
 40
0.0
  9
$USERR3
 40
0.0
  9
$USERR4
 40
0.0
  9
$USERR5
 40
0.0
  9
$WORLDVIEW
 70
     1
  9
$SHADEDGE
 70
     3
  9
$SHADEDIF
 70
    70
  9
$TILEMODE
 70
     1
  9
$MAXACTVP
 70
    64
  9
$PINSBASE
 10
0.0
 20
0.0
 30
0.0
  9
$PLIMCHECK
 70
     0
  9
$PEXTMIN
 10
1.000000000000000E+20
 20
1.000000000000000E+20
 30
1.000000000000000E+20
  9
$PEXTMAX
 10
-1.000000000000000E+20
 20
-1.000000000000000E+20
 30
-1.000000000000000E+20
  9
$PLIMMIN
 10
0.0
 20
0.0
  9
$PLIMMAX
 10
12.0
 20
9.0
  9
$UNITMODE
 70
     0
  9
$VISRETAIN
 70
     1
  9
$PLINEGEN
 70
     0
  9
$PSLTSCALE
 70
     1
  9
$TREEDEPTH
 70
  3020
  9
$CMLSTYLE
  2
Standard
  9
$CMLJUST
 70
     0
  9
$CMLSCALE
 40
1.0
  9
$PROXYGRAPHICS
 70
     1
  9
$MEASUREMENT
 70
     0
  9
$CELWEIGHT
370
    -1
  9
$ENDCAPS
280
     0
  9
$JOINSTYLE
280
     0
  9
$LWDISPLAY
290
     0
  9
$INSUNITS
 70
     1
  9
$HYPERLINKBASE
  1

  9
$STYLESHEET
  1

  9
$XEDIT
290
     1
  9
$CEPSNTYPE
380
     0
  9
$PSTYLEMODE
290
     1
  9
$FINGERPRINTGUID
  2
{8A5159D5-467B-428E-82B0-1FB4CDA65D36}
  9
$VERSIONGUID
  2
{FAEB1C32-E019-11D5-929B-00C0DF256EC4}
  9
$EXTNAMES
290
     1
  9
$PSVPSCALE
 40
0.0
  9
$OLESTARTUP
290
     0
  9
$SORTENTS
280
   127
  9
$INDEXCTL
280
     0
  9
$HIDETEXT
280
     1
  9
$XCLIPFRAME
290
     0
  9
$HALOGAP
280
     0
  9
$OBSCOLOR
 70
   257
  9
$OBSLTYPE
280
     0
  9
$INTERSECTIONDISPLAY
280
     0
  9
$INTERSECTIONCOLOR
 70
   257
  9
$DIMASSOC
280
     2
  9
$PROJECTNAME
  1

  0
ENDSEC
  0
SECTION
  2
CLASSES
  0
CLASS
  1
ACDBDICTIONARYWDFLT
  2
AcDbDictionaryWithDefault
  3
ObjectDBX Classes
 90
        0
 91
        4
280
     0
281
     0
  0
CLASS
  1
VISUALSTYLE
  2
AcDbVisualStyle
  3
ObjectDBX Classes
 90
     4095
 91
        4
280
     0
281
     0
  0
ENDSEC
  0
SECTION
  2
TABLES
  0
TABLE
  2
VPORT
  5
8
330
0
100
AcDbSymbolTable
 70
     1
  0
VPORT
  5
29
330
8
100
AcDbSymbolTableRecord
100
AcDbViewportTableRecord
  2
*Active
 70
     0
 10
0.0
 20
0.0
 11
1.0
 21
1.0
 12
0.0
 22
0.0
 13
0.0
 23
0.0
 14
0.5
 24
0.5
 15
0.5
 25
0.5
 16
0.0
 26
0.0
 36
1.0
 17
0.0000000000000142
 27
0.0000000000000142
 37
0.0
 40
220.1765104946145
 41
1.073027110096033
 42
50.0
 43
0.0
 44
0.0
 50
0.0
 51
0.0
 71
     0
 72
   100
 73
     1
 74
     3
 75
     0
 76
     0
 77
     0
 78
     0
281
     0
 65
     1
110
0.0
120
0.0
130
0.0
111
1.0
121
0.0
131
0.0
112
0.0
122
1.0
132
0.0
 79
     0
146
0.0
  0
ENDTAB
  0
TABLE
  2
LTYPE
  5
5
330
0
100
AcDbSymbolTable
 70
     1
  0
LTYPE
  5
14
330
5
100
AcDbSymbolTableRecord
100
AcDbLinetypeTableRecord
  2
ByBlock
 70
     0
  3

 72
    65
 73
     0
 40
0.0
  0
LTYPE
  5
15
330
5
100
AcDbSymbolTableRecord
100
AcDbLinetypeTableRecord
  2
ByLayer
 70
     0
  3

 72
    65
 73
     0
 40
0.0
  0
LTYPE
  5
16
330
5
100
AcDbSymbolTableRecord
100
AcDbLinetypeTableRecord
  2
Continuous
 70
     0
  3
Solid line
 72
    65
 73
     0
 40
0.0
  0
ENDTAB
  0
TABLE
  2
LAYER
  5
2
330
0
100
AcDbSymbolTable
 70
     6
  0
LAYER
  5
10
330
2
100
AcDbSymbolTableRecord
100
AcDbLayerTableRecord
  2
0
 70
     0
 62
     7
  6
Continuous
370
    -3
390
F
  0
LAYER
  5
3B
330
2
100
AcDbSymbolTableRecord
100
AcDbLayerTableRecord
  2
SEATS
 70
     0
 62
   251
  6
Continuous
370
    -3
390
F
  0
LAYER
  5
44
330
2
100
AcDbSymbolTableRecord
100
AcDbLayerTableRecord
  2
FRAME
 70
     0
 62
    15
  6
Continuous
370
    -3
390
F
  0
LAYER
  5
AF
330
2
100
AcDbSymbolTableRecord
100
AcDbLayerTableRecord
  2
BACKS
 70
     0
 62
   253
  6
Continuous
370
    -3
390
F
  0
LAYER
  5
E0
330
2
100
AcDbSymbolTableRecord
100
AcDbLayerTableRecord
  2
TABLE
 70
     0
 62
     7
  6
Continuous
370
    -3
390
F
  0
LAYER
  5
FD
330
2
100
AcDbSymbolTableRecord
100
AcDbLayerTableRecord
  2
SCREEN
 70
     0
 62
    98
  6
Continuous
370
    -3
390
F
  0
ENDTAB
  0
TABLE
  2
STYLE
  5
3
330
0
100
AcDbSymbolTable
 70
     1
  0
STYLE
  5
11
330
3
100
AcDbSymbolTableRecord
100
AcDbTextStyleTableRecord
  2
Standard
 70
     0
 40
0.0
 41
1.0
 50
0.0
 71
     0
 42
0.2
  3
txt
  4

  0
ENDTAB
  0
TABLE
  2
VIEW
  5
6
330
0
100
AcDbSymbolTable
 70
     0
  0
ENDTAB
  0
TABLE
  2
UCS
  5
7
330
0
100
AcDbSymbolTable
 70
     0
  0
ENDTAB
  0
TABLE
  2
APPID
  5
9
330
0
100
AcDbSymbolTable
 70
     1
  0
APPID
  5
12
330
9
100
AcDbSymbolTableRecord
100
AcDbRegAppTableRecord
  2
ACAD
 70
     0
  0
ENDTAB
  0
TABLE
  2
DIMSTYLE
  5
A
330
0
100
AcDbSymbolTable
 70
     1
100
AcDbDimStyleTable
  0
DIMSTYLE
105
27
330
A
100
AcDbSymbolTableRecord
100
AcDbDimStyleTableRecord
  2
Standard
 70
     0
340
11
  0
ENDTAB
  0
TABLE
  2
BLOCK_RECORD
  5
1
330
0
100
AcDbSymbolTable
 70
     1
  0
BLOCK_RECORD
  5
1F
330
1
100
AcDbSymbolTableRecord
100
AcDbBlockTableRecord
  2
*Model_Space
340
22
  0
BLOCK_RECORD
  5
1B
330
1
100
AcDbSymbolTableRecord
100
AcDbBlockTableRecord
  2
*Paper_Space
340
1E
  0
BLOCK_RECORD
  5
23
330
1
100
AcDbSymbolTableRecord
100
AcDbBlockTableRecord
  2
*Paper_Space0
340
26
  0
ENDTAB
  0
ENDSEC
  0
SECTION
  2
BLOCKS
  0
BLOCK
  5
20
330
1F
100
AcDbEntity
  8
0
100
AcDbBlockBegin
  2
*Model_Space
 70
     0
 10
0.0
 20
0.0
 30
0.0
  3
*Model_Space
  1

  0
ENDBLK
  5
21
330
1F
100
AcDbEntity
  8
0
100
AcDbBlockEnd
  0
BLOCK
  5
1C
330
1B
100
AcDbEntity
 67
     1
  8
0
100
AcDbBlockBegin
  2
*Paper_Space
 70
     0
 10
0.0
 20
0.0
 30
0.0
  3
*Paper_Space
  1

  0
ENDBLK
  5
1D
330
1B
100
AcDbEntity
 67
     1
  8
0
100
AcDbBlockEnd
  0
BLOCK
  5
24
330
23
100
AcDbEntity
  8
0
100
AcDbBlockBegin
  2
*Paper_Space0
 70
     0
 10
0.0
 20
0.0
 30
0.0
  3
*Paper_Space0
  1

  0
ENDBLK
  5
25
330
23
100
AcDbEntity
  8
0
100
AcDbBlockEnd
  0
ENDSEC
  0
SECTION
  2
ENTITIES
  0
LINE
  5
3C
330
1F
100
AcDbEntity
  8
SEATS
100
AcDbLine
 10
-0.0224483888440972
 20
-28.23507992031158
 30
0.0
 11
-0.0224483888440972
 21
-11.23507961954594
 31
0.0
  0
ARC
  5
3D
330
1F
100
AcDbEntity
  8
SEATS
100
AcDbCircle
 10
-1.022448388844097
 20
-11.23507961954594
 30
0.0
 40
1.0
100
AcDbArc
 50
0.0
 51
89.9999999999772
  0
SPLINE
  5
3E
330
1F
100
AcDbEntity
  8
SEATS
100
AcDbSpline
210
0.0
220
0.0
230
1.0
 70
    24
 71
     2
 72
     6
 73
     3
 74
     0
 42
0.0000000001
 43
0.0000000001
 40
0.0104022295436157
 40
0.0104022295436157
 40
0.0104022295436157
 40
61.00000000073199
 40
61.00000000073199
 40
61.00000000073199
 10
-1.022448388843699
 20
-10.23507961954594
 30
0.0
 10
-31.51724727443798
 20
-10.23507961954611
 30
0.0
 10
-62.01204616003213
 20
-10.23507961954617
 30
0.0
  0
ARC
  5
3F
330
1F
100
AcDbEntity
  8
SEATS
100
AcDbCircle
 10
-62.01204616003213
 20
-11.23507961954617
 30
0.0
 40
1.0
100
AcDbArc
 50
90.0
 51
179.9999999999976
  0
SPLINE
  5
40
330
1F
100
AcDbEntity
  8
SEATS
100
AcDbSpline
210
0.0
220
0.0
230
1.0
 70
    24
 71
     2
 72
     6
 73
     3
 74
     0
 42
0.0000000001
 43
0.0000000001
 40
0.0
 40
0.0
 40
0.0
 40
17.00000030076561
 40
17.00000030076561
 40
17.00000030076561
 10
-63.01204616003213
 20
-11.23507961954613
 30
0.0
 10
-63.01204616003213
 20
-19.73507976992896
 30
0.0
 10
-63.01204616003213
 20
-28.23507992031169
 30
0.0
  0
ARC
  5
41
330
1F
100
AcDbEntity
  8
SEATS
100
AcDbCircle
 10
-62.01204616003213
 20
-28.23507992031169
 30
0.0
 40
1.0
100
AcDbArc
 50
180.0
 51
269.9999999999988
  0
SPLINE
  5
42
330
1F
100
AcDbEntity
  8
SEATS
100
AcDbSpline
210
0.0
220
0.0
230
1.0
 70
    24
 71
     2
 72
     6
 73
     3
 74
     0
 42
0.0000000001
 43
0.0000000001
 40
0.0
 40
0.0
 40
0.0
 40
60.98959777118844
 40
60.98959777118844
 40
60.98959777118844
 10
-62.01204616003215
 20
-29.23507992031169
 30
0.0
 10
-31.51724727443798
 20
-29.2350799203118
 30
0.0
 10
-1.022448388843685
 20
-29.23507992031169
 30
0.0
  0
ARC
  5
43
330
1F
100
AcDbEntity
  8
SEATS
100
AcDbCircle
 10
-1.022448388843685
 20
-28.2350799203121
 30
0.0
 40
0.9999999999995879
100
AcDbArc
 50
270.0
 51
0.0000000000301262
  0
POLYLINE
  5
45
330
1F
100
AcDbEntity
  8
FRAME
100
AcDb2dPolyline
 66
     1
 10
0.0
 20
0.0
 30
0.0
  0
VERTEX
  5
46
330
45
100
AcDbEntity
  8
FRAME
100
AcDbVertex
100
AcDb2dVertex
 10
0.1377295264894087
 20
90.91178276459907
 30
0.0
  0
VERTEX
  5
47
330
45
100
AcDbEntity
  8
FRAME
100
AcDbVertex
100
AcDb2dVertex
 10
-0.0603465766492945
 20
90.91178276459907
 30
0.0
  0
SEQEND
  5
48
330
45
100
AcDbEntity
  8
FRAME
  0
SPLINE
  5
49
330
1F
100
AcDbEntity
  8
FRAME
100
AcDbSpline
210
0.0
220
0.0
230
1.0
 70
    28
 71
     2
 72
     6
 73
     3
 74
     0
 42
0.0000000001
 43
0.0000000001
 40
15.64961489180469
 40
15.64961489180469
 40
15.64961489180469
 40
16.43701646660789
 40
16.43701646660789
 40
16.43701646660789
 10
-0.0603465766492945
 20
90.91178276459907
 30
0.0
 41
1.0
 10
-0.0603465766492945
 20
90.51808197719747
 30
0.0
 41
1.0
 10
-0.0603465766492945
 20
90.12438118979587
 30
0.0
 41
1.0
  0
POLYLINE
  5
4A
330
1F
100
AcDbEntity
  8
FRAME
100
AcDb2dPolyline
 66
     1
 10
0.0
 20
0.0
 30
0.0
  0
VERTEX
  5
4B
330
4A
100
AcDbEntity
  8
FRAME
100
AcDbVertex
100
AcDb2dVertex
 10
-0.0603465766492945
 20
90.12438118979587
 30
0.0
  0
VERTEX
  5
4C
330
4A
100
AcDbEntity
  8
FRAME
100
AcDbVertex
100
AcDb2dVertex
 10
0.1377295264894087
 20
90.12438118979587
 30
0.0
  0
SEQEND
  5
4D
330
4A
100
AcDbEntity
  8
FRAME
  0
SPLINE
  5
4E
330
1F
100
AcDbEntity
  8
FRAME
100
AcDbSpline
210
0.0
220
0.0
230
1.0
 70
    28
 71
     2
 72
     6
 73
     3
 74
     0
 42
0.0000000001
 43
0.0000000001
 40
-90.16478741805747
 40
-90.16478741805747
 40
-90.16478741805747
 40
-89.37738584325427
 40
-89.37738584325427
 40
-89.37738584325427
 10
0.1377295264894087
 20
90.12438118979587
 30
0.0
 41
1.0
 10
0.1377295264894087
 20
90.51808197719747
 30
0.0
 41
1.0
 10
0.1377295264894087
 20
90.91178276459907
 30
0.0
 41
1.0
  0
LINE
  5
4F
330
1F
100
AcDbEntity
  8
SEATS
100
AcDbLine
 10
63.1273272976774
 20
82.17848788460388
 30
0.0
 11
63.1273272976774
 21
99.17848818536946
 31
0.0
  0
ARC
  5
50
330
1F
100
AcDbEntity
  8
SEATS
100
AcDbCircle
 10
62.1273272976774
 20
99.17848818536946
 30
0.0
 40
1.0
100
AcDbArc
 50
0.0
 51
89.9999999999772
  0
SPLINE
  5
51
330
1F
100
AcDbEntity
  8
SEATS
100
AcDbSpline
210
0.0
220
0.0
230
1.0
 70
    24
 71
     2
 72
     6
 73
     3
 74
     0
 42
0.0000000001
 43
0.0000000001
 40
0.0104022295436157
 40
0.0104022295436157
 40
0.0104022295436157
 40
61.00000000073199
 40
61.00000000073199
 40
61.00000000073199
 10
62.12732729767779
 20
100.1784881853695
 30
0.0
 10
31.6325284120835
 20
100.1784881853694
 30
0.0
 10
1.137729526489409
 20
100.1784881853693
 30
0.0
  0
ARC
  5
52
330
1F
100
AcDbEntity
  8
SEATS
100
AcDbCircle
 10
1.137729526489409
 20
99.17848818536926
 30
0.0
 40
1.0
100
AcDbArc
 50
90.0
 51
179.9999999999984
  0
SPLINE
  5
53
330
1F
100
AcDbEntity
  8
SEATS
100
AcDbSpline
210
0.0
220
0.0
230
1.0
 70
    24
 71
     2
 72
     6
 73
     3
 74
     0
 42
0.0000000001
 43
0.0000000001
 40
0.0
 40
0.0
 40
0.0
 40
17.00000030076561
 40
17.00000030076561
 40
17.00000030076561
 10
0.1377295264894087
 20
99.17848818536929
 30
0.0
 10
0.1377295264894087
 20
90.67848803498647
 30
0.0
 10
0.1377295264894087
 20
82.17848788460377
 30
0.0
  0
ARC
  5
54
330
1F
100
AcDbEntity
  8
SEATS
100
AcDbCircle
 10
1.137729526489409
 20
82.17848788460377
 30
0.0
 40
1.0
100
AcDbArc
 50
180.0
 51
269.9999999999992
  0
SPLINE
  5
55
330
1F
100
AcDbEntity
  8
SEATS
100
AcDbSpline
210
0.0
220
0.0
230
1.0
 70
    24
 71
     2
 72
     6
 73
     3
 74
     0
 42
0.0000000001
 43
0.0000000001
 40
0.0
 40
0.0
 40
0.0
 40
60.98959777118844
 40
60.98959777118844
 40
60.98959777118844
 10
1.137729526489395
 20
81.17848788460377
 30
0.0
 10
31.6325284120835
 20
81.17848788460368
 30
0.0
 10
62.12732729767782
 20
81.17848788460377
 30
0.0
  0
ARC
  5
56
330
1F
100
AcDbEntity
  8
SEATS
100
AcDbCircle
 10
62.12732729767782
 20
82.17848788460334
 30
0.0
 40
0.9999999999995737
100
AcDbArc
 50
270.0
 51
0.0000000000309404
  0
POLYLINE
  5
57
330
1F
100
AcDbEntity
  8
FRAME
100
AcDb2dPolyline
 66
     1
 10
0.0
 20
0.0
 30
0.0
  0
VERTEX
  5
58
330
57
100
AcDbEntity
  8
FRAME
100
AcDbVertex
100
AcDb2dVertex
 10
53.91853485255021
 20
-10.235079619546
 30
0.0
  0
VERTEX
  5
59
330
57
100
AcDbEntity
  8
FRAME
100
AcDbVertex
100
AcDb2dVertex
 10
53.91853485255021
 20
-9.235025913017111
 30
0.0
  0
SEQEND
  5
5A
330
57
100
AcDbEntity
  8
FRAME
  0
SPLINE
  5
5B
330
1F
100
AcDbEntity
  8
FRAME
100
AcDbSpline
210
0.0
220
0.0
230
1.0
 70
    28
 71
     2
 72
     6
 73
     3
 74
     0
 42
0.0000000001
 43
0.0000000001
 40
-128.3898638514248
 40
-128.3898638514248
 40
-128.3898638514248
 40
-127.6024622766217
 40
-127.6024622766217
 40
-127.6024622766217
 10
53.91853485255021
 20
-9.235025913017111
 30
0.0
 41
1.0
 10
53.52483406514861
 20
-9.235025913017111
 30
0.0
 41
1.0
 10
53.1311332777471
 20
-9.235025913017111
 30
0.0
 41
1.0
  0
POLYLINE
  5
5C
330
1F
100
AcDbEntity
  8
FRAME
100
AcDb2dPolyline
 66
     1
 10
0.0
 20
0.0
 30
0.0
  0
VERTEX
  5
5D
330
5C
100
AcDbEntity
  8
FRAME
100
AcDbVertex
100
AcDb2dVertex
 10
53.1311332777471
 20
-9.235025913017111
 30
0.0
  0
VERTEX
  5
5E
330
5C
100
AcDbEntity
  8
FRAME
100
AcDbVertex
100
AcDb2dVertex
 10
53.1311332777471
 20
-10.23507961954606
 30
0.0
  0
SEQEND
  5
5F
330
5C
100
AcDbEntity
  8
FRAME
  0
SPLINE
  5
60
330
1F
100
AcDbEntity
  8
FRAME
100
AcDbSpline
210
0.0
220
0.0
230
1.0
 70
    28
 71
     2
 72
     6
 73
     3
 74
     0
 42
0.0000000001
 43
0.0000000001
 40
-27.38630242909796
 40
-27.38630242909796
 40
-27.38630242909796
 40
-26.59890085429478
 40
-26.59890085429478
 40
-26.59890085429478
 10
53.1311332777471
 20
-10.23507961954606
 30
0.0
 41
1.0
 10
53.5248340651487
 20
-10.235079619546
 30
0.0
 41
1.0
 10
53.91853485255021
 20
-10.235079619546
 30
0.0
 41
1.0
  0
POLYLINE
  5
61
330
1F
100
AcDbEntity
  8
FRAME
100
AcDb2dPolyline
 66
     1
 10
0.0
 20
0.0
 30
0.0
  0
VERTEX
  5
62
330
61
100
AcDbEntity
  8
FRAME
100
AcDbVertex
100
AcDb2dVertex
 10
53.91853485255021
 20
10.20795868298028
 30
0.0
  0
VERTEX
  5
63
330
61
100
AcDbEntity
  8
FRAME
100
AcDbVertex
100
AcDb2dVertex
 10
53.91853485255021
 20
9.207904976451374
 30
0.0
  0
SEQEND
  5
64
330
61
100
AcDbEntity
  8
FRAME
  0
SPLINE
  5
65
330
1F
100
AcDbEntity
  8
FRAME
100
AcDbSpline
210
0.0
220
0.0
230
1.0
 70
    28
 71
     2
 72
     6
 73
     3
 74
     0
 42
0.0000000001
 43
0.0000000001
 40
-128.3898638514248
 40
-128.3898638514248
 40
-128.3898638514248
 40
-127.6024622766217
 40
-127.6024622766217
 40
-127.6024622766217
 10
53.91853485255021
 20
9.207904976451374
 30
0.0
 41
1.0
 10
53.52483406514861
 20
9.207904976451374
 30
0.0
 41
1.0
 10
53.1311332777471
 20
9.207904976451374
 30
0.0
 41
1.0
  0
POLYLINE
  5
66
330
1F
100
AcDbEntity
  8
FRAME
100
AcDb2dPolyline
 66
     1
 10
0.0
 20
0.0
 30
0.0
  0
VERTEX
  5
67
330
66
100
AcDbEntity
  8
FRAME
100
AcDbVertex
100
AcDb2dVertex
 10
53.1311332777471
 20
9.207904976451374
 30
0.0
  0
VERTEX
  5
68
330
66
100
AcDbEntity
  8
FRAME
100
AcDbVertex
100
AcDb2dVertex
 10
53.1311332777471
 20
10.20795868298028
 30
0.0
  0
SEQEND
  5
69
330
66
100
AcDbEntity
  8
FRAME
  0
SPLINE
  5
6A
330
1F
100
AcDbEntity
  8
FRAME
100
AcDbSpline
210
0.0
220
0.0
230
1.0
 70
    28
 71
     2
 72
     6
 73
     3
 74
     0
 42
0.0000000001
 43
0.0000000001
 40
-27.38630242909796
 40
-27.38630242909796
 40
-27.38630242909796
 40
-26.59890085429478
 40
-26.59890085429478
 40
-26.59890085429478
 10
53.1311332777471
 20
10.20795868298028
 30
0.0
 41
1.0
 10
53.5248340651487
 20
10.20795868298028
 30
0.0
 41
1.0
 10
53.91853485255021
 20
10.20795868298028
 30
0.0
 41
1.0
  0
POLYLINE
  5
6B
330
1F
100
AcDbEntity
  8
FRAME
100
AcDb2dPolyline
 66
     1
 10
0.0
 20
0.0
 30
0.0
  0
VERTEX
  5
6C
330
6B
100
AcDbEntity
  8
FRAME
100
AcDbVertex
100
AcDb2dVertex
 10
54.0787127678837
 20
100.1784881853695
 30
0.0
  0
VERTEX
  5
6D
330
6B
100
AcDbEntity
  8
FRAME
100
AcDbVertex
100
AcDb2dVertex
 10
54.0787127678837
 20
101.1785418918984
 30
0.0
  0
SEQEND
  5
6E
330
6B
100
AcDbEntity
  8
FRAME
  0
SPLINE
  5
6F
330
1F
100
AcDbEntity
  8
FRAME
100
AcDbSpline
210
0.0
220
0.0
230
1.0
 70
    28
 71
     2
 72
     6
 73
     3
 74
     0
 42
0.0000000001
 43
0.0000000001
 40
-128.3898638514248
 40
-128.3898638514248
 40
-128.3898638514248
 40
-127.6024622766217
 40
-127.6024622766217
 40
-127.6024622766217
 10
54.0787127678837
 20
101.1785418918984
 30
0.0
 41
1.0
 10
53.6850119804821
 20
101.1785418918984
 30
0.0
 41
1.0
 10
53.29131119308062
 20
101.1785418918984
 30
0.0
 41
1.0
  0
POLYLINE
  5
70
330
1F
100
AcDbEntity
  8
FRAME
100
AcDb2dPolyline
 66
     1
 10
0.0
 20
0.0
 30
0.0
  0
VERTEX
  5
71
330
70
100
AcDbEntity
  8
FRAME
100
AcDbVertex
100
AcDb2dVertex
 10
53.29131119308062
 20
101.1785418918984
 30
0.0
  0
VERTEX
  5
72
330
70
100
AcDbEntity
  8
FRAME
100
AcDbVertex
100
AcDb2dVertex
 10
53.29131119308062
 20
100.1784881853694
 30
0.0
  0
SEQEND
  5
73
330
70
100
AcDbEntity
  8
FRAME
  0
SPLINE
  5
74
330
1F
100
AcDbEntity
  8
FRAME
100
AcDbSpline
210
0.0
220
0.0
230
1.0
 70
    28
 71
     2
 72
     6
 73
     3
 74
     0
 42
0.0000000001
 43
0.0000000001
 40
-27.38630242909796
 40
-27.38630242909796
 40
-27.38630242909796
 40
-26.59890085429478
 40
-26.59890085429478
 40
-26.59890085429478
 10
53.29131119308062
 20
100.1784881853694
 30
0.0
 41
1.0
 10
53.68501198048222
 20
100.1784881853695
 30
0.0
 41
1.0
 10
54.0787127678837
 20
100.1784881853695
 30
0.0
 41
1.0
  0
SPLINE
  5
75
330
1F
100
AcDbEntity
  8
FRAME
100
AcDbSpline
210
0.0
220
0.0
230
1.0
 70
    28
 71
     2
 72
     6
 73
     3
 74
     0
 42
0.0000000001
 43
0.0000000001
 40
-84.29537566276103
 40
-84.29537566276103
 40
-84.29537566276103
 40
-83.50797408795822
 40
-83.50797408795822
 40
-83.50797408795822
 10
-53.16555110730218
 20
-9.235025913017168
 30
0.0
 41
1.0
 10
-53.55925189470361
 20
-9.235025913017111
 30
0.0
 41
1.0
 10
-53.95295268210504
 20
-9.235025913017111
 30
0.0
 41
1.0
  0
POLYLINE
  5
76
330
1F
100
AcDbEntity
  8
FRAME
100
AcDb2dPolyline
 66
     1
 10
0.0
 20
0.0
 30
0.0
  0
VERTEX
  5
77
330
76
100
AcDbEntity
  8
FRAME
100
AcDbVertex
100
AcDb2dVertex
 10
-53.95295268210504
 20
-9.235025913017111
 30
0.0
  0
VERTEX
  5
78
330
76
100
AcDbEntity
  8
FRAME
100
AcDbVertex
100
AcDb2dVertex
 10
-53.95295268210504
 20
-10.23507961954611
 30
0.0
  0
SEQEND
  5
79
330
76
100
AcDbEntity
  8
FRAME
  0
SPLINE
  5
7A
330
1F
100
AcDbEntity
  8
FRAME
100
AcDbSpline
210
0.0
220
0.0
230
1.0
 70
    28
 71
     2
 72
     6
 73
     3
 74
     0
 42
0.0000000001
 43
0.0000000001
 40
-71.48079061776205
 40
-71.48079061776205
 40
-71.48079061776205
 40
-70.6933890429592
 40
-70.6933890429592
 40
-70.6933890429592
 10
-53.95295268210504
 20
-10.23507961954611
 30
0.0
 41
1.0
 10
-53.55925189470366
 20
-10.23507961954617
 30
0.0
 41
1.0
 10
-53.16555110730218
 20
-10.23507961954611
 30
0.0
 41
1.0
  0
POLYLINE
  5
7B
330
1F
100
AcDbEntity
  8
FRAME
100
AcDb2dPolyline
 66
     1
 10
0.0
 20
0.0
 30
0.0
  0
VERTEX
  5
7C
330
7B
100
AcDbEntity
  8
FRAME
100
AcDbVertex
100
AcDb2dVertex
 10
-53.16555110730218
 20
-10.23507961954611
 30
0.0
  0
VERTEX
  5
7D
330
7B
100
AcDbEntity
  8
FRAME
100
AcDbVertex
100
AcDb2dVertex
 10
-53.16555110730218
 20
-9.235025913017168
 30
0.0
  0
SEQEND
  5
7E
330
7B
100
AcDbEntity
  8
FRAME
  0
SPLINE
  5
7F
330
1F
100
AcDbEntity
  8
FRAME
100
AcDbSpline
210
0.0
220
0.0
230
1.0
 70
    28
 71
     2
 72
     6
 73
     3
 74
     0
 42
0.0000000001
 43
0.0000000001
 40
-84.29537566276103
 40
-84.29537566276103
 40
-84.29537566276103
 40
-83.50797408795822
 40
-83.50797408795822
 40
-83.50797408795822
 10
9.82404666388581
 20
9.207904976451374
 30
0.0
 41
1.0
 10
9.43034587648441
 20
9.207904976451374
 30
0.0
 41
1.0
 10
9.03664508908301
 20
9.207904976451374
 30
0.0
 41
1.0
  0
POLYLINE
  5
80
330
1F
100
AcDbEntity
  8
FRAME
100
AcDb2dPolyline
 66
     1
 10
0.0
 20
0.0
 30
0.0
  0
VERTEX
  5
81
330
80
100
AcDbEntity
  8
FRAME
100
AcDbVertex
100
AcDb2dVertex
 10
9.03664508908301
 20
9.207904976451374
 30
0.0
  0
VERTEX
  5
82
330
80
100
AcDbEntity
  8
FRAME
100
AcDbVertex
100
AcDb2dVertex
 10
9.03664508908301
 20
10.20795868298038
 30
0.0
  0
SEQEND
  5
83
330
80
100
AcDbEntity
  8
FRAME
  0
SPLINE
  5
84
330
1F
100
AcDbEntity
  8
FRAME
100
AcDbSpline
210
0.0
220
0.0
230
1.0
 70
    28
 71
     2
 72
     6
 73
     3
 74
     0
 42
0.0000000001
 43
0.0000000001
 40
-71.48079061776205
 40
-71.48079061776205
 40
-71.48079061776205
 40
-70.6933890429592
 40
-70.6933890429592
 40
-70.6933890429592
 10
9.03664508908301
 20
10.20795868298038
 30
0.0
 41
1.0
 10
9.43034587648431
 20
10.20795868298038
 30
0.0
 41
1.0
 10
9.82404666388581
 20
10.20795868298038
 30
0.0
 41
1.0
  0
POLYLINE
  5
85
330
1F
100
AcDbEntity
  8
FRAME
100
AcDb2dPolyline
 66
     1
 10
0.0
 20
0.0
 30
0.0
  0
VERTEX
  5
86
330
85
100
AcDbEntity
  8
FRAME
100
AcDbVertex
100
AcDb2dVertex
 10
9.82404666388581
 20
10.20795868298038
 30
0.0
  0
VERTEX
  5
87
330
85
100
AcDbEntity
  8
FRAME
100
AcDbVertex
100
AcDb2dVertex
 10
9.82404666388581
 20
9.207904976451374
 30
0.0
  0
SEQEND
  5
88
330
85
100
AcDbEntity
  8
FRAME
  0
SPLINE
  5
89
330
1F
100
AcDbEntity
  8
FRAME
100
AcDbSpline
210
0.0
220
0.0
230
1.0
 70
    28
 71
     2
 72
     6
 73
     3
 74
     0
 42
0.0000000001
 43
0.0000000001
 40
-84.29537566276103
 40
-84.29537566276103
 40
-84.29537566276103
 40
-83.50797408795822
 40
-83.50797408795822
 40
-83.50797408795822
 10
9.984224579219315
 20
101.1785418918983
 30
0.0
 41
1.0
 10
9.590523791817915
 20
101.1785418918984
 30
0.0
 41
1.0
 10
9.196823004416515
 20
101.1785418918984
 30
0.0
 41
1.0
  0
POLYLINE
  5
8A
330
1F
100
AcDbEntity
  8
FRAME
100
AcDb2dPolyline
 66
     1
 10
0.0
 20
0.0
 30
0.0
  0
VERTEX
  5
8B
330
8A
100
AcDbEntity
  8
FRAME
100
AcDbVertex
100
AcDb2dVertex
 10
9.196823004416515
 20
101.1785418918984
 30
0.0
  0
VERTEX
  5
8C
330
8A
100
AcDbEntity
  8
FRAME
100
AcDbVertex
100
AcDb2dVertex
 10
9.196823004416515
 20
100.1784881853694
 30
0.0
  0
SEQEND
  5
8D
330
8A
100
AcDbEntity
  8
FRAME
  0
SPLINE
  5
8E
330
1F
100
AcDbEntity
  8
FRAME
100
AcDbSpline
210
0.0
220
0.0
230
1.0
 70
    28
 71
     2
 72
     6
 73
     3
 74
     0
 42
0.0000000001
 43
0.0000000001
 40
-71.48079061776205
 40
-71.48079061776205
 40
-71.48079061776205
 40
-70.6933890429592
 40
-70.6933890429592
 40
-70.6933890429592
 10
9.196823004416515
 20
100.1784881853694
 30
0.0
 41
1.0
 10
9.590523791817915
 20
100.1784881853693
 30
0.0
 41
1.0
 10
9.984224579219315
 20
100.1784881853694
 30
0.0
 41
1.0
  0
POLYLINE
  5
8F
330
1F
100
AcDbEntity
  8
FRAME
100
AcDb2dPolyline
 66
     1
 10
0.0
 20
0.0
 30
0.0
  0
VERTEX
  5
90
330
8F
100
AcDbEntity
  8
FRAME
100
AcDbVertex
100
AcDb2dVertex
 10
9.984224579219315
 20
100.1784881853694
 30
0.0
  0
VERTEX
  5
91
330
8F
100
AcDbEntity
  8
FRAME
100
AcDbVertex
100
AcDb2dVertex
 10
9.984224579219315
 20
101.1785418918983
 30
0.0
  0
SEQEND
  5
92
330
8F
100
AcDbEntity
  8
FRAME
  0
SPLINE
  5
93
330
1F
100
AcDbEntity
  8
FRAME
100
AcDbSpline
210
0.0
220
0.0
230
1.0
 70
    12
 71
     2
 72
     6
 73
     3
 74
     0
 42
0.0000000001
 43
0.0000000001
 40
-59.49296606042802
 40
-59.49296606042802
 40
-59.49296606042802
 40
-58.70556448562523
 40
-58.70556448562523
 40
-58.70556448562523
 10
9.041873207135708
 20
-2.485012411194731
 30
0.0
 41
1.0
 10
9.435573994537108
 20
-2.485025913017026
 30
0.0
 41
1.0
 10
9.829274781938508
 20
-2.485012411194731
 30
0.0
 41
1.0
  0
POLYLINE
  5
94
330
1F
100
AcDbEntity
  8
FRAME
100
AcDb2dPolyline
 66
     1
 10
0.0
 20
0.0
 30
0.0
  0
VERTEX
  5
95
330
94
100
AcDbEntity
  8
FRAME
100
AcDbVertex
100
AcDb2dVertex
 10
9.829274781938508
 20
-2.485012411194731
 30
0.0
  0
VERTEX
  5
96
330
94
100
AcDbEntity
  8
FRAME
100
AcDbVertex
100
AcDb2dVertex
 10
9.829274781938508
 20
-1.638560468282936
 30
0.0
  0
SEQEND
  5
97
330
94
100
AcDbEntity
  8
FRAME
  0
SPLINE
  5
98
330
1F
100
AcDbEntity
  8
FRAME
100
AcDbSpline
210
0.0
220
0.0
230
1.0
 70
    28
 71
     2
 72
     6
 73
     3
 74
     0
 42
0.0000000001
 43
0.0000000001
 40
187.7004757661623
 40
187.7004757661623
 40
187.7004757661623
 40
188.4878773409651
 40
188.4878773409651
 40
188.4878773409651
 10
9.829274781938508
 20
-1.638560468282936
 30
0.0
 41
1.00000000015833
 10
9.435573994537114
 20
-1.638560468282939
 30
0.0
 41
1.00000000015833
 10
9.041873207135705
 20
-1.63856046828284
 30
0.0
 41
1.00000000015833
  0
POLYLINE
  5
99
330
1F
100
AcDbEntity
  8
FRAME
100
AcDb2dPolyline
 66
     1
 10
0.0
 20
0.0
 30
0.0
  0
VERTEX
  5
9A
330
99
100
AcDbEntity
  8
FRAME
100
AcDbVertex
100
AcDb2dVertex
 10
9.041873207135708
 20
-1.638560468282833
 30
0.0
  0
VERTEX
  5
9B
330
99
100
AcDbEntity
  8
FRAME
100
AcDbVertex
100
AcDb2dVertex
 10
9.041873207135708
 20
-2.485012411194731
 30
0.0
  0
SEQEND
  5
9C
330
99
100
AcDbEntity
  8
FRAME
  0
SPLINE
  5
9D
330
1F
100
AcDbEntity
  8
FRAME
100
AcDbSpline
210
0.0
220
0.0
230
1.0
 70
    28
 71
     2
 72
     6
 73
     3
 74
     0
 42
0.0000000001
 43
0.0000000001
 40
-84.29537566276103
 40
-84.29537566276103
 40
-84.29537566276103
 40
-83.50797408795822
 40
-83.50797408795822
 40
-83.50797408795822
 10
9.82404666388581
 20
-9.235025913017168
 30
0.0
 41
1.0
 10
9.43034587648441
 20
-9.235025913017111
 30
0.0
 41
1.0
 10
9.03664508908301
 20
-9.235025913017111
 30
0.0
 41
1.0
  0
POLYLINE
  5
9E
330
1F
100
AcDbEntity
  8
FRAME
100
AcDb2dPolyline
 66
     1
 10
0.0
 20
0.0
 30
0.0
  0
VERTEX
  5
9F
330
9E
100
AcDbEntity
  8
FRAME
100
AcDbVertex
100
AcDb2dVertex
 10
9.03664508908301
 20
-9.235025913017111
 30
0.0
  0
VERTEX
  5
A0
330
9E
100
AcDbEntity
  8
FRAME
100
AcDbVertex
100
AcDb2dVertex
 10
9.03664508908301
 20
-10.23507961954611
 30
0.0
  0
SEQEND
  5
A1
330
9E
100
AcDbEntity
  8
FRAME
  0
SPLINE
  5
A2
330
1F
100
AcDbEntity
  8
FRAME
100
AcDbSpline
210
0.0
220
0.0
230
1.0
 70
    28
 71
     2
 72
     6
 73
     3
 74
     0
 42
0.0000000001
 43
0.0000000001
 40
-71.48079061776205
 40
-71.48079061776205
 40
-71.48079061776205
 40
-70.6933890429592
 40
-70.6933890429592
 40
-70.6933890429592
 10
9.03664508908301
 20
-10.23507961954611
 30
0.0
 41
1.0
 10
9.43034587648431
 20
-10.23507961954617
 30
0.0
 41
1.0
 10
9.82404666388581
 20
-10.23507961954611
 30
0.0
 41
1.0
  0
POLYLINE
  5
A3
330
1F
100
AcDbEntity
  8
FRAME
100
AcDb2dPolyline
 66
     1
 10
0.0
 20
0.0
 30
0.0
  0
VERTEX
  5
A4
330
A3
100
AcDbEntity
  8
FRAME
100
AcDbVertex
100
AcDb2dVertex
 10
9.82404666388581
 20
-10.23507961954611
 30
0.0
  0
VERTEX
  5
A5
330
A3
100
AcDbEntity
  8
FRAME
100
AcDbVertex
100
AcDb2dVertex
 10
9.82404666388581
 20
-9.235025913017168
 30
0.0
  0
SEQEND
  5
A6
330
A3
100
AcDbEntity
  8
FRAME
  0
ARC
  5
A7
330
1F
100
AcDbEntity
  8
SEATS
100
AcDbCircle
 10
-100.684196855457
 20
-78.00014245820495
 30
0.0
 40
0.999999999999113
100
AcDbArc
 50
119.9071185105078
 51
211.1315221678068
  0
ARC
  5
A8
330
1F
100
AcDbEntity
  8
SEATS
100
AcDbCircle
 10
-63.1232354676708
 20
-55.31372800018492
 30
0.0
 40
44.88051072327833
100
AcDbArc
 50
211.1315221677585
 51
268.6823738771454
  0
ARC
  5
A9
330
1F
100
AcDbEntity
  8
SEATS
100
AcDbCircle
 10
-64.1322628616123
 20
-99.18263595392843
 30
0.0
 40
1.0
100
AcDbArc
 50
268.6823738771502
 51
359.9071185104985
  0
LINE
  5
AA
330
1F
100
AcDbEntity
  8
SEATS
100
AcDbLine
 10
-63.13226417557485
 20
-99.18425704102437
 30
0.0
 11
-63.10469590186921
 21
-82.17823833090871
 31
0.0
  0
ARC
  5
AB
330
1F
100
AcDbEntity
  8
SEATS
100
AcDbCircle
 10
-64.10469458790668
 20
-82.17661724381342
 30
0.0
 40
1.000000000000013
100
AcDbArc
 50
359.907118510536
 51
87.90757935941902
  0
ARC
  5
AC
330
1F
100
AcDbEntity
  8
SEATS
100
AcDbCircle
 10
-63.1232354676708
 20
-55.31372800018494
 30
0.0
 40
25.88081249739571
100
AcDbArc
 50
211.9061008369175
 51
267.9075793594133
  0
ARC
  5
AD
330
1F
100
AcDbEntity
  8
SEATS
100
AcDbCircle
 10
-85.94277156082416
 20
-69.52100968998826
 30
0.0
 40
1.000000000000081
100
AcDbArc
 50
31.90610083693116
 51
119.9071185105079
  0
LINE
  5
AE
330
1F
100
AcDbEntity
  8
SEATS
100
AcDbLine
 10
-86.44136700123623
 20
-68.65417488058081
 30
0.0
 11
-101.1827922958686
 21
-77.13330764879834
 31
0.0
  0
SPLINE
  5
B0
330
1F
100
AcDbEntity
  8
BACKS
100
AcDbSpline
210
0.0
220
0.0
230
1.0
 70
    24
 71
     2
 72
     6
 73
     3
 74
     0
 42
0.0000000001
 43
0.0000000001
 40
-4.996893558424962
 40
-4.996893558424962
 40
-4.996893558424962
 40
-0.2468935584247509
 40
-0.2468935584247509
 40
-0.2468935584247509
 10
62.96714938234382
 20
3.457904976451375
 30
0.0
 10
62.96714938234391
 20
5.832904976451573
 30
0.0
 10
62.96714938234382
 20
8.207904976451672
 30
0.0
  0
ARC
  5
B1
330
1F
100
AcDbEntity
  8
BACKS
100
AcDbCircle
 10
61.96714938234422
 20
8.207904976451374
 30
0.0
 40
1.0
100
AcDbArc
 50
0.0000000000179129
 51
90.0
  0
SPLINE
  5
B2
330
1F
100
AcDbEntity
  8
BACKS
100
AcDbSpline
210
0.0
220
0.0
230
1.0
 70
    24
 71
     2
 72
     6
 73
     3
 74
     0
 42
0.0000000001
 43
0.0000000001
 40
0.0104023795593044
 40
0.0104023795593044
 40
0.0104023795593044
 40
61.00000030076362
 40
61.00000030076362
 40
61.00000030076362
 10
61.96714938234422
 20
9.207904976451374
 30
0.0
 10
31.47235042174202
 20
9.207904976451374
 30
0.0
 10
0.977551461139015
 20
9.207904976451374
 30
0.0
  0
ARC
  5
B3
330
1F
100
AcDbEntity
  8
BACKS
100
AcDbCircle
 10
0.977551461139015
 20
8.207904976451374
 30
0.0
 40
1.0
100
AcDbArc
 50
90.0
 51
180.0000000000057
  0
SPLINE
  5
B4
330
1F
100
AcDbEntity
  8
BACKS
100
AcDbSpline
210
0.0
220
0.0
230
1.0
 70
    24
 71
     2
 72
     6
 73
     3
 74
     0
 42
0.0000000001
 43
0.0000000001
 40
0.2500000000000193
 40
0.2500000000000193
 40
0.2500000000000193
 40
4.999999999999968
 40
4.999999999999968
 40
4.999999999999968
 10
-0.022448538860985
 20
8.207904976451275
 30
0.0
 10
-0.0224485388608855
 20
5.832904976451374
 30
0.0
 10
-0.0224485388608855
 20
3.457904976451331
 30
0.0
  0
ARC
  5
B5
330
1F
100
AcDbEntity
  8
BACKS
100
AcDbCircle
 10
0.9775514611391145
 20
3.457904976451275
 30
0.0
 40
1.0
100
AcDbArc
 50
179.9999999999967
 51
270.0000000000692
  0
SPLINE
  5
B6
330
1F
100
AcDbEntity
  8
BACKS
100
AcDbSpline
210
0.0
220
0.0
230
1.0
 70
    24
 71
     2
 72
     6
 73
     3
 74
     0
 42
0.0000000001
 43
0.0000000001
 40
0.0
 40
0.0
 40
0.0
 40
60.98959792120331
 40
60.98959792120331
 40
60.98959792120331
 10
0.9775514611403223
 20
2.457904976451275
 30
0.0
 10
31.47235042174202
 20
2.457904976451275
 30
0.0
 10
61.96714938234362
 20
2.457904976451374
 30
0.0
  0
ARC
  5
B7
330
1F
100
AcDbEntity
  8
BACKS
100
AcDbCircle
 10
61.96714938234382
 20
3.457904976451375
 30
0.0
 40
1.0
100
AcDbArc
 50
269.9999999999886
 51
0.0000000000000254
  0
POLYLINE
  5
B8
330
1F
100
AcDbEntity
  8
FRAME
100
AcDb2dPolyline
 66
     1
 10
0.0
 20
0.0
 30
0.0
  0
VERTEX
  5
B9
330
B8
100
AcDbEntity
  8
FRAME
100
AcDbVertex
100
AcDb2dVertex
 10
53.92376297060281
 20
-2.485012411194731
 30
0.0
  0
VERTEX
  5
BA
330
B8
100
AcDbEntity
  8
FRAME
100
AcDbVertex
100
AcDb2dVertex
 10
53.92376297060281
 20
-1.638560468282936
 30
0.0
  0
SEQEND
  5
BB
330
B8
100
AcDbEntity
  8
FRAME
  0
SPLINE
  5
BC
330
1F
100
AcDbEntity
  8
FRAME
100
AcDbSpline
210
0.0
220
0.0
230
1.0
 70
    28
 71
     2
 72
     6
 73
     3
 74
     0
 42
0.0000000001
 43
0.0000000001
 40
143.605987577498
 40
143.605987577498
 40
143.605987577498
 40
144.393389152301
 40
144.393389152301
 40
144.393389152301
 10
53.92376297060281
 20
-1.638560468282936
 30
0.0
 41
1.00000000015833
 10
53.53006218320132
 20
-1.638560468282939
 30
0.0
 41
1.00000000015833
 10
53.13636139579982
 20
-1.638560468282939
 30
0.0
 41
1.00000000015833
  0
POLYLINE
  5
BD
330
1F
100
AcDbEntity
  8
FRAME
100
AcDb2dPolyline
 66
     1
 10
0.0
 20
0.0
 30
0.0
  0
VERTEX
  5
BE
330
BD
100
AcDbEntity
  8
FRAME
100
AcDbVertex
100
AcDb2dVertex
 10
53.13636139579981
 20
-1.638560468282932
 30
0.0
  0
VERTEX
  5
BF
330
BD
100
AcDbEntity
  8
FRAME
100
AcDbVertex
100
AcDb2dVertex
 10
53.13636139579981
 20
-2.485012411194731
 30
0.0
  0
SEQEND
  5
C0
330
BD
100
AcDbEntity
  8
FRAME
  0
SPLINE
  5
C1
330
1F
100
AcDbEntity
  8
FRAME
100
AcDbSpline
210
0.0
220
0.0
230
1.0
 70
    12
 71
     2
 72
     6
 73
     3
 74
     0
 42
0.0000000001
 43
0.0000000001
 40
-15.39847787176386
 40
-15.39847787176386
 40
-15.39847787176386
 40
-14.61107629696086
 40
-14.61107629696086
 40
-14.61107629696086
 10
53.13636139579981
 20
-2.485012411194731
 30
0.0
 41
1.0
 10
53.53006218320132
 20
-2.485025913017125
 30
0.0
 41
1.0
 10
53.92376297060281
 20
-2.485012411194731
 30
0.0
 41
1.0
  0
SPLINE
  5
C2
330
1F
100
AcDbEntity
  8
FRAME
100
AcDbSpline
210
0.0
220
0.0
230
1.0
 70
    28
 71
     2
 72
     6
 73
     3
 74
     0
 42
0.0000000001
 43
0.0000000001
 40
7.578748750072415
 40
7.578748750072415
 40
7.578748750072415
 40
8.36615032487601
 40
8.36615032487601
 40
8.36615032487601
 10
0.0603465766499056
 20
-98.98264890633133
 30
0.0
 41
1.0
 10
0.0603465766498061
 20
-98.58894811892954
 30
0.0
 41
1.0
 10
0.0603465766498061
 20
-98.19524733152774
 30
0.0
 41
1.0
  0
POLYLINE
  5
C3
330
1F
100
AcDbEntity
  8
FRAME
100
AcDb2dPolyline
 66
     1
 10
0.0
 20
0.0
 30
0.0
  0
VERTEX
  5
C4
330
C3
100
AcDbEntity
  8
FRAME
100
AcDbVertex
100
AcDb2dVertex
 10
0.0603465766498061
 20
-98.19524733152774
 30
0.0
  0
VERTEX
  5
C5
330
C3
100
AcDbEntity
  8
FRAME
100
AcDbVertex
100
AcDb2dVertex
 10
-0.1377295264893945
 20
-98.19524733152774
 30
0.0
  0
SEQEND
  5
C6
330
C3
100
AcDbEntity
  8
FRAME
  0
SPLINE
  5
C7
330
1F
100
AcDbEntity
  8
FRAME
100
AcDbSpline
210
0.0
220
0.0
230
1.0
 70
    28
 71
     2
 72
     6
 73
     3
 74
     0
 42
0.0000000001
 43
0.0000000001
 40
-82.09392127632557
 40
-82.09392127632557
 40
-82.09392127632557
 40
-81.30651970152198
 40
-81.30651970152198
 40
-81.30651970152198
 10
-0.1377295264893945
 20
-98.19524733152774
 30
0.0
 41
1.0
 10
-0.1377295264893945
 20
-98.58894811892954
 30
0.0
 41
1.0
 10
-0.1377295264893945
 20
-98.98264890633133
 30
0.0
 41
1.0
  0
POLYLINE
  5
C8
330
1F
100
AcDbEntity
  8
FRAME
100
AcDb2dPolyline
 66
     1
 10
0.0
 20
0.0
 30
0.0
  0
VERTEX
  5
C9
330
C8
100
AcDbEntity
  8
FRAME
100
AcDbVertex
100
AcDb2dVertex
 10
-0.1377295264893945
 20
-98.98264890633133
 30
0.0
  0
VERTEX
  5
CA
330
C8
100
AcDbEntity
  8
FRAME
100
AcDbVertex
100
AcDb2dVertex
 10
0.0603465766499056
 20
-98.98264890633133
 30
0.0
  0
SEQEND
  5
CB
330
C8
100
AcDbEntity
  8
FRAME
  0
POLYLINE
  5
CC
330
1F
100
AcDbEntity
  8
FRAME
100
AcDb2dPolyline
 66
     1
 10
0.0
 20
0.0
 30
0.0
  0
VERTEX
  5
CD
330
CC
100
AcDbEntity
  8
FRAME
100
AcDbVertex
100
AcDb2dVertex
 10
-54.0787127678837
 20
-100.1784881853694
 30
0.0
  0
VERTEX
  5
CE
330
CC
100
AcDbEntity
  8
FRAME
100
AcDbVertex
100
AcDb2dVertex
 10
-54.0787127678837
 20
-101.1785418918983
 30
0.0
  0
SEQEND
  5
CF
330
CC
100
AcDbEntity
  8
FRAME
  0
SPLINE
  5
D0
330
1F
100
AcDbEntity
  8
FRAME
100
AcDbSpline
210
0.0
220
0.0
230
1.0
 70
    28
 71
     2
 72
     6
 73
     3
 74
     0
 42
0.0000000001
 43
0.0000000001
 40
-128.3898638514248
 40
-128.3898638514248
 40
-128.3898638514248
 40
-127.6024622766217
 40
-127.6024622766217
 40
-127.6024622766217
 10
-54.0787127678837
 20
-101.1785418918983
 30
0.0
 41
1.0
 10
-53.6850119804821
 20
-101.1785418918983
 30
0.0
 41
1.0
 10
-53.29131119308056
 20
-101.1785418918983
 30
0.0
 41
1.0
  0
POLYLINE
  5
D1
330
1F
100
AcDbEntity
  8
FRAME
100
AcDb2dPolyline
 66
     1
 10
0.0
 20
0.0
 30
0.0
  0
VERTEX
  5
D2
330
D1
100
AcDbEntity
  8
FRAME
100
AcDbVertex
100
AcDb2dVertex
 10
-53.29131119308056
 20
-101.1785418918983
 30
0.0
  0
VERTEX
  5
D3
330
D1
100
AcDbEntity
  8
FRAME
100
AcDbVertex
100
AcDb2dVertex
 10
-53.29131119308056
 20
-100.1784881853694
 30
0.0
  0
SEQEND
  5
D4
330
D1
100
AcDbEntity
  8
FRAME
  0
SPLINE
  5
D5
330
1F
100
AcDbEntity
  8
FRAME
100
AcDbSpline
210
0.0
220
0.0
230
1.0
 70
    28
 71
     2
 72
     6
 73
     3
 74
     0
 42
0.0000000001
 43
0.0000000001
 40
-27.38630242909796
 40
-27.38630242909796
 40
-27.38630242909796
 40
-26.59890085429478
 40
-26.59890085429478
 40
-26.59890085429478
 10
-53.29131119308056
 20
-100.1784881853694
 30
0.0
 41
1.0
 10
-53.68501198048216
 20
-100.1784881853694
 30
0.0
 41
1.0
 10
-54.0787127678837
 20
-100.1784881853694
 30
0.0
 41
1.0
  0
SPLINE
  5
D6
330
1F
100
AcDbEntity
  8
FRAME
100
AcDbSpline
210
0.0
220
0.0
230
1.0
 70
    28
 71
     2
 72
     6
 73
     3
 74
     0
 42
0.0000000001
 43
0.0000000001
 40
7.578748750072415
 40
7.578748750072415
 40
7.578748750072415
 40
8.36615032487601
 40
8.36615032487601
 40
8.36615032487601
 10
-0.0603465766497919
 20
98.98264890633136
 30
0.0
 41
1.0
 10
-0.0603465766497919
 20
98.58894811892957
 30
0.0
 41
1.0
 10
-0.0603465766497919
 20
98.19524733152777
 30
0.0
 41
1.0
  0
POLYLINE
  5
D7
330
1F
100
AcDbEntity
  8
FRAME
100
AcDb2dPolyline
 66
     1
 10
0.0
 20
0.0
 30
0.0
  0
VERTEX
  5
D8
330
D7
100
AcDbEntity
  8
FRAME
100
AcDbVertex
100
AcDb2dVertex
 10
-0.0603465766497919
 20
98.19524733152777
 30
0.0
  0
VERTEX
  5
D9
330
D7
100
AcDbEntity
  8
FRAME
100
AcDbVertex
100
AcDb2dVertex
 10
0.1377295264894087
 20
98.19524733152777
 30
0.0
  0
SEQEND
  5
DA
330
D7
100
AcDbEntity
  8
FRAME
  0
SPLINE
  5
DB
330
1F
100
AcDbEntity
  8
FRAME
100
AcDbSpline
210
0.0
220
0.0
230
1.0
 70
    28
 71
     2
 72
     6
 73
     3
 74
     0
 42
0.0000000001
 43
0.0000000001
 40
-82.09392127632557
 40
-82.09392127632557
 40
-82.09392127632557
 40
-81.30651970152198
 40
-81.30651970152198
 40
-81.30651970152198
 10
0.1377295264894087
 20
98.19524733152777
 30
0.0
 41
1.0
 10
0.1377295264894087
 20
98.58894811892957
 30
0.0
 41
1.0
 10
0.1377295264894087
 20
98.98264890633136
 30
0.0
 41
1.0
  0
POLYLINE
  5
DC
330
1F
100
AcDbEntity
  8
FRAME
100
AcDb2dPolyline
 66
     1
 10
0.0
 20
0.0
 30
0.0
  0
VERTEX
  5
DD
330
DC
100
AcDbEntity
  8
FRAME
100
AcDbVertex
100
AcDb2dVertex
 10
0.1377295264894087
 20
98.98264890633136
 30
0.0
  0
VERTEX
  5
DE
330
DC
100
AcDbEntity
  8
FRAME
100
AcDbVertex
100
AcDb2dVertex
 10
-0.0603465766497919
 20
98.98264890633136
 30
0.0
  0
SEQEND
  5
DF
330
DC
100
AcDbEntity
  8
FRAME
  0
SPLINE
  5
E1
330
1F
100
AcDbEntity
  8
TABLE
100
AcDbSpline
210
0.0
220
0.0
230
1.0
 70
    12
 71
     2
 72
     6
 73
     3
 74
     0
 42
0.0000000001
 43
0.0000000001
 40
0.0
 40
0.0
 40
0.0
 40
1.236847501413946
 40
1.236847501413946
 40
1.236847501413946
 10
-0.8477481514541836
 20
107.3487992312071
 30
0.0
 41
1.0
 10
-0.0603465766508808
 20
107.3487992312071
 30
0.0
 41
0.7071067811868347
 10
-0.0603465766502893
 20
106.5613976564038
 30
0.0
 41
1.0
  0
SPLINE
  5
E2
330
1F
100
AcDbEntity
  8
TABLE
100
AcDbSpline
210
0.0
220
0.0
230
1.0
 70
    24
 71
     2
 72
     6
 73
     3
 74
     0
 42
0.0000000001
 43
0.0000000001
 40
0.0
 40
0.0
 40
0.0
 40
24.01576521667783
 40
24.01576521667783
 40
24.01576521667783
 10
-0.0603465766502893
 20
106.5613976564038
 30
0.0
 10
-0.0603465766494935
 20
94.55351504806488
 30
0.0
 10
-0.0603465766487972
 20
82.54563243972588
 30
0.0
  0
SPLINE
  5
E3
330
1F
100
AcDbEntity
  8
TABLE
100
AcDbSpline
210
0.0
220
0.0
230
1.0
 70
    12
 71
     2
 72
     6
 73
     3
 74
     0
 42
0.0000000001
 43
0.0000000001
 40
0.0
 40
0.0
 40
0.0
 40
1.236847501412776
 40
1.236847501412776
 40
1.236847501412776
 10
-0.0603465766487972
 20
82.54563243972588
 30
0.0
 41
1.0
 10
-0.060346576649005
 20
81.75823086492295
 30
0.0
 41
0.7071067811864582
 10
-0.8477481514518956
 20
81.75823086492336
 30
0.0
 41
1.0
  0
SPLINE
  5
E4
330
1F
100
AcDbEntity
  8
TABLE
100
AcDbSpline
210
0.0
220
0.0
230
1.0
 70
    24
 71
     2
 72
     6
 73
     3
 74
     0
 42
0.0000000001
 43
0.0000000001
 40
0.0
 40
0.0
 40
0.0
 40
14.17322834645617
 40
14.17322834645617
 40
14.17322834645617
 10
-0.8477481514518956
 20
81.75823086492336
 30
0.0
 10
-7.934362324679995
 20
81.75823086492356
 30
0.0
 10
-15.02097649790809
 20
81.75823086492368
 30
0.0
  0
SPLINE
  5
E5
330
1F
100
AcDbEntity
  8
TABLE
100
AcDbSpline
210
0.0
220
0.0
230
1.0
 70
    12
 71
     2
 72
     6
 73
     3
 74
     0
 42
0.0000000001
 43
0.0000000001
 40
0.0
 40
0.0
 40
0.0
 40
1.236847501414238
 40
1.236847501414238
 40
1.236847501414238
 10
-15.02097649790809
 20
81.75823086492368
 30
0.0
 41
1.0
 10
-15.80837807271133
 20
81.75823086492449
 30
0.0
 41
0.7071067811872048
 10
-15.808378072712
 20
82.54563243972767
 30
0.0
 41
1.0
  0
SPLINE
  5
E6
330
1F
100
AcDbEntity
  8
TABLE
100
AcDbSpline
210
0.0
220
0.0
230
1.0
 70
    24
 71
     2
 72
     6
 73
     3
 74
     0
 42
0.0000000001
 43
0.0000000001
 40
0.0
 40
0.0
 40
0.0
 40
24.01576521667596
 40
24.01576521667596
 40
24.01576521667596
 10
-15.808378072712
 20
82.54563243972767
 30
0.0
 10
-15.80837807271172
 20
94.55351504806568
 30
0.0
 10
-15.80837807271143
 20
106.5613976564037
 30
0.0
  0
SPLINE
  5
E7
330
1F
100
AcDbEntity
  8
TABLE
100
AcDbSpline
210
0.0
220
0.0
230
1.0
 70
    12
 71
     2
 72
     6
 73
     3
 74
     0
 42
0.0000000001
 43
0.0000000001
 40
0.0
 40
0.0
 40
0.0
 40
1.236847501412723
 40
1.236847501412723
 40
1.236847501412723
 10
-15.80837807271143
 20
106.5613976564037
 30
0.0
 41
1.0
 10
-15.80837807271206
 20
107.3487992312065
 30
0.0
 41
0.707106781186522
 10
-15.02097649790929
 20
107.3487992312071
 30
0.0
 41
1.0
  0
SPLINE
  5
E8
330
1F
100
AcDbEntity
  8
TABLE
100
AcDbSpline
210
0.0
220
0.0
230
1.0
 70
    24
 71
     2
 72
     6
 73
     3
 74
     0
 42
0.0000000001
 43
0.0000000001
 40
0.0
 40
0.0
 40
0.0
 40
14.17322834645506
 40
14.17322834645506
 40
14.17322834645506
 10
-15.02097649790929
 20
107.3487992312071
 30
0.0
 10
-7.934362324681786
 20
107.3487992312071
 30
0.0
 10
-0.8477481514541836
 20
107.3487992312071
 30
0.0
  0
POLYLINE
  5
E9
330
1F
100
AcDbEntity
  8
FRAME
100
AcDb2dPolyline
 66
     1
 10
0.0
 20
0.0
 30
0.0
  0
VERTEX
  5
EA
330
E9
100
AcDbEntity
  8
FRAME
100
AcDbVertex
100
AcDb2dVertex
 10
-0.1377295264893945
 20
-90.91178276459904
 30
0.0
  0
VERTEX
  5
EB
330
E9
100
AcDbEntity
  8
FRAME
100
AcDbVertex
100
AcDb2dVertex
 10
0.0603465766494082
 20
-90.91178276459904
 30
0.0
  0
SEQEND
  5
EC
330
E9
100
AcDbEntity
  8
FRAME
  0
SPLINE
  5
ED
330
1F
100
AcDbEntity
  8
FRAME
100
AcDbSpline
210
0.0
220
0.0
230
1.0
 70
    28
 71
     2
 72
     6
 73
     3
 74
     0
 42
0.0000000001
 43
0.0000000001
 40
15.64961489180469
 40
15.64961489180469
 40
15.64961489180469
 40
16.43701646660789
 40
16.43701646660789
 40
16.43701646660789
 10
0.0603465766494082
 20
-90.91178276459904
 30
0.0
 41
1.0
 10
0.0603465766494082
 20
-90.51808197719744
 30
0.0
 41
1.0
 10
0.0603465766493088
 20
-90.12438118979584
 30
0.0
 41
1.0
  0
POLYLINE
  5
EE
330
1F
100
AcDbEntity
  8
FRAME
100
AcDb2dPolyline
 66
     1
 10
0.0
 20
0.0
 30
0.0
  0
VERTEX
  5
EF
330
EE
100
AcDbEntity
  8
FRAME
100
AcDbVertex
100
AcDb2dVertex
 10
0.0603465766493088
 20
-90.12438118979584
 30
0.0
  0
VERTEX
  5
F0
330
EE
100
AcDbEntity
  8
FRAME
100
AcDbVertex
100
AcDb2dVertex
 10
-0.1377295264893945
 20
-90.12438118979584
 30
0.0
  0
SEQEND
  5
F1
330
EE
100
AcDbEntity
  8
FRAME
  0
SPLINE
  5
F2
330
1F
100
AcDbEntity
  8
FRAME
100
AcDbSpline
210
0.0
220
0.0
230
1.0
 70
    28
 71
     2
 72
     6
 73
     3
 74
     0
 42
0.0000000001
 43
0.0000000001
 40
-90.16478741805747
 40
-90.16478741805747
 40
-90.16478741805747
 40
-89.37738584325427
 40
-89.37738584325427
 40
-89.37738584325427
 10
-0.1377295264893945
 20
-90.12438118979584
 30
0.0
 41
1.0
 10
-0.1377295264893945
 20
-90.51808197719744
 30
0.0
 41
1.0
 10
-0.1377295264893945
 20
-90.91178276459904
 30
0.0
 41
1.0
  0
POLYLINE
  5
F3
330
1F
100
AcDbEntity
  8
FRAME
100
AcDb2dPolyline
 66
     1
 10
0.0
 20
0.0
 30
0.0
  0
VERTEX
  5
F4
330
F3
100
AcDbEntity
  8
FRAME
100
AcDbVertex
100
AcDb2dVertex
 10
-74.62361355616943
 20
-99.7250124175056
 30
0.0
  0
VERTEX
  5
F5
330
F3
100
AcDbEntity
  8
FRAME
100
AcDbVertex
100
AcDb2dVertex
 10
-74.62194523594366
 20
-98.6962142025431
 30
0.0
  0
SEQEND
  5
F6
330
F3
100
AcDbEntity
  8
FRAME
  0
SPLINE
  5
F7
330
1F
100
AcDbEntity
  8
FRAME
100
AcDbSpline
210
0.0
220
0.0
230
1.0
 70
    12
 71
     2
 72
     6
 73
     3
 74
     0
 42
0.0000000001
 43
0.0000000001
 40
-258.2873964838304
 40
-258.2873964838304
 40
-258.2873964838304
 40
-257.5152774109893
 40
-257.5152774109893
 40
-257.5152774109893
 10
-74.62194523594366
 20
-98.69621420254309
 30
0.0
 41
0.955067298243294
 10
-74.24786657215293
 20
-98.79536309963794
 30
0.0
 41
0.9561709074550575
 10
-73.87219543678796
 20
-98.88829648316013
 30
0.0
 41
0.9573469678003029
  0
POLYLINE
  5
F8
330
1F
100
AcDbEntity
  8
FRAME
100
AcDb2dPolyline
 66
     1
 10
0.0
 20
0.0
 30
0.0
  0
VERTEX
  5
F9
330
F8
100
AcDbEntity
  8
FRAME
100
AcDbVertex
100
AcDb2dVertex
 10
-73.87219543678796
 20
-98.88829648316015
 30
0.0
  0
VERTEX
  5
FA
330
F8
100
AcDbEntity
  8
FRAME
100
AcDbVertex
100
AcDb2dVertex
 10
-73.87391638258862
 20
-99.9124246138774
 30
0.0
  0
SEQEND
  5
FB
330
F8
100
AcDbEntity
  8
FRAME
  0
SPLINE
  5
FC
330
1F
100
AcDbEntity
  8
FRAME
100
AcDbSpline
210
0.0
220
0.0
230
1.0
 70
    12
 71
     2
 72
     6
 73
     3
 74
     0
 42
0.0000000001
 43
0.0000000001
 40
-97.24910653952114
 40
-97.24910653952114
 40
-97.24910653952114
 40
-96.477677419415
 40
-96.477677419415
 40
-96.477677419415
 10
-73.87391638258863
 20
-99.9124246138774
 30
0.0
 41
0.9577430987429659
 10
-74.24955422015898
 20
-99.82187572258873
 30
0.0
 41
0.9565720236233404
 10
-74.62361355616943
 20
-99.7250124175056
 30
0.0
 41
0.9554701571652199
  0
SPLINE
  5
FE
330
1F
100
AcDbEntity
  8
SCREEN
100
AcDbSpline
210
0.0
220
0.0
230
1.0
 70
    12
 71
     2
 72
     6
 73
     3
 74
     0
 42
0.0000000001
 43
0.0000000001
 40
0.0
 40
0.0
 40
0.0
 40
1.178105090588491
 40
1.178105090588491
 40
1.178105090588491
 10
0.7369191404086166
 20
-1.638560468282222
 30
0.0
 41
1.0
 10
-0.0132919919777936
 20
-1.638563452423332
 30
0.0
 41
0.7071093892583941
 10
-0.0132918922507892
 20
-0.8885604682829293
 30
0.0
 41
0.9999999999459621
  0
SPLINE
  5
FF
330
1F
100
AcDbEntity
  8
SCREEN
100
AcDbSpline
210
0.0
220
0.0
230
1.0
 70
     8
 71
     2
 72
     6
 73
     3
 74
     0
 42
0.0000000001
 43
0.0000000001
 40
0.0
 40
0.0
 40
0.0
 40
1.750000000000014
 40
1.750000000000014
 40
1.750000000000014
 10
-0.0132918922507892
 20
-0.8885604682829293
 30
0.0
 10
-0.0132832757531958
 20
-0.013560468282833
 30
0.0
 10
-0.0132967775763863
 20
0.8614395317171696
 30
0.0
  0
SPLINE
  5
100
330
1F
100
AcDbEntity
  8
SCREEN
100
AcDbSpline
210
0.0
220
0.0
230
1.0
 70
    12
 71
     2
 72
     6
 73
     3
 74
     0
 42
0.0000000001
 43
0.0000000001
 40
0.0
 40
0.0
 40
0.0
 40
1.17811209908281
 40
1.17811209908281
 40
1.17811209908281
 10
-0.0132967775763863
 20
0.8614395317171696
 30
0.0
 41
0.9999999998938163
 10
-0.013299599282794
 20
1.61144828952398
 30
0.0
 41
0.7071076873231747
 10
0.7369087151345042
 20
1.611439531716968
 30
0.0
 41
1.0
  0
SPLINE
  5
101
330
1F
100
AcDbEntity
  8
SCREEN
100
AcDbSpline
210
0.0
220
0.0
230
1.0
 70
    24
 71
     2
 72
     6
 73
     3
 74
     0
 42
0.0000000001
 43
0.0000000001
 40
0.0
 40
0.0
 40
0.0
 40
0.2496084523346269
 40
0.2496084523346269
 40
0.2496084523346269
 10
0.7369087151345042
 20
1.611439531716968
 30
0.0
 10
0.861912498079505
 20
1.611439531717167
 30
0.0
 10
0.9867167242468042
 20
1.611439531717167
 30
0.0
  0
SPLINE
  5
102
330
1F
100
AcDbEntity
  8
SCREEN
100
AcDbSpline
210
0.0
220
0.0
230
1.0
 70
    24
 71
     2
 72
     6
 73
     3
 74
     0
 42
0.0000000001
 43
0.0000000001
 40
0.0
 40
0.0
 40
0.0
 40
60.9921260089202
 40
60.9921260089202
 40
60.9921260089202
 10
0.9867167242468042
 20
1.611439531717167
 30
0.0
 10
31.4827797287069
 20
1.611439531717167
 30
0.0
 10
61.978842733167
 20
1.611439531717167
 30
0.0
  0
SPLINE
  5
103
330
1F
100
AcDbEntity
  8
SCREEN
100
AcDbSpline
210
0.0
220
0.0
230
1.0
 70
    24
 71
     2
 72
     6
 73
     3
 74
     0
 42
0.0000000001
 43
0.0000000001
 40
0.0
 40
0.0
 40
0.0
 40
0.2495894355375299
 40
0.2495894355375299
 40
0.2495894355375299
 10
61.978842733167
 20
1.611439531717167
 30
0.0
 10
62.10363745093582
 20
1.611439531717167
 30
0.0
 10
62.2286403170059
 20
1.611439531716471
 30
0.0
  0
SPLINE
  5
104
330
1F
100
AcDbEntity
  8
SCREEN
100
AcDbSpline
210
0.0
220
0.0
230
1.0
 70
    12
 71
     2
 72
     6
 73
     3
 74
     0
 42
0.0000000001
 43
0.0000000001
 40
0.0
 40
0.0
 40
0.0
 40
1.17810509058839
 40
1.17810509058839
 40
1.17810509058839
 10
62.2286403170059
 20
1.611439531716471
 30
0.0
 41
1.0
 10
62.97885144939242
 20
1.611442515857477
 30
0.0
 41
0.7071093892584208
 10
62.97885134966513
 20
0.8614395317171661
 30
0.0
 41
0.9999999999459621
  0
SPLINE
  5
105
330
1F
100
AcDbEntity
  8
SCREEN
100
AcDbSpline
210
0.0
220
0.0
230
1.0
 70
     8
 71
     2
 72
     6
 73
     3
 74
     0
 42
0.0000000001
 43
0.0000000001
 40
-1.750000000000014
 40
-1.750000000000014
 40
-1.750000000000014
 40
0.0
 40
0.0
 40
0.0
 10
62.97885134966512
 20
0.861439531717167
 30
0.0
 10
62.9788427331676
 20
-0.013560468282833
 30
0.0
 10
62.9788562349907
 20
-0.88856046828293
 30
0.0
  0
SPLINE
  5
106
330
1F
100
AcDbEntity
  8
SCREEN
100
AcDbSpline
210
0.0
220
0.0
230
1.0
 70
    12
 71
     2
 72
     6
 73
     3
 74
     0
 42
0.0000000001
 43
0.0000000001
 40
0.0
 40
0.0
 40
0.0
 40
1.178112099082792
 40
1.178112099082792
 40
1.178112099082792
 10
62.9788562349907
 20
-0.88856046828293
 30
0.0
 41
0.9999999998938163
 10
62.97885905669722
 20
-1.638569226089734
 30
0.0
 41
0.7071076873231412
 10
62.22865074228
 20
-1.638560468282634
 30
0.0
 41
1.0
  0
SPLINE
  5
107
330
1F
100
AcDbEntity
  8
SCREEN
100
AcDbSpline
210
0.0
220
0.0
230
1.0
 70
    24
 71
     2
 72
     6
 73
     3
 74
     0
 42
0.0000000001
 43
0.0000000001
 40
0.0
 40
0.0
 40
0.0
 40
0.2496084523347122
 40
0.2496084523347122
 40
0.2496084523347122
 10
62.22865074228
 20
-1.638560468282634
 30
0.0
 10
62.10364695933492
 20
-1.638560468282932
 30
0.0
 10
61.9788427331676
 20
-1.638560468282932
 30
0.0
  0
SPLINE
  5
108
330
1F
100
AcDbEntity
  8
SCREEN
100
AcDbSpline
210
0.0
220
0.0
230
1.0
 70
    24
 71
     2
 72
     6
 73
     3
 74
     0
 42
0.0000000001
 43
0.0000000001
 40
0.0
 40
0.0
 40
0.0
 40
60.99212600892017
 40
60.99212600892017
 40
60.99212600892017
 10
61.9788427331676
 20
-1.638560468282932
 30
0.0
 10
31.4827797287075
 20
-1.638560468282932
 30
0.0
 10
0.9867167242474153
 20
-1.638560468282932
 30
0.0
  0
SPLINE
  5
109
330
1F
100
AcDbEntity
  8
SCREEN
100
AcDbSpline
210
0.0
220
0.0
230
1.0
 70
    24
 71
     2
 72
     6
 73
     3
 74
     0
 42
0.0000000001
 43
0.0000000001
 40
0.0
 40
0.0
 40
0.0
 40
0.2495894355375441
 40
0.2495894355375441
 40
0.2495894355375441
 10
0.9867167242474153
 20
-1.638560468282932
 30
0.0
 10
0.8619220064787072
 20
-1.638560468282932
 30
0.0
 10
0.7369191404086166
 20
-1.638560468282222
 30
0.0
  0
SPLINE
  5
10A
330
1F
100
AcDbEntity
  8
TABLE
100
AcDbSpline
210
0.0
220
0.0
230
1.0
 70
    12
 71
     2
 72
     6
 73
     3
 74
     0
 42
0.0000000001
 43
0.0000000001
 40
0.0
 40
0.0
 40
0.0
 40
1.236847501413946
 40
1.236847501413946
 40
1.236847501413946
 10
0.847748151454212
 20
-107.3487992312071
 30
0.0
 41
1.0
 10
0.0603465766509143
 20
-107.3487992312071
 30
0.0
 41
0.7071067811868347
 10
0.0603465766503035
 20
-106.5613976564037
 30
0.0
 41
1.0
  0
SPLINE
  5
10B
330
1F
100
AcDbEntity
  8
TABLE
100
AcDbSpline
210
0.0
220
0.0
230
1.0
 70
    24
 71
     2
 72
     6
 73
     3
 74
     0
 42
0.0000000001
 43
0.0000000001
 40
0.0
 40
0.0
 40
0.0
 40
24.01576521667783
 40
24.01576521667783
 40
24.01576521667783
 10
0.0603465766503035
 20
-106.5613976564037
 30
0.0
 10
0.0603465766496072
 20
-94.55351504806485
 30
0.0
 10
0.0603465766489109
 20
-82.54563243972585
 30
0.0
  0
SPLINE
  5
10C
330
1F
100
AcDbEntity
  8
TABLE
100
AcDbSpline
210
0.0
220
0.0
230
1.0
 70
    12
 71
     2
 72
     6
 73
     3
 74
     0
 42
0.0000000001
 43
0.0000000001
 40
0.0
 40
0.0
 40
0.0
 40
1.236847501412776
 40
1.236847501412776
 40
1.236847501412776
 10
0.0603465766489109
 20
-82.54563243972585
 30
0.0
 41
1.0
 10
0.0603465766491163
 20
-81.75823086492294
 30
0.0
 41
0.7071067811864582
 10
0.8477481514520093
 20
-81.75823086492333
 30
0.0
 41
1.0
  0
SPLINE
  5
10D
330
1F
100
AcDbEntity
  8
TABLE
100
AcDbSpline
210
0.0
220
0.0
230
1.0
 70
    24
 71
     2
 72
     6
 73
     3
 74
     0
 42
0.0000000001
 43
0.0000000001
 40
0.0
 40
0.0
 40
0.0
 40
14.17322834645617
 40
14.17322834645617
 40
14.17322834645617
 10
0.8477481514520093
 20
-81.75823086492333
 30
0.0
 10
7.934362324680109
 20
-81.75823086492353
 30
0.0
 10
15.02097649790821
 20
-81.75823086492365
 30
0.0
  0
SPLINE
  5
10E
330
1F
100
AcDbEntity
  8
TABLE
100
AcDbSpline
210
0.0
220
0.0
230
1.0
 70
    12
 71
     2
 72
     6
 73
     3
 74
     0
 42
0.0000000001
 43
0.0000000001
 40
0.0
 40
0.0
 40
0.0
 40
1.236847501414238
 40
1.236847501414238
 40
1.236847501414238
 10
15.02097649790821
 20
-81.75823086492365
 30
0.0
 41
1.0
 10
15.80837807271141
 20
-81.75823086492447
 30
0.0
 41
0.7071067811872048
 10
15.808378072712
 20
-82.54563243972764
 30
0.0
 41
1.0
  0
SPLINE
  5
10F
330
1F
100
AcDbEntity
  8
TABLE
100
AcDbSpline
210
0.0
220
0.0
230
1.0
 70
    24
 71
     2
 72
     6
 73
     3
 74
     0
 42
0.0000000001
 43
0.0000000001
 40
0.0
 40
0.0
 40
0.0
 40
24.01576521667596
 40
24.01576521667596
 40
24.01576521667596
 10
15.808378072712
 20
-82.54563243972764
 30
0.0
 10
15.8083780727118
 20
-94.55351504806565
 30
0.0
 10
15.80837807271152
 20
-106.5613976564037
 30
0.0
  0
SPLINE
  5
110
330
1F
100
AcDbEntity
  8
TABLE
100
AcDbSpline
210
0.0
220
0.0
230
1.0
 70
    12
 71
     2
 72
     6
 73
     3
 74
     0
 42
0.0000000001
 43
0.0000000001
 40
0.0
 40
0.0
 40
0.0
 40
1.236847501412723
 40
1.236847501412723
 40
1.236847501412723
 10
15.80837807271152
 20
-106.5613976564037
 30
0.0
 41
1.0
 10
15.80837807271211
 20
-107.3487992312064
 30
0.0
 41
0.707106781186522
 10
15.02097649790932
 20
-107.348799231207
 30
0.0
 41
1.0
  0
SPLINE
  5
111
330
1F
100
AcDbEntity
  8
TABLE
100
AcDbSpline
210
0.0
220
0.0
230
1.0
 70
    24
 71
     2
 72
     6
 73
     3
 74
     0
 42
0.0000000001
 43
0.0000000001
 40
0.0
 40
0.0
 40
0.0
 40
14.17322834645506
 40
14.17322834645506
 40
14.17322834645506
 10
15.02097649790932
 20
-107.348799231207
 30
0.0
 10
7.934362324681814
 20
-107.3487992312071
 30
0.0
 10
0.847748151454212
 20
-107.3487992312071
 30
0.0
  0
SPLINE
  5
112
330
1F
100
AcDbEntity
  8
FRAME
100
AcDbSpline
210
0.0
220
0.0
230
1.0
 70
    28
 71
     2
 72
     6
 73
     3
 74
     0
 42
0.0000000001
 43
0.0000000001
 40
78.00852321135847
 40
78.00852321135847
 40
78.00852321135847
 40
78.79592478616127
 40
78.79592478616127
 40
78.79592478616127
 10
9.041873207135705
 20
1.611439531717166
 30
0.0
 41
1.000000000106184
 10
9.435573994537108
 20
1.611439531717166
 30
0.0
 41
1.000000000106184
 10
9.82927478193851
 20
1.611439531717167
 30
0.0
 41
1.000000000106184
  0
POLYLINE
  5
113
330
1F
100
AcDbEntity
  8
FRAME
100
AcDb2dPolyline
 66
     1
 10
0.0
 20
0.0
 30
0.0
  0
VERTEX
  5
114
330
113
100
AcDbEntity
  8
FRAME
100
AcDbVertex
100
AcDb2dVertex
 10
9.82927478193851
 20
1.611439531717167
 30
0.0
  0
VERTEX
  5
115
330
113
100
AcDbEntity
  8
FRAME
100
AcDbVertex
100
AcDb2dVertex
 10
9.829274781938508
 20
2.457891475211767
 30
0.0
  0
SEQEND
  5
116
330
113
100
AcDbEntity
  8
FRAME
  0
SPLINE
  5
117
330
1F
100
AcDbEntity
  8
FRAME
100
AcDbSpline
210
0.0
220
0.0
230
1.0
 70
    12
 71
     2
 72
     6
 73
     3
 74
     0
 42
0.0000000001
 43
0.0000000001
 40
58.70556448562523
 40
58.70556448562523
 40
58.70556448562523
 40
59.49296606042802
 40
59.49296606042802
 40
59.49296606042802
 10
9.829274781938508
 20
2.457891475211767
 30
0.0
 41
1.0
 10
9.435573994537108
 20
2.457904976451275
 30
0.0
 41
1.0
 10
9.041873207135708
 20
2.457891475211767
 30
0.0
 41
1.0
  0
POLYLINE
  5
118
330
1F
100
AcDbEntity
  8
FRAME
100
AcDb2dPolyline
 66
     1
 10
0.0
 20
0.0
 30
0.0
  0
VERTEX
  5
119
330
118
100
AcDbEntity
  8
FRAME
100
AcDbVertex
100
AcDb2dVertex
 10
9.041873207135708
 20
2.457891475211767
 30
0.0
  0
VERTEX
  5
11A
330
118
100
AcDbEntity
  8
FRAME
100
AcDbVertex
100
AcDb2dVertex
 10
9.041873207135705
 20
1.611439531717166
 30
0.0
  0
SEQEND
  5
11B
330
118
100
AcDbEntity
  8
FRAME
  0
SPLINE
  5
11C
330
1F
100
AcDbEntity
  8
BACKS
100
AcDbSpline
210
0.0
220
0.0
230
1.0
 70
    24
 71
     2
 72
     6
 73
     3
 74
     0
 42
0.0000000001
 43
0.0000000001
 40
0.2468935584247509
 40
0.2468935584247509
 40
0.2468935584247509
 40
4.996893558424962
 40
4.996893558424962
 40
4.996893558424962
 10
-0.0224483888441966
 20
-8.235025913017452
 30
0.0
 10
-0.0224483888440972
 20
-5.860025913017324
 30
0.0
 10
-0.0224483888441966
 20
-3.485025913017125
 30
0.0
  0
ARC
  5
11D
330
1F
100
AcDbEntity
  8
BACKS
100
AcDbCircle
 10
-1.022448388844197
 20
-3.485025913017125
 30
0.0
 40
1.0
100
AcDbArc
 50
0.0
 51
90.0000000000114
  0
SPLINE
  5
11E
330
1F
100
AcDbEntity
  8
BACKS
100
AcDbSpline
210
0.0
220
0.0
230
1.0
 70
    24
 71
     2
 72
     6
 73
     3
 74
     0
 42
0.0000000001
 43
0.0000000001
 40
-60.98959792120331
 40
-60.98959792120331
 40
-60.98959792120331
 40
0.0
 40
0.0
 40
0.0
 10
-1.022448388844396
 20
-2.485025913017125
 30
0.0
 10
-31.517247349446
 20
-2.485025913017026
 30
0.0
 10
-62.01204631004769
 20
-2.485025913017026
 30
0.0
  0
ARC
  5
11F
330
1F
100
AcDbEntity
  8
BACKS
100
AcDbCircle
 10
-62.0120463100489
 20
-3.485025913017026
 30
0.0
 40
1.0
100
AcDbArc
 50
89.9999999999308
 51
180.0000000000033
  0
SPLINE
  5
120
330
1F
100
AcDbEntity
  8
BACKS
100
AcDbSpline
210
0.0
220
0.0
230
1.0
 70
    24
 71
     2
 72
     6
 73
     3
 74
     0
 42
0.0000000001
 43
0.0000000001
 40
-4.999999999999968
 40
-4.999999999999968
 40
-4.999999999999968
 40
-0.2500000000000193
 40
-0.2500000000000193
 40
-0.2500000000000193
 10
-63.0120463100489
 20
-3.485025913017084
 30
0.0
 10
-63.0120463100489
 20
-5.860025913017125
 30
0.0
 10
-63.01204631004902
 20
-8.235025913017012
 30
0.0
  0
ARC
  5
121
330
1F
100
AcDbEntity
  8
BACKS
100
AcDbCircle
 10
-62.01204631004902
 20
-8.235025913017111
 30
0.0
 40
1.0
100
AcDbArc
 50
179.9999999999943
 51
270.0
  0
SPLINE
  5
122
330
1F
100
AcDbEntity
  8
BACKS
100
AcDbSpline
210
0.0
220
0.0
230
1.0
 70
    24
 71
     2
 72
     6
 73
     3
 74
     0
 42
0.0000000001
 43
0.0000000001
 40
-61.00000030076362
 40
-61.00000030076362
 40
-61.00000030076362
 40
-0.0104023795593044
 40
-0.0104023795593044
 40
-0.0104023795593044
 10
-62.01204631004902
 20
-9.235025913017111
 30
0.0
 10
-31.517247349446
 20
-9.235025913017111
 30
0.0
 10
-1.022448388843785
 20
-9.235025913017111
 30
0.0
  0
ARC
  5
123
330
1F
100
AcDbEntity
  8
BACKS
100
AcDbCircle
 10
-1.022448388843785
 20
-8.235025913017523
 30
0.0
 40
0.9999999999995879
100
AcDbArc
 50
270.0
 51
0.0000000000040711
  0
SPLINE
  5
124
330
1F
100
AcDbEntity
  8
BACKS
100
AcDbSpline
210
0.0
220
0.0
230
1.0
 70
    24
 71
     2
 72
     6
 73
     3
 74
     0
 42
0.0000000001
 43
0.0000000001
 40
0.2468935584247509
 40
0.2468935584247509
 40
0.2468935584247509
 40
4.996893558424962
 40
4.996893558424962
 40
4.996893558424962
 10
62.96714938234382
 20
-8.235025913017452
 30
0.0
 10
62.96714938234391
 20
-5.860025913017324
 30
0.0
 10
62.96714938234382
 20
-3.485025913017125
 30
0.0
  0
ARC
  5
125
330
1F
100
AcDbEntity
  8
BACKS
100
AcDbCircle
 10
61.96714938234382
 20
-3.485025913017125
 30
0.0
 40
1.0
100
AcDbArc
 50
0.0
 51
90.0000000000114
  0
SPLINE
  5
126
330
1F
100
AcDbEntity
  8
BACKS
100
AcDbSpline
210
0.0
220
0.0
230
1.0
 70
    24
 71
     2
 72
     6
 73
     3
 74
     0
 42
0.0000000001
 43
0.0000000001
 40
-60.98959792120331
 40
-60.98959792120331
 40
-60.98959792120331
 40
0.0
 40
0.0
 40
0.0
 10
61.96714938234362
 20
-2.485025913017125
 30
0.0
 10
31.47235042174202
 20
-2.485025913017026
 30
0.0
 10
0.9775514611403224
 20
-2.485025913017026
 30
0.0
  0
ARC
  5
127
330
1F
100
AcDbEntity
  8
BACKS
100
AcDbCircle
 10
0.9775514611391145
 20
-3.485025913017026
 30
0.0
 40
1.0
100
AcDbArc
 50
89.9999999999308
 51
180.0000000000033
  0
SPLINE
  5
128
330
1F
100
AcDbEntity
  8
BACKS
100
AcDbSpline
210
0.0
220
0.0
230
1.0
 70
    24
 71
     2
 72
     6
 73
     3
 74
     0
 42
0.0000000001
 43
0.0000000001
 40
-4.999999999999968
 40
-4.999999999999968
 40
-4.999999999999968
 40
-0.2500000000000193
 40
-0.2500000000000193
 40
-0.2500000000000193
 10
-0.0224485388608855
 20
-3.485025913017084
 30
0.0
 10
-0.0224485388608855
 20
-5.860025913017125
 30
0.0
 10
-0.022448538860985
 20
-8.235025913017012
 30
0.0
  0
ARC
  5
129
330
1F
100
AcDbEntity
  8
BACKS
100
AcDbCircle
 10
0.977551461139015
 20
-8.235025913017111
 30
0.0
 40
1.0
100
AcDbArc
 50
179.9999999999943
 51
270.0
  0
SPLINE
  5
12A
330
1F
100
AcDbEntity
  8
BACKS
100
AcDbSpline
210
0.0
220
0.0
230
1.0
 70
    24
 71
     2
 72
     6
 73
     3
 74
     0
 42
0.0000000001
 43
0.0000000001
 40
-61.00000030076362
 40
-61.00000030076362
 40
-61.00000030076362
 40
-0.0104023795593044
 40
-0.0104023795593044
 40
-0.0104023795593044
 10
0.9775514611390154
 20
-9.235025913017111
 30
0.0
 10
31.47235042174202
 20
-9.235025913017111
 30
0.0
 10
61.96714938234422
 20
-9.235025913017111
 30
0.0
  0
ARC
  5
12B
330
1F
100
AcDbEntity
  8
BACKS
100
AcDbCircle
 10
61.96714938234422
 20
-8.235025913017509
 30
0.0
 40
0.9999999999996021
100
AcDbArc
 50
270.0
 51
0.0000000000032569
  0
POLYLINE
  5
12C
330
1F
100
AcDbEntity
  8
FRAME
100
AcDb2dPolyline
 66
     1
 10
0.0
 20
0.0
 30
0.0
  0
VERTEX
  5
12D
330
12C
100
AcDbEntity
  8
FRAME
100
AcDbVertex
100
AcDb2dVertex
 10
-9.071062918637793
 20
-10.235079619546
 30
0.0
  0
VERTEX
  5
12E
330
12C
100
AcDbEntity
  8
FRAME
100
AcDbVertex
100
AcDb2dVertex
 10
-9.071062918637793
 20
-9.235025913017111
 30
0.0
  0
SEQEND
  5
12F
330
12C
100
AcDbEntity
  8
FRAME
  0
SPLINE
  5
130
330
1F
100
AcDbEntity
  8
FRAME
100
AcDbSpline
210
0.0
220
0.0
230
1.0
 70
    28
 71
     2
 72
     6
 73
     3
 74
     0
 42
0.0000000001
 43
0.0000000001
 40
-128.3898638514248
 40
-128.3898638514248
 40
-128.3898638514248
 40
-127.6024622766217
 40
-127.6024622766217
 40
-127.6024622766217
 10
-9.071062918637793
 20
-9.235025913017111
 30
0.0
 41
1.0
 10
-9.464763706039392
 20
-9.235025913017111
 30
0.0
 41
1.0
 10
-9.858464493440891
 20
-9.235025913017111
 30
0.0
 41
1.0
  0
POLYLINE
  5
131
330
1F
100
AcDbEntity
  8
FRAME
100
AcDb2dPolyline
 66
     1
 10
0.0
 20
0.0
 30
0.0
  0
VERTEX
  5
132
330
131
100
AcDbEntity
  8
FRAME
100
AcDbVertex
100
AcDb2dVertex
 10
-9.858464493440891
 20
-9.235025913017111
 30
0.0
  0
VERTEX
  5
133
330
131
100
AcDbEntity
  8
FRAME
100
AcDbVertex
100
AcDb2dVertex
 10
-9.858464493440891
 20
-10.23507961954606
 30
0.0
  0
SEQEND
  5
134
330
131
100
AcDbEntity
  8
FRAME
  0
SPLINE
  5
135
330
1F
100
AcDbEntity
  8
FRAME
100
AcDbSpline
210
0.0
220
0.0
230
1.0
 70
    28
 71
     2
 72
     6
 73
     3
 74
     0
 42
0.0000000001
 43
0.0000000001
 40
-27.38630242909796
 40
-27.38630242909796
 40
-27.38630242909796
 40
-26.59890085429478
 40
-26.59890085429478
 40
-26.59890085429478
 10
-9.858464493440891
 20
-10.23507961954606
 30
0.0
 41
1.0
 10
-9.464763706039292
 20
-10.235079619546
 30
0.0
 41
1.0
 10
-9.071062918637793
 20
-10.235079619546
 30
0.0
 41
1.0
  0
SPLINE
  5
136
330
1F
100
AcDbEntity
  8
FRAME
100
AcDbSpline
210
0.0
220
0.0
230
1.0
 70
    28
 71
     2
 72
     6
 73
     3
 74
     0
 42
0.0000000001
 43
0.0000000001
 40
-84.29537566276103
 40
-84.29537566276103
 40
-84.29537566276103
 40
-83.50797408795822
 40
-83.50797408795822
 40
-83.50797408795822
 10
-9.984224579219287
 20
-101.1785418918983
 30
0.0
 41
1.0
 10
-9.590523791817887
 20
-101.1785418918983
 30
0.0
 41
1.0
 10
-9.196823004416487
 20
-101.1785418918983
 30
0.0
 41
1.0
  0
POLYLINE
  5
137
330
1F
100
AcDbEntity
  8
FRAME
100
AcDb2dPolyline
 66
     1
 10
0.0
 20
0.0
 30
0.0
  0
VERTEX
  5
138
330
137
100
AcDbEntity
  8
FRAME
100
AcDbVertex
100
AcDb2dVertex
 10
-9.196823004416487
 20
-101.1785418918983
 30
0.0
  0
VERTEX
  5
139
330
137
100
AcDbEntity
  8
FRAME
100
AcDbVertex
100
AcDb2dVertex
 10
-9.196823004416487
 20
-100.1784881853693
 30
0.0
  0
SEQEND
  5
13A
330
137
100
AcDbEntity
  8
FRAME
  0
SPLINE
  5
13B
330
1F
100
AcDbEntity
  8
FRAME
100
AcDbSpline
210
0.0
220
0.0
230
1.0
 70
    28
 71
     2
 72
     6
 73
     3
 74
     0
 42
0.0000000001
 43
0.0000000001
 40
-71.48079061776205
 40
-71.48079061776205
 40
-71.48079061776205
 40
-70.6933890429592
 40
-70.6933890429592
 40
-70.6933890429592
 10
-9.196823004416487
 20
-100.1784881853693
 30
0.0
 41
1.0
 10
-9.590523791817787
 20
-100.1784881853693
 30
0.0
 41
1.0
 10
-9.984224579219287
 20
-100.1784881853693
 30
0.0
 41
1.0
  0
POLYLINE
  5
13C
330
1F
100
AcDbEntity
  8
FRAME
100
AcDb2dPolyline
 66
     1
 10
0.0
 20
0.0
 30
0.0
  0
VERTEX
  5
13D
330
13C
100
AcDbEntity
  8
FRAME
100
AcDbVertex
100
AcDb2dVertex
 10
-9.984224579219287
 20
-100.1784881853693
 30
0.0
  0
VERTEX
  5
13E
330
13C
100
AcDbEntity
  8
FRAME
100
AcDbVertex
100
AcDb2dVertex
 10
-9.984224579219287
 20
-101.1785418918983
 30
0.0
  0
SEQEND
  5
13F
330
13C
100
AcDbEntity
  8
FRAME
  0
POLYLINE
  5
140
330
1F
100
AcDbEntity
  8
FRAME
100
AcDb2dPolyline
 66
     1
 10
0.0
 20
0.0
 30
0.0
  0
VERTEX
  5
141
330
140
100
AcDbEntity
  8
FRAME
100
AcDbVertex
100
AcDb2dVertex
 10
53.92376297060281
 20
1.611439531717167
 30
0.0
  0
VERTEX
  5
142
330
140
100
AcDbEntity
  8
FRAME
100
AcDbVertex
100
AcDb2dVertex
 10
53.92376297060281
 20
2.457891475211767
 30
0.0
  0
SEQEND
  5
143
330
140
100
AcDbEntity
  8
FRAME
  0
SPLINE
  5
144
330
1F
100
AcDbEntity
  8
FRAME
100
AcDbSpline
210
0.0
220
0.0
230
1.0
 70
    12
 71
     2
 72
     6
 73
     3
 74
     0
 42
0.0000000001
 43
0.0000000001
 40
14.61107629696086
 40
14.61107629696086
 40
14.61107629696086
 40
15.39847787176386
 40
15.39847787176386
 40
15.39847787176386
 10
53.92376297060281
 20
2.457891475211767
 30
0.0
 41
1.0
 10
53.53006218320132
 20
2.457904976451374
 30
0.0
 41
1.0
 10
53.13636139579981
 20
2.457891475211767
 30
0.0
 41
1.0
  0
POLYLINE
  5
145
330
1F
100
AcDbEntity
  8
FRAME
100
AcDb2dPolyline
 66
     1
 10
0.0
 20
0.0
 30
0.0
  0
VERTEX
  5
146
330
145
100
AcDbEntity
  8
FRAME
100
AcDbVertex
100
AcDb2dVertex
 10
53.13636139579981
 20
2.457891475211767
 30
0.0
  0
VERTEX
  5
147
330
145
100
AcDbEntity
  8
FRAME
100
AcDbVertex
100
AcDb2dVertex
 10
53.13636139579981
 20
1.611439531717167
 30
0.0
  0
SEQEND
  5
148
330
145
100
AcDbEntity
  8
FRAME
  0
SPLINE
  5
149
330
1F
100
AcDbEntity
  8
FRAME
100
AcDbSpline
210
0.0
220
0.0
230
1.0
 70
    28
 71
     2
 72
     6
 73
     3
 74
     0
 42
0.0000000001
 43
0.0000000001
 40
122.1030114000226
 40
122.1030114000226
 40
122.1030114000226
 40
122.8904129748256
 40
122.8904129748256
 40
122.8904129748256
 10
53.1363613957998
 20
1.611439531717166
 30
0.0
 41
1.000000000106184
 10
53.53006218320132
 20
1.611439531717166
 30
0.0
 41
1.000000000106184
 10
53.92376297060281
 20
1.611439531717167
 30
0.0
 41
1.000000000106184
  0
SPLINE
  5
14A
330
1F
100
AcDbEntity
  8
BACKS
100
AcDbSpline
210
0.0
220
0.0
230
1.0
 70
    24
 71
     2
 72
     6
 73
     3
 74
     0
 42
0.0000000001
 43
0.0000000001
 40
0.2468935584247509
 40
0.2468935584247509
 40
0.2468935584247509
 40
4.996893558424962
 40
4.996893558424962
 40
4.996893558424962
 10
63.1273272976774
 20
102.178541891898
 30
0.0
 10
63.1273272976774
 20
104.5535418918981
 30
0.0
 10
63.12732729767731
 20
106.9285418918983
 30
0.0
  0
ARC
  5
14B
330
1F
100
AcDbEntity
  8
BACKS
100
AcDbCircle
 10
62.12732729767731
 20
106.9285418918983
 30
0.0
 40
1.0
100
AcDbArc
 50
0.0
 51
90.0000000000114
  0
SPLINE
  5
14C
330
1F
100
AcDbEntity
  8
BACKS
100
AcDbSpline
210
0.0
220
0.0
230
1.0
 70
    24
 71
     2
 72
     6
 73
     3
 74
     0
 42
0.0000000001
 43
0.0000000001
 40
-60.98959792120331
 40
-60.98959792120331
 40
-60.98959792120331
 40
0.0
 40
0.0
 40
0.0
 10
62.12732729767711
 20
107.9285418918983
 30
0.0
 10
31.63252833707551
 20
107.9285418918984
 30
0.0
 10
1.137729376473814
 20
107.9285418918985
 30
0.0
  0
ARC
  5
14D
330
1F
100
AcDbEntity
  8
BACKS
100
AcDbCircle
 10
1.137729376472606
 20
106.9285418918985
 30
0.0
 40
1.0
100
AcDbArc
 50
89.9999999999308
 51
180.0000000000033
  0
SPLINE
  5
14E
330
1F
100
AcDbEntity
  8
BACKS
100
AcDbSpline
210
0.0
220
0.0
230
1.0
 70
    24
 71
     2
 72
     6
 73
     3
 74
     0
 42
0.0000000001
 43
0.0000000001
 40
-4.999999999999968
 40
-4.999999999999968
 40
-4.999999999999968
 40
-0.2500000000000193
 40
-0.2500000000000193
 40
-0.2500000000000193
 10
0.1377293764726062
 20
106.9285418918984
 30
0.0
 10
0.1377293764726062
 20
104.5535418918984
 30
0.0
 10
0.1377293764725067
 20
102.1785418918985
 30
0.0
  0
ARC
  5
14F
330
1F
100
AcDbEntity
  8
BACKS
100
AcDbCircle
 10
1.137729376472507
 20
102.1785418918984
 30
0.0
 40
1.0
100
AcDbArc
 50
179.9999999999951
 51
270.0
  0
SPLINE
  5
150
330
1F
100
AcDbEntity
  8
BACKS
100
AcDbSpline
210
0.0
220
0.0
230
1.0
 70
    24
 71
     2
 72
     6
 73
     3
 74
     0
 42
0.0000000001
 43
0.0000000001
 40
-61.00000030076362
 40
-61.00000030076362
 40
-61.00000030076362
 40
-0.0104023795593044
 40
-0.0104023795593044
 40
-0.0104023795593044
 10
1.137729376472507
 20
101.1785418918984
 30
0.0
 10
31.63252833707551
 20
101.1785418918984
 30
0.0
 10
62.12732729767771
 20
101.1785418918984
 30
0.0
  0
ARC
  5
151
330
1F
100
AcDbEntity
  8
BACKS
100
AcDbCircle
 10
62.12732729767771
 20
102.1785418918981
 30
0.0
 40
0.9999999999996874
100
AcDbArc
 50
270.0
 51
359.9999999999951
  0
LINE
  5
152
330
1F
100
AcDbEntity
  8
SEATS
100
AcDbLine
 10
62.96714938234391
 20
-28.23507992031158
 30
0.0
 11
62.96714938234391
 21
-11.23507961954594
 31
0.0
  0
ARC
  5
153
330
1F
100
AcDbEntity
  8
SEATS
100
AcDbCircle
 10
61.96714938234391
 20
-11.23507961954594
 30
0.0
 40
1.0
100
AcDbArc
 50
0.0
 51
89.9999999999772
  0
SPLINE
  5
154
330
1F
100
AcDbEntity
  8
SEATS
100
AcDbSpline
210
0.0
220
0.0
230
1.0
 70
    24
 71
     2
 72
     6
 73
     3
 74
     0
 42
0.0000000001
 43
0.0000000001
 40
0.0104022295436157
 40
0.0104022295436157
 40
0.0104022295436157
 40
61.00000000073199
 40
61.00000000073199
 40
61.00000000073199
 10
61.9671493823443
 20
-10.23507961954594
 30
0.0
 10
31.47235049675001
 20
-10.23507961954611
 30
0.0
 10
0.9775516111559028
 20
-10.23507961954617
 30
0.0
  0
ARC
  5
155
330
1F
100
AcDbEntity
  8
SEATS
100
AcDbCircle
 10
0.9775516111559028
 20
-11.23507961954617
 30
0.0
 40
1.0
100
AcDbArc
 50
90.0
 51
179.9999999999976
  0
SPLINE
  5
156
330
1F
100
AcDbEntity
  8
SEATS
100
AcDbSpline
210
0.0
220
0.0
230
1.0
 70
    24
 71
     2
 72
     6
 73
     3
 74
     0
 42
0.0000000001
 43
0.0000000001
 40
0.0
 40
0.0
 40
0.0
 40
17.00000030076561
 40
17.00000030076561
 40
17.00000030076561
 10
-0.0224483888440972
 20
-11.23507961954613
 30
0.0
 10
-0.0224483888440972
 20
-19.73507976992896
 30
0.0
 10
-0.0224483888440972
 20
-28.23507992031169
 30
0.0
  0
ARC
  5
157
330
1F
100
AcDbEntity
  8
SEATS
100
AcDbCircle
 10
0.9775516111559028
 20
-28.23507992031169
 30
0.0
 40
1.0
100
AcDbArc
 50
180.0
 51
269.9999999999992
  0
SPLINE
  5
158
330
1F
100
AcDbEntity
  8
SEATS
100
AcDbSpline
210
0.0
220
0.0
230
1.0
 70
    24
 71
     2
 72
     6
 73
     3
 74
     0
 42
0.0000000001
 43
0.0000000001
 40
0.0
 40
0.0
 40
0.0
 40
60.98959777118844
 40
60.98959777118844
 40
60.98959777118844
 10
0.9775516111558885
 20
-29.23507992031169
 30
0.0
 10
31.47235049675001
 20
-29.2350799203118
 30
0.0
 10
61.9671493823443
 20
-29.23507992031169
 30
0.0
  0
ARC
  5
159
330
1F
100
AcDbEntity
  8
SEATS
100
AcDbCircle
 10
61.9671493823443
 20
-28.23507992031209
 30
0.0
 40
0.9999999999996021
100
AcDbArc
 50
270.0
 51
0.000000000029312
  0
LINE
  5
15A
330
1F
100
AcDbEntity
  8
BACKS
100
AcDbLine
 10
-103.7800693772183
 20
-78.62723762968241
 30
0.0
 11
-107.8981922459165
 21
-80.99594417342743
 31
0.0
  0
ARC
  5
15B
330
1F
100
AcDbEntity
  8
BACKS
100
AcDbCircle
 10
-107.3995968055046
 20
-81.86277898283475
 30
0.0
 40
0.9999999999998495
100
AcDbArc
 50
119.9071185104995
 51
210.9478010787041
  0
ARC
  5
15C
330
1F
100
AcDbEntity
  8
BACKS
100
AcDbCircle
 10
-63.12323546767104
 20
-55.31372800018495
 30
0.0
 40
52.62604266644624
100
AcDbArc
 50
210.9478010787292
 51
268.8661461417024
  0
ARC
  5
15D
330
1F
100
AcDbEntity
  8
BACKS
100
AcDbCircle
 10
-64.14482148207964
 20
-106.9296620071639
 30
0.0
 40
1.0
100
AcDbArc
 50
268.8661461417024
 51
359.907118510505
  0
LINE
  5
15E
330
1F
100
AcDbEntity
  8
BACKS
100
AcDbLine
 10
-63.14482279604218
 20
-106.9312830942598
 30
0.0
 11
-63.13712140190734
 21
-102.1805303213766
 31
0.0
  0
ARC
  5
15F
330
1F
100
AcDbEntity
  8
BACKS
100
AcDbCircle
 10
-64.13712008794475
 20
-102.1789092342808
 30
0.0
 40
0.9999999999999573
100
AcDbArc
 50
359.9071185105067
 51
88.7606524121683
  0
ARC
  5
160
330
1F
100
AcDbEntity
  8
BACKS
100
AcDbCircle
 10
-63.12323546767039
 20
-55.31372800018413
 30
0.0
 40
45.87614717666073
100
AcDbArc
 50
211.0532654319589
 51
268.7606524121643
  0
ARC
  5
161
330
1F
100
AcDbEntity
  8
BACKS
100
AcDbCircle
 10
-103.2814739368049
 20
-79.49407243908902
 30
0.0
 40
1.000000000000009
100
AcDbArc
 50
31.05326543195613
 51
119.9071185105979
  0
LINE
  5
162
330
1F
100
AcDbEntity
  8
SEATS
100
AcDbLine
 10
-63.12732729767737
 20
-82.17848788460385
 30
0.0
 11
-63.12732729767737
 21
-99.17848818536949
 31
0.0
  0
ARC
  5
163
330
1F
100
AcDbEntity
  8
SEATS
100
AcDbCircle
 10
-62.12732729767737
 20
-99.17848818536949
 30
0.0
 40
1.0
100
AcDbArc
 50
180.0
 51
269.9999999999768
  0
SPLINE
  5
164
330
1F
100
AcDbEntity
  8
SEATS
100
AcDbSpline
210
0.0
220
0.0
230
1.0
 70
    24
 71
     2
 72
     6
 73
     3
 74
     0
 42
0.0000000001
 43
0.0000000001
 40
0.0104022295436157
 40
0.0104022295436157
 40
0.0104022295436157
 40
61.00000000073199
 40
61.00000000073199
 40
61.00000000073199
 10
-62.12732729767777
 20
-100.1784881853695
 30
0.0
 10
-31.6325284120835
 20
-100.1784881853693
 30
0.0
 10
-1.137729526489395
 20
-100.1784881853693
 30
0.0
  0
ARC
  5
165
330
1F
100
AcDbEntity
  8
SEATS
100
AcDbCircle
 10
-1.137729526489395
 20
-99.17848818536926
 30
0.0
 40
1.0
100
AcDbArc
 50
270.0
 51
359.9999999999976
  0
SPLINE
  5
166
330
1F
100
AcDbEntity
  8
SEATS
100
AcDbSpline
210
0.0
220
0.0
230
1.0
 70
    24
 71
     2
 72
     6
 73
     3
 74
     0
 42
0.0000000001
 43
0.0000000001
 40
0.0
 40
0.0
 40
0.0
 40
17.00000030076561
 40
17.00000030076561
 40
17.00000030076561
 10
-0.1377295264893945
 20
-99.1784881853693
 30
0.0
 10
-0.1377295264893945
 20
-90.67848803498647
 30
0.0
 10
-0.1377295264893945
 20
-82.17848788460374
 30
0.0
  0
ARC
  5
167
330
1F
100
AcDbEntity
  8
SEATS
100
AcDbCircle
 10
-1.137729526489395
 20
-82.17848788460374
 30
0.0
 40
1.0
100
AcDbArc
 50
0.0
 51
89.99999999999919
  0
SPLINE
  5
168
330
1F
100
AcDbEntity
  8
SEATS
100
AcDbSpline
210
0.0
220
0.0
230
1.0
 70
    24
 71
     2
 72
     6
 73
     3
 74
     0
 42
0.0000000001
 43
0.0000000001
 40
0.0
 40
0.0
 40
0.0
 40
60.98959777118844
 40
60.98959777118844
 40
60.98959777118844
 10
-1.13772952648938
 20
-81.17848788460374
 30
0.0
 10
-31.6325284120835
 20
-81.17848788460363
 30
0.0
 10
-62.12732729767777
 20
-81.17848788460374
 30
0.0
  0
ARC
  5
169
330
1F
100
AcDbEntity
  8
SEATS
100
AcDbCircle
 10
-62.12732729767777
 20
-82.17848788460333
 30
0.0
 40
0.9999999999995879
100
AcDbArc
 50
90.0
 51
180.0000000000301
  0
LINE
  5
16A
330
1F
100
AcDbEntity
  8
SEATS
100
AcDbLine
 10
62.96714938234391
 20
11.20795868298018
 30
0.0
 11
62.96714938234391
 21
28.20795898374588
 31
0.0
  0
ARC
  5
16B
330
1F
100
AcDbEntity
  8
SEATS
100
AcDbCircle
 10
61.9671493823443
 20
28.20795898374597
 30
0.0
 40
1.0
100
AcDbArc
 50
359.9999999999919
 51
90.0
  0
SPLINE
  5
16C
330
1F
100
AcDbEntity
  8
SEATS
100
AcDbSpline
210
0.0
220
0.0
230
1.0
 70
    24
 71
     2
 72
     6
 73
     3
 74
     0
 42
0.0000000001
 43
0.0000000001
 40
-60.98959777118844
 40
-60.98959777118844
 40
-60.98959777118844
 40
0.0
 40
0.0
 40
0.0
 10
61.9671493823443
 20
29.20795898374597
 30
0.0
 10
31.47235049675001
 20
29.20795898374608
 30
0.0
 10
0.9775516111558886
 20
29.20795898374597
 30
0.0
  0
ARC
  5
16D
330
1F
100
AcDbEntity
  8
SEATS
100
AcDbCircle
 10
0.9775516111559028
 20
28.20795898374597
 30
0.0
 40
1.0
100
AcDbArc
 50
90.00000000000081
 51
180.0
  0
SPLINE
  5
16E
330
1F
100
AcDbEntity
  8
SEATS
100
AcDbSpline
210
0.0
220
0.0
230
1.0
 70
    24
 71
     2
 72
     6
 73
     3
 74
     0
 42
0.0000000001
 43
0.0000000001
 40
-17.00000030076561
 40
-17.00000030076561
 40
-17.00000030076561
 40
0.0
 40
0.0
 40
0.0
 10
-0.0224483888440972
 20
28.20795898374597
 30
0.0
 10
-0.0224483888440972
 20
19.70795883336318
 30
0.0
 10
-0.0224483888440972
 20
11.20795868298033
 30
0.0
  0
ARC
  5
16F
330
1F
100
AcDbEntity
  8
SEATS
100
AcDbCircle
 10
0.9775516111559028
 20
11.20795868298038
 30
0.0
 40
1.0
100
AcDbArc
 50
180.0000000000024
 51
270.0000000000001
  0
SPLINE
  5
170
330
1F
100
AcDbEntity
  8
SEATS
100
AcDbSpline
210
0.0
220
0.0
230
1.0
 70
    24
 71
     2
 72
     6
 73
     3
 74
     0
 42
0.0000000001
 43
0.0000000001
 40
-61.00000000073199
 40
-61.00000000073199
 40
-61.00000000073199
 40
-0.0104022295436157
 40
-0.0104022295436157
 40
-0.0104022295436157
 10
0.9775516111559036
 20
10.20795868298038
 30
0.0
 10
31.47235049675001
 20
10.20795868298038
 30
0.0
 10
61.9671493823443
 20
10.20795868298018
 30
0.0
  0
ARC
  5
171
330
1F
100
AcDbEntity
  8
SEATS
100
AcDbCircle
 10
61.96714938234391
 20
11.20795868298018
 30
0.0
 40
1.0
100
AcDbArc
 50
270.0000000000228
 51
0.0
  0
SPLINE
  5
172
330
1F
100
AcDbEntity
  8
BACKS
100
AcDbSpline
210
0.0
220
0.0
230
1.0
 70
    24
 71
     2
 72
     6
 73
     3
 74
     0
 42
0.0000000001
 43
0.0000000001
 40
0.2468935584247509
 40
0.2468935584247509
 40
0.2468935584247509
 40
4.996893558424962
 40
4.996893558424962
 40
4.996893558424962
 10
-63.12732729767731
 20
-102.178541891898
 30
0.0
 10
-63.12732729767737
 20
-104.5535418918981
 30
0.0
 10
-63.12732729767725
 20
-106.9285418918983
 30
0.0
  0
ARC
  5
173
330
1F
100
AcDbEntity
  8
BACKS
100
AcDbCircle
 10
-62.12732729767725
 20
-106.9285418918983
 30
0.0
 40
1.0
100
AcDbArc
 50
180.0
 51
270.0000000000114
  0
SPLINE
  5
174
330
1F
100
AcDbEntity
  8
BACKS
100
AcDbSpline
210
0.0
220
0.0
230
1.0
 70
    24
 71
     2
 72
     6
 73
     3
 74
     0
 42
0.0000000001
 43
0.0000000001
 40
-60.98959792120331
 40
-60.98959792120331
 40
-60.98959792120331
 40
0.0
 40
0.0
 40
0.0
 10
-62.12732729767705
 20
-107.9285418918983
 30
0.0
 10
-31.63252833707548
 20
-107.9285418918984
 30
0.0
 10
-1.1377293764738
 20
-107.9285418918984
 30
0.0
  0
ARC
  5
175
330
1F
100
AcDbEntity
  8
BACKS
100
AcDbCircle
 10
-1.137729376472592
 20
-106.9285418918984
 30
0.0
 40
1.0
100
AcDbArc
 50
269.9999999999308
 51
0.0000000000032569
  0
SPLINE
  5
176
330
1F
100
AcDbEntity
  8
BACKS
100
AcDbSpline
210
0.0
220
0.0
230
1.0
 70
    24
 71
     2
 72
     6
 73
     3
 74
     0
 42
0.0000000001
 43
0.0000000001
 40
-4.999999999999968
 40
-4.999999999999968
 40
-4.999999999999968
 40
-0.2500000000000193
 40
-0.2500000000000193
 40
-0.2500000000000193
 10
-0.137729376472592
 20
-106.9285418918984
 30
0.0
 10
-0.137729376472592
 20
-104.5535418918983
 30
0.0
 10
-0.1377293764724925
 20
-102.1785418918984
 30
0.0
  0
ARC
  5
177
330
1F
100
AcDbEntity
  8
BACKS
100
AcDbCircle
 10
-1.137729376472493
 20
-102.1785418918983
 30
0.0
 40
1.0
100
AcDbArc
 50
359.9999999999943
 51
89.9999999999998
  0
SPLINE
  5
178
330
1F
100
AcDbEntity
  8
BACKS
100
AcDbSpline
210
0.0
220
0.0
230
1.0
 70
    24
 71
     2
 72
     6
 73
     3
 74
     0
 42
0.0000000001
 43
0.0000000001
 40
-61.00000030076362
 40
-61.00000030076362
 40
-61.00000030076362
 40
-0.0104023795593044
 40
-0.0104023795593044
 40
-0.0104023795593044
 10
-1.137729376472489
 20
-101.1785418918983
 30
0.0
 10
-31.63252833707548
 20
-101.1785418918983
 30
0.0
 10
-62.12732729767765
 20
-101.1785418918983
 30
0.0
  0
ARC
  5
179
330
1F
100
AcDbEntity
  8
BACKS
100
AcDbCircle
 10
-62.12732729767765
 20
-102.178541891898
 30
0.0
 40
0.9999999999996589
100
AcDbArc
 50
90.0
 51
180.0
  0
ARC
  5
17A
330
1F
100
AcDbEntity
  8
SEATS
100
AcDbCircle
 10
-63.9896776928633
 20
-11.22623819495992
 30
0.0
 40
0.9999999999990671
100
AcDbArc
 50
359.9071185105132
 51
91.13152216782075
  0
ARC
  5
17B
330
1F
100
AcDbEntity
  8
SEATS
100
AcDbCircle
 10
-63.12314714532457
 20
-55.09819217635852
 30
0.0
 40
44.88051072327777
100
AcDbArc
 50
91.13152216776392
 51
148.6823738771517
  0
ARC
  5
17C
330
1F
100
AcDbEntity
  8
SEATS
100
AcDbCircle
 10
-100.6102221725788
 20
-32.28989484322319
 30
0.0
 40
0.9999999999999998
100
AcDbArc
 50
148.6823738771572
 51
239.9071185105053
  0
LINE
  5
17D
330
1F
100
AcDbEntity
  8
SEATS
100
AcDbLine
 10
-101.1116254182043
 20
-33.15510856553477
 30
0.0
 11
-86.39776533486264
 21
-41.68199274595875
 31
0.0
  0
ARC
  5
17E
330
1F
100
AcDbEntity
  8
SEATS
100
AcDbCircle
 10
-85.89636208923774
 20
-40.81677902364683
 30
0.0
 40
1.000000000000017
100
AcDbArc
 50
239.9071185105426
 51
327.9075793594174
  0
ARC
  5
17F
330
1F
100
AcDbEntity
  8
SEATS
100
AcDbCircle
 10
-63.12314714532443
 20
-55.09819217635879
 30
0.0
 40
25.88081249739543
100
AcDbArc
 50
91.90610083692307
 51
147.9075793594194
  0
ARC
  5
180
330
1F
100
AcDbEntity
  8
SEATS
100
AcDbCircle
 10
-64.01724596084136
 20
-28.23225337221079
 30
0.0
 40
1.000000000000078
100
AcDbArc
 50
271.9061008369276
 51
359.9071185105134
  0
LINE
  5
181
330
1F
100
AcDbEntity
  8
SEATS
100
AcDbLine
 10
-63.01724727480384
 20
-28.23387445930647
 30
0.0
 11
-62.98967900682678
 21
-11.2278592820556
 31
0.0
  0
POLYLINE
  5
182
330
1F
100
AcDbEntity
  8
FRAME
100
AcDb2dPolyline
 66
     1
 10
0.0
 20
0.0
 30
0.0
  0
VERTEX
  5
183
330
182
100
AcDbEntity
  8
FRAME
100
AcDbVertex
100
AcDb2dVertex
 10
96.47397010423362
 20
86.81527395908782
 30
0.0
  0
VERTEX
  5
184
330
182
100
AcDbEntity
  8
FRAME
100
AcDbVertex
100
AcDb2dVertex
 10
95.5862920296764
 20
86.30460894843706
 30
0.0
  0
SEQEND
  5
185
330
182
100
AcDbEntity
  8
FRAME
  0
SPLINE
  5
186
330
1F
100
AcDbEntity
  8
FRAME
100
AcDbSpline
210
0.0
220
0.0
230
1.0
 70
    12
 71
     2
 72
     6
 73
     3
 74
     0
 42
0.0000000001
 43
0.0000000001
 40
-282.5820763502118
 40
-282.5820763502118
 40
-282.5820763502118
 40
-281.8099486892444
 40
-281.8099486892444
 40
-281.8099486892444
 10
95.58629202967641
 20
86.30460894843706
 30
0.0
 41
0.9573469992997351
 10
95.31886535281514
 20
86.5843440439692
 30
0.0
 41
0.9561709249031344
 10
95.04684870321802
 20
86.859617760493
 30
0.0
 41
0.9550673032517435
  0
POLYLINE
  5
187
330
1F
100
AcDbEntity
  8
FRAME
100
AcDb2dPolyline
 66
     1
 10
0.0
 20
0.0
 30
0.0
  0
VERTEX
  5
188
330
187
100
AcDbEntity
  8
FRAME
100
AcDbVertex
100
AcDb2dVertex
 10
95.04684870321802
 20
86.859617760493
 30
0.0
  0
VERTEX
  5
189
330
187
100
AcDbEntity
  8
FRAME
100
AcDbVertex
100
AcDb2dVertex
 10
95.9386486490894
 20
87.37257291866798
 30
0.0
  0
SEQEND
  5
18A
330
187
100
AcDbEntity
  8
FRAME
  0
SPLINE
  5
18B
330
1F
100
AcDbEntity
  8
FRAME
100
AcDbSpline
210
0.0
220
0.0
230
1.0
 70
    12
 71
     2
 72
     6
 73
     3
 74
     0
 42
0.0000000001
 43
0.0000000001
 40
-71.9139208777536
 40
-71.9139208777536
 40
-71.9139208777536
 40
-71.14250317885144
 40
-71.14250317885144
 40
-71.14250317885144
 10
95.93864864908939
 20
87.37257291866806
 30
0.0
 41
0.9554701970903269
 10
96.20866408651283
 20
87.09618528939018
 30
0.0
 41
0.9565720484888712
 10
96.47397010423362
 20
86.81527395908782
 30
0.0
 41
0.9577431064996322
  0
POLYLINE
  5
18C
330
1F
100
AcDbEntity
  8
FRAME
100
AcDb2dPolyline
 66
     1
 10
0.0
 20
0.0
 30
0.0
  0
VERTEX
  5
18D
330
18C
100
AcDbEntity
  8
FRAME
100
AcDbVertex
100
AcDb2dVertex
 10
73.72891888594016
 20
10.46483576677177
 30
0.0
  0
VERTEX
  5
18E
330
18C
100
AcDbEntity
  8
FRAME
100
AcDbVertex
100
AcDb2dVertex
 10
73.73050905117131
 20
11.48892003504618
 30
0.0
  0
SEQEND
  5
18F
330
18C
100
AcDbEntity
  8
FRAME
  0
SPLINE
  5
190
330
1F
100
AcDbEntity
  8
FRAME
100
AcDbSpline
210
0.0
220
0.0
230
1.0
 70
    12
 71
     2
 72
     6
 73
     3
 74
     0
 42
0.0000000001
 43
0.0000000001
 40
-282.5820763502118
 40
-282.5820763502118
 40
-282.5820763502118
 40
-281.8099486892444
 40
-281.8099486892444
 40
-281.8099486892444
 10
73.73050905117132
 20
11.48892003504618
 30
0.0
 41
0.9573469992997351
 10
74.10648008866282
 20
11.58065078309177
 30
0.0
 41
0.9561709249031344
 10
74.48088244496512
 20
11.67858725363327
 30
0.0
 41
0.9550673032517435
  0
POLYLINE
  5
191
330
1F
100
AcDbEntity
  8
FRAME
100
AcDb2dPolyline
 66
     1
 10
0.0
 20
0.0
 30
0.0
  0
VERTEX
  5
192
330
191
100
AcDbEntity
  8
FRAME
100
AcDbVertex
100
AcDb2dVertex
 10
74.48088244496512
 20
11.67858725363327
 30
0.0
  0
VERTEX
  5
193
330
191
100
AcDbEntity
  8
FRAME
100
AcDbVertex
100
AcDb2dVertex
 10
74.47921467001132
 20
10.64978826632748
 30
0.0
  0
SEQEND
  5
194
330
191
100
AcDbEntity
  8
FRAME
  0
SPLINE
  5
195
330
1F
100
AcDbEntity
  8
FRAME
100
AcDbSpline
210
0.0
220
0.0
230
1.0
 70
    12
 71
     2
 72
     6
 73
     3
 74
     0
 42
0.0000000001
 43
0.0000000001
 40
-71.9139208777536
 40
-71.9139208777536
 40
-71.9139208777536
 40
-71.14250317885144
 40
-71.14250317885144
 40
-71.14250317885144
 10
74.47921467001132
 20
10.64978826632738
 30
0.0
 41
0.9554701970903269
 10
74.10484824305321
 20
10.55414185274377
 30
0.0
 41
0.9565720484888712
 10
73.72891888594016
 20
10.46483576677177
 30
0.0
 41
0.9577431064996322
  0
POLYLINE
  5
196
330
1F
100
AcDbEntity
  8
FRAME
100
AcDb2dPolyline
 66
     1
 10
0.0
 20
0.0
 30
0.0
  0
VERTEX
  5
197
330
196
100
AcDbEntity
  8
FRAME
100
AcDbVertex
100
AcDb2dVertex
 10
74.62361355616956
 20
99.72501241750567
 30
0.0
  0
VERTEX
  5
198
330
196
100
AcDbEntity
  8
FRAME
100
AcDbVertex
100
AcDb2dVertex
 10
74.62194523594371
 20
98.69621420254317
 30
0.0
  0
SEQEND
  5
199
330
196
100
AcDbEntity
  8
FRAME
  0
SPLINE
  5
19A
330
1F
100
AcDbEntity
  8
FRAME
100
AcDbSpline
210
0.0
220
0.0
230
1.0
 70
    12
 71
     2
 72
     6
 73
     3
 74
     0
 42
0.0000000001
 43
0.0000000001
 40
-258.2873964838304
 40
-258.2873964838304
 40
-258.2873964838304
 40
-257.5152774109893
 40
-257.5152774109893
 40
-257.5152774109893
 10
74.6219452359437
 20
98.69621420254306
 30
0.0
 41
0.955067298243294
 10
74.24786657215303
 20
98.795363099638
 30
0.0
 41
0.9561709074550575
 10
73.87219543678802
 20
98.88829648316019
 30
0.0
 41
0.9573469678003029
  0
POLYLINE
  5
19B
330
1F
100
AcDbEntity
  8
FRAME
100
AcDb2dPolyline
 66
     1
 10
0.0
 20
0.0
 30
0.0
  0
VERTEX
  5
19C
330
19B
100
AcDbEntity
  8
FRAME
100
AcDbVertex
100
AcDb2dVertex
 10
73.87219543678802
 20
98.88829648316019
 30
0.0
  0
VERTEX
  5
19D
330
19B
100
AcDbEntity
  8
FRAME
100
AcDbVertex
100
AcDb2dVertex
 10
73.8739163825887
 20
99.91242461387742
 30
0.0
  0
SEQEND
  5
19E
330
19B
100
AcDbEntity
  8
FRAME
  0
SPLINE
  5
19F
330
1F
100
AcDbEntity
  8
FRAME
100
AcDbSpline
210
0.0
220
0.0
230
1.0
 70
    12
 71
     2
 72
     6
 73
     3
 74
     0
 42
0.0000000001
 43
0.0000000001
 40
-97.24910653952114
 40
-97.24910653952114
 40
-97.24910653952114
 40
-96.477677419415
 40
-96.477677419415
 40
-96.477677419415
 10
73.8739163825887
 20
99.91242461387742
 30
0.0
 41
0.9577430987429659
 10
74.24955422015901
 20
99.82187572258879
 30
0.0
 41
0.9565720236233404
 10
74.62361355616956
 20
99.72501241750567
 30
0.0
 41
0.9554701571652199
  0
POLYLINE
  5
1A0
330
1F
100
AcDbEntity
  8
FRAME
100
AcDb2dPolyline
 66
     1
 10
0.0
 20
0.0
 30
0.0
  0
VERTEX
  5
1A1
330
1A0
100
AcDbEntity
  8
FRAME
100
AcDbVertex
100
AcDb2dVertex
 10
-107.1842615602447
 20
-68.19486009149043
 30
0.0
  0
VERTEX
  5
1A2
330
1A0
100
AcDbEntity
  8
FRAME
100
AcDbVertex
100
AcDb2dVertex
 10
-106.2965137155817
 20
-67.68431637989599
 30
0.0
  0
SEQEND
  5
1A3
330
1A0
100
AcDbEntity
  8
FRAME
  0
SPLINE
  5
1A4
330
1F
100
AcDbEntity
  8
FRAME
100
AcDbSpline
210
0.0
220
0.0
230
1.0
 70
    12
 71
     2
 72
     6
 73
     3
 74
     0
 42
0.0000000001
 43
0.0000000001
 40
-282.5820763502118
 40
-282.5820763502118
 40
-282.5820763502118
 40
-281.8099486892444
 40
-281.8099486892444
 40
-281.8099486892444
 10
-106.2965137155817
 20
-67.684316379896
 30
0.0
 41
0.9573469992997351
 10
-106.4038531503307
 20
-67.31250056942365
 30
0.0
 41
0.9561709249031344
 10
-106.5050283080657
 20
-66.9389603920342
 30
0.0
 41
0.9550673032517435
  0
POLYLINE
  5
1A5
330
1F
100
AcDbEntity
  8
FRAME
100
AcDb2dPolyline
 66
     1
 10
0.0
 20
0.0
 30
0.0
  0
VERTEX
  5
1A6
330
1A5
100
AcDbEntity
  8
FRAME
100
AcDbVertex
100
AcDb2dVertex
 10
-106.5050283080658
 20
-66.9389603920342
 30
0.0
  0
VERTEX
  5
1A7
330
1A5
100
AcDbEntity
  8
FRAME
100
AcDbVertex
100
AcDb2dVertex
 10
-107.3968282539372
 20
-67.45191555020928
 30
0.0
  0
SEQEND
  5
1A8
330
1A5
100
AcDbEntity
  8
FRAME
  0
SPLINE
  5
1A9
330
1F
100
AcDbEntity
  8
FRAME
100
AcDbSpline
210
0.0
220
0.0
230
1.0
 70
    12
 71
     2
 72
     6
 73
     3
 74
     0
 42
0.0000000001
 43
0.0000000001
 40
-71.9139208777536
 40
-71.9139208777536
 40
-71.9139208777536
 40
-71.14250317885144
 40
-71.14250317885144
 40
-71.14250317885144
 10
-107.3968282539373
 20
-67.45191555020929
 30
0.0
 41
0.9554701970903269
 10
-107.2936840104425
 20
-67.82428596135749
 30
0.0
 41
0.9565720484888712
 10
-107.1842615602447
 20
-68.19486009149043
 30
0.0
 41
0.9577431064996322
  0
ARC
  5
1AA
330
1F
100
AcDbEntity
  8
SEATS
100
AcDbCircle
 10
-101.6813877362797
 20
-76.26647283939252
 30
0.0
 40
0.9999999999990883
100
AcDbArc
 50
208.6827148532109
 51
299.9071185105086
  0
LINE
  5
1AB
330
1F
100
AcDbEntity
  8
SEATS
100
AcDbLine
 10
-101.1827922958681
 20
-77.1333076487991
 30
0.0
 11
-86.44136700123627
 21
-68.65417488058071
 31
0.0
  0
ARC
  5
1AC
330
1F
100
AcDbEntity
  8
SEATS
100
AcDbCircle
 10
-86.93996244164835
 20
-67.78734007117326
 30
0.0
 40
1.000000000000081
100
AcDbArc
 50
299.9071185105079
 51
27.90813618408385
  0
ARC
  5
1AD
330
1F
100
AcDbEntity
  8
SEATS
100
AcDbCircle
 10
-63.18541065074255
 20
-55.20563312285674
 30
0.0
 40
25.88081249739556
100
AcDbArc
 50
151.9066576616018
 51
207.9081361840978
  0
ARC
  5
1AE
330
1F
100
AcDbEntity
  8
SEATS
100
AcDbCircle
 10
-86.89916858048852
 20
-42.54720646827015
 30
0.0
 40
1.000000000000002
100
AcDbArc
 50
331.9066576615933
 51
59.90711851047909
  0
LINE
  5
1AF
330
1F
100
AcDbEntity
  8
SEATS
100
AcDbLine
 10
-86.39776533486267
 20
-41.6819927459588
 30
0.0
 11
-101.1116254182038
 21
-33.15510856553402
 31
0.0
  0
ARC
  5
1B0
330
1F
100
AcDbEntity
  8
SEATS
100
AcDbCircle
 10
-101.6130286638291
 20
-34.0203222878457
 30
0.0
 40
1.0
100
AcDbArc
 50
59.90711851051666
 51
151.1318631438656
  0
ARC
  5
1B1
330
1F
100
AcDbEntity
  8
SEATS
100
AcDbCircle
 10
-63.18541065074309
 20
-55.20563312285673
 30
0.0
 40
44.88051072327771
100
AcDbArc
 50
151.1318631438696
 51
208.6827148532572
  0
POLYLINE
  5
1B2
330
1F
100
AcDbEntity
  8
FRAME
100
AcDb2dPolyline
 66
     1
 10
0.0
 20
0.0
 30
0.0
  0
VERTEX
  5
1B3
330
1B2
100
AcDbEntity
  8
FRAME
100
AcDbVertex
100
AcDb2dVertex
 10
107.35696415992
 20
42.81633369308932
 30
0.0
  0
VERTEX
  5
1B4
330
1B2
100
AcDbEntity
  8
FRAME
100
AcDbVertex
100
AcDb2dVertex
 10
106.4668323824502
 20
43.33217666254886
 30
0.0
  0
SEQEND
  5
1B5
330
1B2
100
AcDbEntity
  8
FRAME
  0
SPLINE
  5
1B6
330
1F
100
AcDbEntity
  8
FRAME
100
AcDbSpline
210
0.0
220
0.0
230
1.0
 70
    12
 71
     2
 72
     6
 73
     3
 74
     0
 42
0.0000000001
 43
0.0000000001
 40
-258.2873964838304
 40
-258.2873964838304
 40
-258.2873964838304
 40
-257.5152774109893
 40
-257.5152774109893
 40
-257.5152774109893
 10
106.4668323824501
 20
43.33217666254898
 30
0.0
 41
0.955067298243294
 10
106.3644479785218
 20
42.95897057426687
 30
0.0
 41
0.9561709074550575
 10
106.2558901831623
 20
42.58751314630778
 30
0.0
 41
0.9573469678003029
  0
POLYLINE
  5
1B7
330
1F
100
AcDbEntity
  8
FRAME
100
AcDb2dPolyline
 66
     1
 10
0.0
 20
0.0
 30
0.0
  0
VERTEX
  5
1B8
330
1B7
100
AcDbEntity
  8
FRAME
100
AcDbVertex
100
AcDb2dVertex
 10
106.2558901831623
 20
42.58751314630778
 30
0.0
  0
VERTEX
  5
1B9
330
1B7
100
AcDbEntity
  8
FRAME
100
AcDbVertex
100
AcDb2dVertex
 10
107.1420116013093
 20
42.07406380890247
 30
0.0
  0
SEQEND
  5
1BA
330
1B7
100
AcDbEntity
  8
FRAME
  0
SPLINE
  5
1BB
330
1F
100
AcDbEntity
  8
FRAME
100
AcDbSpline
210
0.0
220
0.0
230
1.0
 70
    12
 71
     2
 72
     6
 73
     3
 74
     0
 42
0.0000000001
 43
0.0000000001
 40
-97.24910653952114
 40
-97.24910653952114
 40
-97.24910653952114
 40
-96.477677419415
 40
-96.477677419415
 40
-96.477677419415
 10
107.1420116013093
 20
42.07406380890247
 30
0.0
 41
0.9577430987429659
 10
107.2526138088968
 20
42.44429351922427
 30
0.0
 41
0.9565720236233404
 10
107.35696415992
 20
42.81633369308932
 30
0.0
 41
0.9554701571652199
  0
POLYLINE
  5
1BC
330
1F
100
AcDbEntity
  8
FRAME
100
AcDb2dPolyline
 66
     1
 10
0.0
 20
0.0
 30
0.0
  0
VERTEX
  5
1BD
330
1BC
100
AcDbEntity
  8
FRAME
100
AcDbVertex
100
AcDb2dVertex
 10
95.8342586211738
 20
22.93293038993617
 30
0.0
  0
VERTEX
  5
1BE
330
1BC
100
AcDbEntity
  8
FRAME
100
AcDbVertex
100
AcDb2dVertex
 10
94.94412739176101
 20
23.44877430511453
 30
0.0
  0
SEQEND
  5
1BF
330
1BC
100
AcDbEntity
  8
FRAME
  0
SPLINE
  5
1C0
330
1F
100
AcDbEntity
  8
FRAME
100
AcDbSpline
210
0.0
220
0.0
230
1.0
 70
    12
 71
     2
 72
     6
 73
     3
 74
     0
 42
0.0000000001
 43
0.0000000001
 40
-258.2873964838304
 40
-258.2873964838304
 40
-258.2873964838304
 40
-257.5152774109893
 40
-257.5152774109893
 40
-257.5152774109893
 10
94.944127391761
 20
23.44877430511452
 30
0.0
 41
0.955067298243294
 10
95.21703218729773
 20
23.72316148242366
 30
0.0
 41
0.9561709074550575
 10
95.48535042597
 20
24.00203553735717
 30
0.0
 41
0.9573469678003029
  0
POLYLINE
  5
1C1
330
1F
100
AcDbEntity
  8
FRAME
100
AcDb2dPolyline
 66
     1
 10
0.0
 20
0.0
 30
0.0
  0
VERTEX
  5
1C2
330
1C1
100
AcDbEntity
  8
FRAME
100
AcDbVertex
100
AcDb2dVertex
 10
95.48535042597001
 20
24.00203553735717
 30
0.0
  0
VERTEX
  5
1C3
330
1C1
100
AcDbEntity
  8
FRAME
100
AcDbVertex
100
AcDb2dVertex
 10
96.37141093100112
 20
23.48848108921676
 30
0.0
  0
SEQEND
  5
1C4
330
1C1
100
AcDbEntity
  8
FRAME
  0
SPLINE
  5
1C5
330
1F
100
AcDbEntity
  8
FRAME
100
AcDbSpline
210
0.0
220
0.0
230
1.0
 70
    12
 71
     2
 72
     6
 73
     3
 74
     0
 42
0.0000000001
 43
0.0000000001
 40
-97.24910653952114
 40
-97.24910653952114
 40
-97.24910653952114
 40
-96.477677419415
 40
-96.477677419415
 40
-96.477677419415
 10
96.37141093100122
 20
23.48848108921668
 30
0.0
 41
0.9577430987429659
 10
96.10517437207554
 20
23.20844362490247
 30
0.0
 41
0.9565720236233404
 10
95.8342586211738
 20
22.93293038993617
 30
0.0
 41
0.9554701571652199
  0
POLYLINE
  5
1C6
330
1F
100
AcDbEntity
  8
FRAME
100
AcDb2dPolyline
 66
     1
 10
0.0
 20
0.0
 30
0.0
  0
VERTEX
  5
1C7
330
1C6
100
AcDbEntity
  8
FRAME
100
AcDbVertex
100
AcDb2dVertex
 10
-95.83425862117372
 20
-22.93293038993615
 30
0.0
  0
VERTEX
  5
1C8
330
1C6
100
AcDbEntity
  8
FRAME
100
AcDbVertex
100
AcDb2dVertex
 10
-94.94412739176099
 20
-23.44877430511447
 30
0.0
  0
SEQEND
  5
1C9
330
1C6
100
AcDbEntity
  8
FRAME
  0
SPLINE
  5
1CA
330
1F
100
AcDbEntity
  8
FRAME
100
AcDbSpline
210
0.0
220
0.0
230
1.0
 70
    12
 71
     2
 72
     6
 73
     3
 74
     0
 42
0.0000000001
 43
0.0000000001
 40
-258.2873964838304
 40
-258.2873964838304
 40
-258.2873964838304
 40
-257.5152774109893
 40
-257.5152774109893
 40
-257.5152774109893
 10
-94.94412739176092
 20
-23.4487743051145
 30
0.0
 41
0.955067298243294
 10
-95.21703218729765
 20
-23.72316148242361
 30
0.0
 41
0.9561709074550575
 10
-95.48535042596997
 20
-24.00203553735714
 30
0.0
 41
0.9573469678003029
  0
POLYLINE
  5
1CB
330
1F
100
AcDbEntity
  8
FRAME
100
AcDb2dPolyline
 66
     1
 10
0.0
 20
0.0
 30
0.0
  0
VERTEX
  5
1CC
330
1CB
100
AcDbEntity
  8
FRAME
100
AcDbVertex
100
AcDb2dVertex
 10
-95.48535042596998
 20
-24.00203553735714
 30
0.0
  0
VERTEX
  5
1CD
330
1CB
100
AcDbEntity
  8
FRAME
100
AcDbVertex
100
AcDb2dVertex
 10
-96.37141093100112
 20
-23.4884810892167
 30
0.0
  0
SEQEND
  5
1CE
330
1CB
100
AcDbEntity
  8
FRAME
  0
SPLINE
  5
1CF
330
1F
100
AcDbEntity
  8
FRAME
100
AcDbSpline
210
0.0
220
0.0
230
1.0
 70
    12
 71
     2
 72
     6
 73
     3
 74
     0
 42
0.0000000001
 43
0.0000000001
 40
-97.24910653952114
 40
-97.24910653952114
 40
-97.24910653952114
 40
-96.477677419415
 40
-96.477677419415
 40
-96.477677419415
 10
-96.37141093100112
 20
-23.4884810892167
 30
0.0
 41
0.9577430987429659
 10
-96.10517437207544
 20
-23.20844362490242
 30
0.0
 41
0.9565720236233404
 10
-95.83425862117372
 20
-22.93293038993615
 30
0.0
 41
0.9554701571652199
  0
POLYLINE
  5
1D0
330
1F
100
AcDbEntity
  8
FRAME
100
AcDb2dPolyline
 66
     1
 10
0.0
 20
0.0
 30
0.0
  0
VERTEX
  5
1D1
330
1D0
100
AcDbEntity
  8
FRAME
100
AcDbVertex
100
AcDb2dVertex
 10
-107.3569641599199
 20
-42.81633369308928
 30
0.0
  0
VERTEX
  5
1D2
330
1D0
100
AcDbEntity
  8
FRAME
100
AcDbVertex
100
AcDb2dVertex
 10
-106.4668323824501
 20
-43.33217666254891
 30
0.0
  0
SEQEND
  5
1D3
330
1D0
100
AcDbEntity
  8
FRAME
  0
SPLINE
  5
1D4
330
1F
100
AcDbEntity
  8
FRAME
100
AcDbSpline
210
0.0
220
0.0
230
1.0
 70
    12
 71
     2
 72
     6
 73
     3
 74
     0
 42
0.0000000001
 43
0.0000000001
 40
-258.2873964838304
 40
-258.2873964838304
 40
-258.2873964838304
 40
-257.5152774109893
 40
-257.5152774109893
 40
-257.5152774109893
 10
-106.4668323824501
 20
-43.3321766625489
 30
0.0
 41
0.955067298243294
 10
-106.3644479785217
 20
-42.95897057426683
 30
0.0
 41
0.9561709074550575
 10
-106.2558901831622
 20
-42.58751314630775
 30
0.0
 41
0.9573469678003029
  0
POLYLINE
  5
1D5
330
1F
100
AcDbEntity
  8
FRAME
100
AcDb2dPolyline
 66
     1
 10
0.0
 20
0.0
 30
0.0
  0
VERTEX
  5
1D6
330
1D5
100
AcDbEntity
  8
FRAME
100
AcDbVertex
100
AcDb2dVertex
 10
-106.2558901831622
 20
-42.58751314630776
 30
0.0
  0
VERTEX
  5
1D7
330
1D5
100
AcDbEntity
  8
FRAME
100
AcDbVertex
100
AcDb2dVertex
 10
-107.1420116013093
 20
-42.07406380890246
 30
0.0
  0
SEQEND
  5
1D8
330
1D5
100
AcDbEntity
  8
FRAME
  0
SPLINE
  5
1D9
330
1F
100
AcDbEntity
  8
FRAME
100
AcDbSpline
210
0.0
220
0.0
230
1.0
 70
    12
 71
     2
 72
     6
 73
     3
 74
     0
 42
0.0000000001
 43
0.0000000001
 40
-97.24910653952114
 40
-97.24910653952114
 40
-97.24910653952114
 40
-96.477677419415
 40
-96.477677419415
 40
-96.477677419415
 10
-107.1420116013093
 20
-42.07406380890246
 30
0.0
 41
0.9577430987429659
 10
-107.2526138088967
 20
-42.44429351922419
 30
0.0
 41
0.9565720236233404
 10
-107.3569641599199
 20
-42.81633369308928
 30
0.0
 41
0.9554701571652199
  0
LINE
  5
1DA
330
1F
100
AcDbEntity
  8
BACKS
100
AcDbLine
 10
-107.8981922459158
 20
-80.99594417342854
 30
0.0
 11
-103.7800693772178
 21
-78.62723762968324
 31
0.0
  0
ARC
  5
1DB
330
1F
100
AcDbEntity
  8
BACKS
100
AcDbCircle
 10
-104.2786648176285
 20
-77.7604028202751
 30
0.0
 40
0.9999999999999564
100
AcDbArc
 50
299.9071185104171
 51
28.76097158909499
  0
ARC
  5
1DC
330
1F
100
AcDbEntity
  8
BACKS
100
AcDbCircle
 10
-63.18541065074198
 20
-55.20563312285676
 30
0.0
 40
45.8761471766603
100
AcDbArc
 50
151.0535846088499
 51
208.7609715890558
  0
ARC
  5
1DD
330
1F
100
AcDbEntity
  8
BACKS
100
AcDbCircle
 10
-104.2054488281286
 20
-32.51797916627371
 30
0.0
 40
0.9999999999999671
100
AcDbArc
 50
331.0535846088804
 51
59.90711851050898
  0
LINE
  5
1DE
330
1F
100
AcDbEntity
  8
BACKS
100
AcDbLine
 10
-103.7040455825032
 20
-31.65276544396213
 30
0.0
 11
-107.8144674738521
 21
-29.27071945455544
 31
0.0
  0
ARC
  5
1DF
330
1F
100
AcDbEntity
  8
BACKS
100
AcDbCircle
 10
-108.3158707194775
 20
-30.13593317686706
 30
0.0
 40
1.0
100
AcDbArc
 50
59.90711851050909
 51
150.9480908793123
  0
ARC
  5
1E0
330
1F
100
AcDbEntity
  8
BACKS
100
AcDbCircle
 10
-63.1854106507423
 20
-55.20563312285692
 30
0.0
 40
52.62604266644643
100
AcDbArc
 50
150.9480908793132
 51
208.8664359422861
  0
ARC
  5
1E1
330
1F
100
AcDbEntity
  8
BACKS
100
AcDbCircle
 10
-108.3967876863279
 20
-80.12910936402136
 30
0.0
 40
0.9999999999998557
100
AcDbArc
 50
208.8664359423217
 51
299.9071185105159
  0
POLYLINE
  5
1E2
330
1F
100
AcDbEntity
  8
FRAME
100
AcDb2dPolyline
 66
     1
 10
0.0
 20
0.0
 30
0.0
  0
VERTEX
  5
1E3
330
1E2
100
AcDbEntity
  8
FRAME
100
AcDbVertex
100
AcDb2dVertex
 10
-96.47397010423353
 20
-86.81527395908778
 30
0.0
  0
VERTEX
  5
1E4
330
1E2
100
AcDbEntity
  8
FRAME
100
AcDbVertex
100
AcDb2dVertex
 10
-95.58629202967634
 20
-86.30460894843705
 30
0.0
  0
SEQEND
  5
1E5
330
1E2
100
AcDbEntity
  8
FRAME
  0
SPLINE
  5
1E6
330
1F
100
AcDbEntity
  8
FRAME
100
AcDbSpline
210
0.0
220
0.0
230
1.0
 70
    12
 71
     2
 72
     6
 73
     3
 74
     0
 42
0.0000000001
 43
0.0000000001
 40
-282.5820763502118
 40
-282.5820763502118
 40
-282.5820763502118
 40
-281.8099486892444
 40
-281.8099486892444
 40
-281.8099486892444
 10
-95.58629202967636
 20
-86.30460894843705
 30
0.0
 41
0.9573469992997351
 10
-95.318865352815
 20
-86.58434404396918
 30
0.0
 41
0.9561709249031344
 10
-95.0468487032179
 20
-86.85961776049298
 30
0.0
 41
0.9550673032517435
  0
POLYLINE
  5
1E7
330
1F
100
AcDbEntity
  8
FRAME
100
AcDb2dPolyline
 66
     1
 10
0.0
 20
0.0
 30
0.0
  0
VERTEX
  5
1E8
330
1E7
100
AcDbEntity
  8
FRAME
100
AcDbVertex
100
AcDb2dVertex
 10
-95.04684870321792
 20
-86.85961776049298
 30
0.0
  0
VERTEX
  5
1E9
330
1E7
100
AcDbEntity
  8
FRAME
100
AcDbVertex
100
AcDb2dVertex
 10
-95.93864864908937
 20
-87.37257291866796
 30
0.0
  0
SEQEND
  5
1EA
330
1E7
100
AcDbEntity
  8
FRAME
  0
SPLINE
  5
1EB
330
1F
100
AcDbEntity
  8
FRAME
100
AcDbSpline
210
0.0
220
0.0
230
1.0
 70
    12
 71
     2
 72
     6
 73
     3
 74
     0
 42
0.0000000001
 43
0.0000000001
 40
-71.9139208777536
 40
-71.9139208777536
 40
-71.9139208777536
 40
-71.14250317885144
 40
-71.14250317885144
 40
-71.14250317885144
 10
-95.93864864908943
 20
-87.37257291866804
 30
0.0
 41
0.9554701970903269
 10
-96.20866408651274
 20
-87.09618528939008
 30
0.0
 41
0.9565720484888712
 10
-96.47397010423352
 20
-86.81527395908776
 30
0.0
 41
0.9577431064996322
  0
LINE
  5
1EC
330
1F
100
AcDbEntity
  8
BACKS
100
AcDbLine
 10
-62.98482178107299
 20
-8.23158635849757
 30
0.0
 11
-62.977120387718
 21
-3.480834066426837
 31
0.0
  0
ARC
  5
1ED
330
1F
100
AcDbEntity
  8
BACKS
100
AcDbCircle
 10
-63.97711907375531
 20
-3.479212979331024
 30
0.0
 40
0.9999999999998649
100
AcDbArc
 50
359.9071185105058
 51
90.94780107871547
  0
ARC
  5
1EE
330
1F
100
AcDbEntity
  8
BACKS
100
AcDbCircle
 10
-63.12314714532404
 20
-55.09819217635915
 30
0.0
 40
52.62604266644652
100
AcDbArc
 50
90.94780107873495
 51
148.866146141708
  0
ARC
  5
1EF
330
1F
100
AcDbEntity
  8
BACKS
100
AcDbCircle
 10
-107.3130642282274
 20
-28.40550573224489
 30
0.0
 40
1.0
100
AcDbArc
 50
148.8661461417093
 51
239.9071185105128
  0
LINE
  5
1F0
330
1F
100
AcDbEntity
  8
BACKS
100
AcDbLine
 10
-107.8144674738527
 20
-29.27071945455653
 30
0.0
 11
-103.7040455825038
 21
-31.65276544396305
 31
0.0
  0
ARC
  5
1F1
330
1F
100
AcDbEntity
  8
BACKS
100
AcDbCircle
 10
-103.2026423368784
 20
-30.78755172165146
 30
0.0
 40
0.9999999999999519
100
AcDbArc
 50
239.9071185105113
 51
328.7606524121445
  0
ARC
  5
1F2
330
1F
100
AcDbEntity
  8
BACKS
100
AcDbCircle
 10
-63.12314714532403
 20
-55.09819217635945
 30
0.0
 40
45.87614717666033
100
AcDbArc
 50
91.05326543196473
 51
148.7606524121707
  0
ARC
  5
1F3
330
1F
100
AcDbEntity
  8
BACKS
100
AcDbCircle
 10
-63.98482046711042
 20
-8.229965271403458
 30
0.0
 40
0.9999999999999828
100
AcDbArc
 50
271.0532654319326
 51
359.9071185106034
  0
POLYLINE
  5
1F4
330
1F
100
AcDbEntity
  8
FRAME
100
AcDb2dPolyline
 66
     1
 10
0.0
 20
0.0
 30
0.0
  0
VERTEX
  5
1F5
330
1F4
100
AcDbEntity
  8
FRAME
100
AcDbVertex
100
AcDb2dVertex
 10
-73.72891888594012
 20
-10.46483576677178
 30
0.0
  0
VERTEX
  5
1F6
330
1F4
100
AcDbEntity
  8
FRAME
100
AcDbVertex
100
AcDb2dVertex
 10
-73.73050905117124
 20
-11.48892003504613
 30
0.0
  0
SEQEND
  5
1F7
330
1F4
100
AcDbEntity
  8
FRAME
  0
SPLINE
  5
1F8
330
1F
100
AcDbEntity
  8
FRAME
100
AcDbSpline
210
0.0
220
0.0
230
1.0
 70
    12
 71
     2
 72
     6
 73
     3
 74
     0
 42
0.0000000001
 43
0.0000000001
 40
-282.5820763502118
 40
-282.5820763502118
 40
-282.5820763502118
 40
-281.8099486892444
 40
-281.8099486892444
 40
-281.8099486892444
 10
-73.73050905117125
 20
-11.48892003504613
 30
0.0
 41
0.9573469992997351
 10
-74.10648008866276
 20
-11.58065078309167
 30
0.0
 41
0.9561709249031344
 10
-74.48088244496506
 20
-11.67858725363322
 30
0.0
 41
0.9550673032517435
  0
POLYLINE
  5
1F9
330
1F
100
AcDbEntity
  8
FRAME
100
AcDb2dPolyline
 66
     1
 10
0.0
 20
0.0
 30
0.0
  0
VERTEX
  5
1FA
330
1F9
100
AcDbEntity
  8
FRAME
100
AcDbVertex
100
AcDb2dVertex
 10
-74.48088244496506
 20
-11.67858725363322
 30
0.0
  0
VERTEX
  5
1FB
330
1F9
100
AcDbEntity
  8
FRAME
100
AcDbVertex
100
AcDb2dVertex
 10
-74.47921467001126
 20
-10.64978826632745
 30
0.0
  0
SEQEND
  5
1FC
330
1F9
100
AcDbEntity
  8
FRAME
  0
SPLINE
  5
1FD
330
1F
100
AcDbEntity
  8
FRAME
100
AcDbSpline
210
0.0
220
0.0
230
1.0
 70
    12
 71
     2
 72
     6
 73
     3
 74
     0
 42
0.0000000001
 43
0.0000000001
 40
-71.9139208777536
 40
-71.9139208777536
 40
-71.9139208777536
 40
-71.14250317885144
 40
-71.14250317885144
 40
-71.14250317885144
 10
-74.47921467001126
 20
-10.64978826632733
 30
0.0
 41
0.9554701970903269
 10
-74.10484824305317
 20
-10.55414185274375
 30
0.0
 41
0.9565720484888712
 10
-73.72891888594012
 20
-10.46483576677178
 30
0.0
 41
0.9577431064996322
  0
LINE
  5
1FE
330
1F
100
AcDbEntity
  8
BACKS
100
AcDbLine
 10
107.8981922459158
 20
80.99594417342858
 30
0.0
 11
103.7800693772179
 21
78.6272376296833
 31
0.0
  0
ARC
  5
1FF
330
1F
100
AcDbEntity
  8
BACKS
100
AcDbCircle
 10
104.2786648176285
 20
77.76040282027513
 30
0.0
 40
0.9999999999999951
100
AcDbArc
 50
119.9071185104177
 51
208.7609715890909
  0
ARC
  5
200
330
1F
100
AcDbEntity
  8
BACKS
100
AcDbCircle
 10
63.18541065074194
 20
55.20563312285682
 30
0.0
 40
45.87614717666035
100
AcDbArc
 50
331.0535846088499
 51
28.76097158905585
  0
ARC
  5
201
330
1F
100
AcDbEntity
  8
BACKS
100
AcDbCircle
 10
104.2054488281286
 20
32.51797916627375
 30
0.0
 40
0.9999999999999465
100
AcDbArc
 50
151.0535846088789
 51
239.9071185105074
  0
LINE
  5
202
330
1F
100
AcDbEntity
  8
BACKS
100
AcDbLine
 10
103.7040455825032
 20
31.6527654439622
 30
0.0
 11
107.8144674738521
 21
29.27071945455547
 31
0.0
  0
ARC
  5
203
330
1F
100
AcDbEntity
  8
BACKS
100
AcDbCircle
 10
108.3158707194775
 20
30.13593317686708
 30
0.0
 40
1.0
100
AcDbArc
 50
239.9071185105091
 51
330.9480908793112
  0
ARC
  5
204
330
1F
100
AcDbEntity
  8
BACKS
100
AcDbCircle
 10
63.18541065074231
 20
55.20563312285697
 30
0.0
 40
52.62604266644646
100
AcDbArc
 50
330.9480908793129
 51
28.86643594228584
  0
ARC
  5
205
330
1F
100
AcDbEntity
  8
BACKS
100
AcDbCircle
 10
108.3967876863279
 20
80.12910936402137
 30
0.0
 40
0.9999999999998674
100
AcDbArc
 50
28.86643594231116
 51
119.9071185105152
  0
ARC
  5
206
330
1F
100
AcDbEntity
  8
SEATS
100
AcDbCircle
 10
100.6841968554571
 20
78.00014245820496
 30
0.0
 40
0.999999999999062
100
AcDbArc
 50
299.9071185105076
 51
31.13152216780373
  0
ARC
  5
207
330
1F
100
AcDbEntity
  8
SEATS
100
AcDbCircle
 10
63.12323546767104
 20
55.31372800018514
 30
0.0
 40
44.88051072327811
100
AcDbArc
 50
31.13152216775824
 51
88.68237387714537
  0
ARC
  5
208
330
1F
100
AcDbEntity
  8
SEATS
100
AcDbCircle
 10
64.13226286161242
 20
99.18263595392848
 30
0.0
 40
1.0
100
AcDbArc
 50
88.68237387715024
 51
179.9071185104985
  0
LINE
  5
209
330
1F
100
AcDbEntity
  8
SEATS
100
AcDbLine
 10
63.13226417557497
 20
99.18425704102442
 30
0.0
 11
63.10469590186927
 21
82.17823833090877
 31
0.0
  0
ARC
  5
20A
330
1F
100
AcDbEntity
  8
SEATS
100
AcDbCircle
 10
64.10469458790674
 20
82.17661724381348
 30
0.0
 40
1.000000000000013
100
AcDbArc
 50
179.907118510536
 51
267.9075793594174
  0
ARC
  5
20B
330
1F
100
AcDbEntity
  8
SEATS
100
AcDbCircle
 10
63.12323546767126
 20
55.31372800018567
 30
0.0
 40
25.880812497395
100
AcDbArc
 50
31.90610083691679
 51
87.90757935941416
  0
ARC
  5
20C
330
1F
100
AcDbEntity
  8
SEATS
100
AcDbCircle
 10
85.94277156082423
 20
69.52100968998825
 30
0.0
 40
1.000000000000068
100
AcDbArc
 50
211.9061008369257
 51
299.9071185105083
  0
LINE
  5
20D
330
1F
100
AcDbEntity
  8
SEATS
100
AcDbLine
 10
86.4413670012363
 20
68.65417488058081
 30
0.0
 11
101.1827922958687
 21
77.1333076487984
 31
0.0
  0
LINE
  5
20E
330
1F
100
AcDbEntity
  8
BACKS
100
AcDbLine
 10
103.7800693772184
 20
78.6272376296824
 30
0.0
 11
107.8981922459165
 21
80.99594417342742
 31
0.0
  0
ARC
  5
20F
330
1F
100
AcDbEntity
  8
BACKS
100
AcDbCircle
 10
107.3995968055047
 20
81.86277898283478
 30
0.0
 40
0.9999999999998863
100
AcDbArc
 50
299.9071185104983
 51
30.94780107873218
  0
ARC
  5
210
330
1F
100
AcDbEntity
  8
BACKS
100
AcDbCircle
 10
63.1232354676709
 20
55.31372800018465
 30
0.0
 40
52.6260426664466
100
AcDbArc
 50
30.94780107872987
 51
88.86614614170324
  0
ARC
  5
211
330
1F
100
AcDbEntity
  8
BACKS
100
AcDbCircle
 10
64.14482148207972
 20
106.929662007164
 30
0.0
 40
1.0
100
AcDbArc
 50
88.86614614170078
 51
179.907118510505
  0
LINE
  5
212
330
1F
100
AcDbEntity
  8
BACKS
100
AcDbLine
 10
63.14482279604226
 20
106.9312830942598
 30
0.0
 11
63.1371214019074
 21
102.1805303213767
 31
0.0
  0
ARC
  5
213
330
1F
100
AcDbEntity
  8
BACKS
100
AcDbCircle
 10
64.13712008794484
 20
102.1789092342809
 30
0.0
 40
0.9999999999999857
100
AcDbArc
 50
179.9071185105067
 51
268.7606524121643
  0
ARC
  5
214
330
1F
100
AcDbEntity
  8
BACKS
100
AcDbCircle
 10
63.12323546767037
 20
55.31372800018418
 30
0.0
 40
45.87614717666075
100
AcDbArc
 50
31.0532654319588
 51
88.76065241216428
  0
ARC
  5
215
330
1F
100
AcDbEntity
  8
BACKS
100
AcDbCircle
 10
103.281473936805
 20
79.49407243908902
 30
0.0
 40
1.000000000000021
100
AcDbArc
 50
211.0532654319557
 51
299.9071185105964
  0
POLYLINE
  5
216
330
1F
100
AcDbEntity
  8
FRAME
100
AcDb2dPolyline
 66
     1
 10
0.0
 20
0.0
 30
0.0
  0
VERTEX
  5
217
330
216
100
AcDbEntity
  8
FRAME
100
AcDbVertex
100
AcDb2dVertex
 10
107.1842615602448
 20
68.19486009149045
 30
0.0
  0
VERTEX
  5
218
330
216
100
AcDbEntity
  8
FRAME
100
AcDbVertex
100
AcDb2dVertex
 10
106.2965137155818
 20
67.68431637989606
 30
0.0
  0
SEQEND
  5
219
330
216
100
AcDbEntity
  8
FRAME
  0
SPLINE
  5
21A
330
1F
100
AcDbEntity
  8
FRAME
100
AcDbSpline
210
0.0
220
0.0
230
1.0
 70
    12
 71
     2
 72
     6
 73
     3
 74
     0
 42
0.0000000001
 43
0.0000000001
 40
-282.5820763502118
 40
-282.5820763502118
 40
-282.5820763502118
 40
-281.8099486892444
 40
-281.8099486892444
 40
-281.8099486892444
 10
106.2965137155818
 20
67.68431637989606
 30
0.0
 41
0.9573469992997351
 10
106.4038531503308
 20
67.31250056942368
 30
0.0
 41
0.9561709249031344
 10
106.5050283080658
 20
66.93896039203428
 30
0.0
 41
0.9550673032517435
  0
POLYLINE
  5
21B
330
1F
100
AcDbEntity
  8
FRAME
100
AcDb2dPolyline
 66
     1
 10
0.0
 20
0.0
 30
0.0
  0
VERTEX
  5
21C
330
21B
100
AcDbEntity
  8
FRAME
100
AcDbVertex
100
AcDb2dVertex
 10
106.5050283080658
 20
66.93896039203416
 30
0.0
  0
VERTEX
  5
21D
330
21B
100
AcDbEntity
  8
FRAME
100
AcDbVertex
100
AcDb2dVertex
 10
107.3968282539373
 20
67.45191555020926
 30
0.0
  0
SEQEND
  5
21E
330
21B
100
AcDbEntity
  8
FRAME
  0
SPLINE
  5
21F
330
1F
100
AcDbEntity
  8
FRAME
100
AcDbSpline
210
0.0
220
0.0
230
1.0
 70
    12
 71
     2
 72
     6
 73
     3
 74
     0
 42
0.0000000001
 43
0.0000000001
 40
-71.9139208777536
 40
-71.9139208777536
 40
-71.9139208777536
 40
-71.14250317885144
 40
-71.14250317885144
 40
-71.14250317885144
 10
107.3968282539372
 20
67.45191555020926
 30
0.0
 41
0.9554701970903269
 10
107.2936840104426
 20
67.82428596135746
 30
0.0
 41
0.9565720484888712
 10
107.1842615602448
 20
68.19486009149045
 30
0.0
 41
0.9577431064996322
  0
ARC
  5
220
330
1F
100
AcDbEntity
  8
SEATS
100
AcDbCircle
 10
101.6813877362797
 20
76.26647283939252
 30
0.0
 40
0.999999999999113
100
AcDbArc
 50
28.68271485322759
 51
119.9071185105078
  0
LINE
  5
221
330
1F
100
AcDbEntity
  8
SEATS
100
AcDbLine
 10
101.1827922958681
 20
77.13330764879913
 30
0.0
 11
86.44136700123633
 21
68.65417488058073
 31
0.0
  0
ARC
  5
222
330
1F
100
AcDbEntity
  8
SEATS
100
AcDbCircle
 10
86.9399624416484
 20
67.78734007117328
 30
0.0
 40
1.000000000000081
100
AcDbArc
 50
119.9071185105079
 51
207.9081361840857
  0
ARC
  5
223
330
1F
100
AcDbEntity
  8
SEATS
100
AcDbCircle
 10
63.18541065074265
 20
55.20563312285674
 30
0.0
 40
25.88081249739554
100
AcDbArc
 50
331.9066576616017
 51
27.9081361840978
  0
ARC
  5
224
330
1F
100
AcDbEntity
  8
SEATS
100
AcDbCircle
 10
86.8991685804886
 20
42.54720646827019
 30
0.0
 40
1.000000000000009
100
AcDbArc
 50
151.906657661597
 51
239.9071185104793
  0
LINE
  5
225
330
1F
100
AcDbEntity
  8
SEATS
100
AcDbLine
 10
86.39776533486275
 20
41.68199274595883
 30
0.0
 11
101.1116254182039
 21
33.15510856553411
 31
0.0
  0
ARC
  5
226
330
1F
100
AcDbEntity
  8
SEATS
100
AcDbCircle
 10
101.6130286638292
 20
34.02032228784579
 30
0.0
 40
1.0
100
AcDbArc
 50
239.9071185105165
 51
331.1318631438645
  0
ARC
  5
227
330
1F
100
AcDbEntity
  8
SEATS
100
AcDbCircle
 10
63.18541065074323
 20
55.20563312285674
 30
0.0
 40
44.88051072327765
100
AcDbArc
 50
331.1318631438702
 51
28.68271485325766
  0
ARC
  5
228
330
1F
100
AcDbEntity
  8
SEATS
100
AcDbCircle
 10
63.98967769286331
 20
11.22623819495998
 30
0.0
 40
0.9999999999990831
100
AcDbArc
 50
179.9071185105132
 51
271.131522167826
  0
ARC
  5
229
330
1F
100
AcDbEntity
  8
SEATS
100
AcDbCircle
 10
63.12314714532453
 20
55.09819217635874
 30
0.0
 40
44.88051072327791
100
AcDbArc
 50
271.1315221677639
 51
328.6823738771516
  0
ARC
  5
22A
330
1F
100
AcDbEntity
  8
SEATS
100
AcDbCircle
 10
100.6102221725788
 20
32.28989484322325
 30
0.0
 40
1.000000000000032
100
AcDbArc
 50
328.6823738771593
 51
59.90711851050547
  0
LINE
  5
22B
330
1F
100
AcDbEntity
  8
SEATS
100
AcDbLine
 10
101.1116254182044
 20
33.15510856553466
 30
0.0
 11
86.39776533486271
 21
41.68199274595878
 31
0.0
  0
ARC
  5
22C
330
1F
100
AcDbEntity
  8
SEATS
100
AcDbCircle
 10
85.8963620892378
 20
40.81677902364685
 30
0.0
 40
1.00000000000003
100
AcDbArc
 50
59.90711851054212
 51
147.9075793594204
  0
ARC
  5
22D
330
1F
100
AcDbEntity
  8
SEATS
100
AcDbCircle
 10
63.12314714532449
 20
55.09819217635875
 30
0.0
 40
25.88081249739538
100
AcDbArc
 50
271.9061008369229
 51
327.9075793594195
  0
ARC
  5
22E
330
1F
100
AcDbEntity
  8
SEATS
100
AcDbCircle
 10
64.01724596084142
 20
28.23225337221077
 30
0.0
 40
1.000000000000106
100
AcDbArc
 50
91.9061008369333
 51
179.9071185105134
  0
LINE
  5
22F
330
1F
100
AcDbEntity
  8
SEATS
100
AcDbLine
 10
63.01724727480386
 20
28.23387445930645
 30
0.0
 11
62.98967900682678
 21
11.22785928205566
 31
0.0
  0
LINE
  5
230
330
1F
100
AcDbEntity
  8
BACKS
100
AcDbLine
 10
62.9848217810731
 20
8.23158635849758
 30
0.0
 11
62.97712038771808
 21
3.480834066426879
 31
0.0
  0
ARC
  5
231
330
1F
100
AcDbEntity
  8
BACKS
100
AcDbCircle
 10
63.9771190737554
 20
3.479212979331066
 30
0.0
 40
0.9999999999998649
100
AcDbArc
 50
179.9071185105059
 51
270.947801078715
  0
ARC
  5
232
330
1F
100
AcDbEntity
  8
BACKS
100
AcDbCircle
 10
63.12314714532411
 20
55.09819217635921
 30
0.0
 40
52.62604266644654
100
AcDbArc
 50
270.9478010787349
 51
328.866146141708
  0
ARC
  5
233
330
1F
100
AcDbEntity
  8
BACKS
100
AcDbCircle
 10
107.3130642282274
 20
28.40550573224486
 30
0.0
 40
1.0
100
AcDbArc
 50
328.8661461417106
 51
59.90711851051374
  0
LINE
  5
234
330
1F
100
AcDbEntity
  8
BACKS
100
AcDbLine
 10
107.8144674738527
 20
29.27071945455651
 30
0.0
 11
103.7040455825038
 21
31.65276544396308
 31
0.0
  0
ARC
  5
235
330
1F
100
AcDbEntity
  8
BACKS
100
AcDbCircle
 10
103.2026423368784
 20
30.7875517216515
 30
0.0
 40
0.9999999999999366
100
AcDbArc
 50
59.90711851051078
 51
148.7606524121466
  0
ARC
  5
236
330
1F
100
AcDbEntity
  8
BACKS
100
AcDbCircle
 10
63.12314714532437
 20
55.09819217635886
 30
0.0
 40
45.87614717665972
100
AcDbArc
 50
271.0532654319644
 51
328.7606524121712
  0
ARC
  5
237
330
1F
100
AcDbEntity
  8
BACKS
100
AcDbCircle
 10
63.98482046711052
 20
8.229965271403461
 30
0.0
 40
0.9999999999999781
100
AcDbArc
 50
91.05326543193422
 51
179.9071185106029
  0
ENDSEC
  0
SECTION
  2
OBJECTS
  0
DICTIONARY
  5
C
330
0
100
AcDbDictionary
281
     1
  3
ACAD_GROUP
350
D
  3
ACAD_LAYOUT
350
1A
  3
ACAD_MLEADERSTYLE
350
239
  3
ACAD_MLINESTYLE
350
17
  3
ACAD_PLOTSETTINGS
350
19
  3
ACAD_PLOTSTYLENAME
350
E
  3
ACAD_TABLESTYLE
350
238
  3
ACAD_VISUALSTYLE
350
2A
  0
DICTIONARY
  5
D
102
{ACAD_REACTORS
330
C
102
}
330
C
100
AcDbDictionary
281
     1
  0
DICTIONARY
  5
1A
102
{ACAD_REACTORS
330
C
102
}
330
C
100
AcDbDictionary
281
     1
  3
Layout1
350
1E
  3
Layout2
350
26
  3
Model
350
22
  0
DICTIONARY
  5
239
102
{ACAD_REACTORS
330
C
102
}
330
C
100
AcDbDictionary
281
     1
  0
DICTIONARY
  5
17
102
{ACAD_REACTORS
330
C
102
}
330
C
100
AcDbDictionary
281
     1
  3
Standard
350
18
  0
DICTIONARY
  5
19
102
{ACAD_REACTORS
330
C
102
}
330
C
100
AcDbDictionary
281
     1
  0
ACDBDICTIONARYWDFLT
  5
E
102
{ACAD_REACTORS
330
C
102
}
330
C
100
AcDbDictionary
281
     1
  3
Normal
350
F
100
AcDbDictionaryWithDefault
340
F
  0
DICTIONARY
  5
238
102
{ACAD_REACTORS
330
C
102
}
330
C
100
AcDbDictionary
281
     1
  0
DICTIONARY
  5
2A
102
{ACAD_REACTORS
330
C
102
}
330
C
100
AcDbDictionary
281
     1
  3
2dWireframe
350
2F
  3
3D Hidden
350
31
  3
3dWireframe
350
30
  3
Basic
350
32
  3
Brighten
350
36
  3
ColorChange
350
3A
  3
Conceptual
350
34
  3
Dim
350
35
  3
Facepattern
350
39
  3
Flat
350
2B
  3
FlatWithEdges
350
2C
  3
Gouraud
350
2D
  3
GouraudWithEdges
350
2E
  3
Linepattern
350
38
  3
Realistic
350
33
  3
Thicken
350
37
  0
LAYOUT
  5
1E
102
{ACAD_REACTORS
330
1A
102
}
330
1A
100
AcDbPlotSettings
  1

  2
none_device
  4

  6

 40
0.0
 41
0.0
 42
0.0
 43
0.0
 44
0.0
 45
0.0
 46
0.0
 47
0.0
 48
0.0
 49
0.0
140
0.0
141
0.0
142
1.0
143
1.0
 70
   688
 72
     0
 73
     0
 74
     5
  7

 75
    16
 76
     0
 77
     2
 78
   300
147
1.0
148
0.0
149
0.0
100
AcDbLayout
  1
Layout1
 70
     1
 71
     1
 10
0.0
 20
0.0
 11
12.0
 21
9.0
 12
0.0
 22
0.0
 32
0.0
 14
1.000000000000000E+20
 24
1.000000000000000E+20
 34
1.000000000000000E+20
 15
-1.000000000000000E+20
 25
-1.000000000000000E+20
 35
-1.000000000000000E+20
146
0.0
 13
0.0
 23
0.0
 33
0.0
 16
1.0
 26
0.0
 36
0.0
 17
0.0
 27
1.0
 37
0.0
 76
     0
330
1B
  0
LAYOUT
  5
26
102
{ACAD_REACTORS
330
1A
102
}
330
1A
100
AcDbPlotSettings
  1

  2
none_device
  4

  6

 40
0.0
 41
0.0
 42
0.0
 43
0.0
 44
0.0
 45
0.0
 46
0.0
 47
0.0
 48
0.0
 49
0.0
140
0.0
141
0.0
142
1.0
143
1.0
 70
   688
 72
     0
 73
     0
 74
     5
  7

 75
    16
 76
     0
 77
     2
 78
   300
147
1.0
148
0.0
149
0.0
100
AcDbLayout
  1
Layout2
 70
     1
 71
     2
 10
0.0
 20
0.0
 11
0.0
 21
0.0
 12
0.0
 22
0.0
 32
0.0
 14
0.0
 24
0.0
 34
0.0
 15
0.0
 25
0.0
 35
0.0
146
0.0
 13
0.0
 23
0.0
 33
0.0
 16
1.0
 26
0.0
 36
0.0
 17
0.0
 27
1.0
 37
0.0
 76
     0
330
23
  0
LAYOUT
  5
22
102
{ACAD_REACTORS
330
1A
102
}
330
1A
100
AcDbPlotSettings
  1

  2
none_device
  4

  6

 40
0.0
 41
0.0
 42
0.0
 43
0.0
 44
0.0
 45
0.0
 46
0.0
 47
0.0
 48
0.0
 49
0.0
140
0.0
141
0.0
142
1.0
143
1.0
 70
  1712
 72
     0
 73
     0
 74
     0
  7

 75
     0
 76
     0
 77
     2
 78
   300
147
1.0
148
0.0
149
0.0
100
AcDbLayout
  1
Model
 70
     1
 71
     0
 10
0.0
 20
0.0
 11
12.0
 21
9.0
 12
0.0
 22
0.0
 32
0.0
 14
-115.8114533171887
 24
-107.9296620071639
 34
0.0
 15
115.8114533171888
 25
107.929662007164
 35
0.0
146
0.0
 13
0.0
 23
0.0
 33
0.0
 16
1.0
 26
0.0
 36
0.0
 17
0.0
 27
1.0
 37
0.0
 76
     0
330
1F
331
29
  0
MLINESTYLE
  5
18
102
{ACAD_REACTORS
330
17
102
}
330
17
100
AcDbMlineStyle
  2
Standard
 70
     0
  3

 62
   256
 51
90.0
 52
90.0
 71
     2
 49
0.5
 62
   256
  6
BYLAYER
 49
-0.5
 62
   256
  6
BYLAYER
  0
ACDBPLACEHOLDER
  5
F
102
{ACAD_REACTORS
330
E
102
}
330
E
  0
VISUALSTYLE
  5
2F
102
{ACAD_REACTORS
330
2A
102
}
330
2A
100
AcDbVisualStyle
  2
2dWireframe
 70
     4
 71
     0
 72
     2
 73
     0
 90
        0
 40
-0.6
 41
-30.0
 62
     5
 63
     7
421
 16777215
 74
     1
 91
        4
 64
     7
 65
   257
 75
     1
175
     1
 42
1.0
 92
        0
 66
   257
 43
1.0
 76
     1
 77
     6
 78
     2
 67
     7
 79
     5
170
     0
171
     0
290
     0
174
     0
 93
        1
 44
0.0
173
     0
291
     0
 45
0.0
1001
ACAD
1000
AcDbSavedByObjectVersion
1070
     0
  0
VISUALSTYLE
  5
31
102
{ACAD_REACTORS
330
2A
102
}
330
2A
100
AcDbVisualStyle
  2
3D Hidden
 70
     6
 71
     1
 72
     2
 73
     2
 90
        0
 40
-0.6
 41
-30.0
 62
     5
 63
     7
421
 16777215
 74
     2
 91
        2
 64
     7
 65
   257
 75
     2
175
     1
 42
40.0
 92
        0
 66
   257
 43
1.0
 76
     1
 77
     6
 78
     2
 67
     7
 79
     3
170
     0
171
     0
290
     0
174
     0
 93
        1
 44
0.0
173
     0
291
     0
 45
0.0
1001
ACAD
1000
AcDbSavedByObjectVersion
1070
     0
  0
VISUALSTYLE
  5
30
102
{ACAD_REACTORS
330
2A
102
}
330
2A
100
AcDbVisualStyle
  2
3dWireframe
 70
     5
 71
     0
 72
     2
 73
     0
 90
        0
 40
-0.6
 41
-30.0
 62
     5
 63
     7
421
 16777215
 74
     1
 91
        4
 64
     7
 65
   257
 75
     1
175
     1
 42
1.0
 92
        0
 66
   257
 43
1.0
 76
     1
 77
     6
 78
     2
 67
     7
 79
     5
170
     0
171
     0
290
     0
174
     0
 93
        1
 44
0.0
173
     0
291
     0
 45
0.0
1001
ACAD
1000
AcDbSavedByObjectVersion
1070
     0
  0
VISUALSTYLE
  5
32
102
{ACAD_REACTORS
330
2A
102
}
330
2A
100
AcDbVisualStyle
  2
Basic
 70
     7
 71
     1
 72
     0
 73
     1
 90
        0
 40
-0.6
 41
-30.0
 62
     5
 63
     7
421
 16777215
 74
     0
 91
        4
 64
     7
 65
   257
 75
     1
175
     1
 42
1.0
 92
        8
 66
     7
 43
1.0
 76
     1
 77
     6
 78
     2
 67
     7
 79
     5
170
     0
171
     0
290
     0
174
     0
 93
        1
 44
0.0
173
     0
291
     1
 45
0.0
1001
ACAD
1000
AcDbSavedByObjectVersion
1070
     0
  0
VISUALSTYLE
  5
36
102
{ACAD_REACTORS
330
2A
102
}
330
2A
100
AcDbVisualStyle
  2
Brighten
 70
    12
 71
     2
 72
     2
 73
     0
 90
        0
 40
-0.6
 41
-30.0
 62
     5
 63
     7
421
 16777215
 74
     1
 91
        4
 64
     7
 65
   257
 75
     1
175
     1
 42
1.0
 92
        8
 66
     7
 43
1.0
 76
     1
 77
     6
 78
     2
 67
     7
 79
     5
170
     0
171
     0
290
     0
174
     0
 93
        1
 44
50.0
173
     0
291
     1
 45
0.0
1001
ACAD
1000
AcDbSavedByObjectVersion
1070
     0
  0
VISUALSTYLE
  5
3A
102
{ACAD_REACTORS
330
2A
102
}
330
2A
100
AcDbVisualStyle
  2
ColorChange
 70
    16
 71
     2
 72
     2
 73
     3
 90
        0
 40
-0.6
 41
-30.0
 62
     5
 63
     8
421
  8421504
 74
     1
 91
        4
 64
     7
 65
   257
 75
     1
175
     1
 42
1.0
 92
        8
 66
     8
424
  8421504
 43
1.0
 76
     1
 77
     6
 78
     2
 67
     7
 79
     5
170
     0
171
     0
290
     0
174
     0
 93
        1
 44
0.0
173
     0
291
     1
 45
0.0
1001
ACAD
1000
AcDbSavedByObjectVersion
1070
     0
  0
VISUALSTYLE
  5
34
102
{ACAD_REACTORS
330
2A
102
}
330
2A
100
AcDbVisualStyle
  2
Conceptual
 70
     9
 71
     3
 72
     2
 73
     0
 90
        0
 40
-0.6
 41
-30.0
 62
     5
 63
     7
421
 16777215
 74
     2
 91
        2
 64
     7
 65
   257
 75
     1
175
     1
 42
40.0
 92
        8
 66
     7
 43
1.0
 76
     1
 77
     6
 78
     2
 67
     7
 79
     3
170
     0
171
     0
290
     0
174
     0
 93
        1
 44
0.0
173
     0
291
     0
 45
0.0
1001
ACAD
1000
AcDbSavedByObjectVersion
1070
     0
  0
VISUALSTYLE
  5
35
102
{ACAD_REACTORS
330
2A
102
}
330
2A
100
AcDbVisualStyle
  2
Dim
 70
    11
 71
     2
 72
     2
 73
     0
 90
        0
 40
-0.6
 41
-30.0
 62
     5
 63
     7
421
 16777215
 74
     1
 91
        4
 64
     7
 65
   257
 75
     1
175
     1
 42
1.0
 92
        8
 66
     7
 43
1.0
 76
     1
 77
     6
 78
     2
 67
     7
 79
     5
170
     0
171
     0
290
     0
174
     0
 93
        1
 44
-50.0
173
     0
291
     1
 45
0.0
1001
ACAD
1000
AcDbSavedByObjectVersion
1070
     0
  0
VISUALSTYLE
  5
39
102
{ACAD_REACTORS
330
2A
102
}
330
2A
100
AcDbVisualStyle
  2
Facepattern
 70
    15
 71
     2
 72
     2
 73
     0
 90
        0
 40
-0.6
 41
-30.0
 62
     5
 63
     7
421
 16777215
 74
     1
 91
        4
 64
     7
 65
   257
 75
     1
175
     1
 42
1.0
 92
        8
 66
     7
 43
1.0
 76
     1
 77
     6
 78
     2
 67
     7
 79
     5
170
     0
171
     0
290
     0
174
     0
 93
        1
 44
0.0
173
     0
291
     1
 45
0.0
1001
ACAD
1000
AcDbSavedByObjectVersion
1070
     0
  0
VISUALSTYLE
  5
2B
102
{ACAD_REACTORS
330
2A
102
}
330
2A
100
AcDbVisualStyle
  2
Flat
 70
     0
 71
     2
 72
     1
 73
     1
 90
        2
 40
-0.6
 41
30.0
 62
     5
 63
     7
421
 16777215
 74
     0
 91
        4
 64
     7
 65
   257
 75
     1
175
     1
 42
1.0
 92
        8
 66
     7
 43
1.0
 76
     1
 77
     6
 78
     2
 67
     7
 79
     5
170
     0
171
     0
290
     0
174
     0
 93
       13
 44
0.0
173
     0
291
     1
 45
0.0
1001
ACAD
1000
AcDbSavedByObjectVersion
1070
     0
  0
VISUALSTYLE
  5
2C
102
{ACAD_REACTORS
330
2A
102
}
330
2A
100
AcDbVisualStyle
  2
FlatWithEdges
 70
     1
 71
     2
 72
     1
 73
     1
 90
        2
 40
-0.6
 41
30.0
 62
     5
 63
     7
421
 16777215
 74
     1
 91
        4
 64
     7
 65
   257
 75
     1
175
     1
 42
1.0
 92
        0
 66
   257
 43
1.0
 76
     1
 77
     6
 78
     2
 67
     7
 79
     5
170
     0
171
     0
290
     0
174
     0
 93
       13
 44
0.0
173
     0
291
     1
 45
0.0
1001
ACAD
1000
AcDbSavedByObjectVersion
1070
     0
  0
VISUALSTYLE
  5
2D
102
{ACAD_REACTORS
330
2A
102
}
330
2A
100
AcDbVisualStyle
  2
Gouraud
 70
     2
 71
     2
 72
     2
 73
     1
 90
        2
 40
-0.6
 41
30.0
 62
     5
 63
     7
421
 16777215
 74
     0
 91
        4
 64
     7
 65
   257
 75
     1
175
     1
 42
1.0
 92
        0
 66
     7
 43
1.0
 76
     1
 77
     6
 78
     2
 67
     7
 79
     5
170
     0
171
     0
290
     0
174
     0
 93
       13
 44
0.0
173
     0
291
     1
 45
0.0
1001
ACAD
1000
AcDbSavedByObjectVersion
1070
     0
  0
VISUALSTYLE
  5
2E
102
{ACAD_REACTORS
330
2A
102
}
330
2A
100
AcDbVisualStyle
  2
GouraudWithEdges
 70
     3
 71
     2
 72
     2
 73
     1
 90
        2
 40
-0.6
 41
30.0
 62
     5
 63
     7
421
 16777215
 74
     1
 91
        4
 64
     7
 65
   257
 75
     1
175
     1
 42
1.0
 92
        0
 66
   257
 43
1.0
 76
     1
 77
     6
 78
     2
 67
     7
 79
     5
170
     0
171
     0
290
     0
174
     0
 93
       13
 44
0.0
173
     0
291
     1
 45
0.0
1001
ACAD
1000
AcDbSavedByObjectVersion
1070
     0
  0
VISUALSTYLE
  5
38
102
{ACAD_REACTORS
330
2A
102
}
330
2A
100
AcDbVisualStyle
  2
Linepattern
 70
    14
 71
     2
 72
     2
 73
     0
 90
        0
 40
-0.6
 41
-30.0
 62
     5
 63
     7
421
 16777215
 74
     1
 91
        4
 64
     7
 65
   257
 75
     7
175
     7
 42
1.0
 92
        8
 66
     7
 43
1.0
 76
     1
 77
     6
 78
     2
 67
     7
 79
     5
170
     0
171
     0
290
     0
174
     0
 93
        1
 44
0.0
173
     0
291
     1
 45
0.0
1001
ACAD
1000
AcDbSavedByObjectVersion
1070
     0
  0
VISUALSTYLE
  5
33
102
{ACAD_REACTORS
330
2A
102
}
330
2A
100
AcDbVisualStyle
  2
Realistic
 70
     8
 71
     2
 72
     2
 73
     0
 90
        0
 40
-0.6
 41
-30.0
 62
     5
 63
     7
421
 16777215
 74
     1
 91
        0
 64
     7
 65
   257
 75
     1
175
     1
 42
1.0
 92
        8
 66
     8
424
  7895160
 43
1.0
 76
     1
 77
     6
 78
     2
 67
     7
 79
     5
170
     0
171
     0
290
     0
174
     0
 93
       13
 44
0.0
173
     0
291
     0
 45
0.0
1001
ACAD
1000
AcDbSavedByObjectVersion
1070
     0
  0
VISUALSTYLE
  5
37
102
{ACAD_REACTORS
330
2A
102
}
330
2A
100
AcDbVisualStyle
  2
Thicken
 70
    13
 71
     2
 72
     2
 73
     0
 90
        0
 40
-0.6
 41
-30.0
 62
     5
 63
     7
421
 16777215
 74
     1
 91
        4
 64
     7
 65
   257
 75
     1
175
     1
 42
1.0
 92
       12
 66
     7
 43
1.0
 76
     1
 77
     6
 78
     2
 67
     7
 79
     5
170
     0
171
     0
290
     0
174
     0
 93
        1
 44
0.0
173
     0
291
     1
 45
0.0
1001
ACAD
1000
AcDbSavedByObjectVersion
1070
     0
  0
ENDSEC
  0
EOF
