  0
SECTION
  2
HEADER
  9
$ACADVER
  1
AC1021
  9
$ACADMAINTVER
 70
    25
  9
$DWGCODEPAGE
  3
ANSI_1252
  9
$INSBASE
 10
0.0
 20
0.0
 30
0.0
  9
$EXTMIN
 10
1.000000000000000E+20
 20
1.000000000000000E+20
 30
1.000000000000000E+20
  9
$EXTMAX
 10
-1.000000000000000E+20
 20
-1.000000000000000E+20
 30
-1.000000000000000E+20
  9
$LIMMIN
 10
0.0
 20
0.0
  9
$LIMMAX
 10
12.0
 20
9.0
  9
$ORTHOMODE
 70
     0
  9
$REGENMODE
 70
     1
  9
$FILLMODE
 70
     1
  9
$QTEXTMODE
 70
     0
  9
$MIRRTEXT
 70
     1
  9
$LTSCALE
 40
1.0
  9
$ATTMODE
 70
     1
  9
$TEXTSIZE
 40
0.2
  9
$TRACEWID
 40
0.05
  9
$TEXTSTYLE
  7
Standard
  9
$CLAYER
  8
Layer 01
  9
$CELTYPE
  6
ByLayer
  9
$CECOLOR
 62
   256
  9
$CELTSCALE
 40
1.0
  9
$DISPSILH
 70
     0
  9
$DIMSCALE
 40
1.0
  9
$DIMASZ
 40
0.18
  9
$DIMEXO
 40
0.0625
  9
$DIMDLI
 40
0.38
  9
$DIMRND
 40
0.0
  9
$DIMDLE
 40
0.0
  9
$DIMEXE
 40
0.18
  9
$DIMTP
 40
0.0
  9
$DIMTM
 40
0.0
  9
$DIMTXT
 40
0.18
  9
$DIMCEN
 40
0.09
  9
$DIMTSZ
 40
0.0
  9
$DIMTOL
 70
     0
  9
$DIMLIM
 70
     0
  9
$DIMTIH
 70
     1
  9
$DIMTOH
 70
     1
  9
$DIMSE1
 70
     0
  9
$DIMSE2
 70
     0
  9
$DIMTAD
 70
     0
  9
$DIMZIN
 70
     0
  9
$DIMBLK
  1

  9
$DIMASO
 70
     1
  9
$DIMSHO
 70
     1
  9
$DIMPOST
  1

  9
$DIMAPOST
  1

  9
$DIMALT
 70
     0
  9
$DIMALTD
 70
     2
  9
$DIMALTF
 40
25.4
  9
$DIMLFAC
 40
1.0
  9
$DIMTOFL
 70
     0
  9
$DIMTVP
 40
0.0
  9
$DIMTIX
 70
     0
  9
$DIMSOXD
 70
     0
  9
$DIMSAH
 70
     0
  9
$DIMBLK1
  1

  9
$DIMBLK2
  1

  9
$DIMSTYLE
  2
STANDARD_ACAD
  9
$DIMCLRD
 70
     0
  9
$DIMCLRE
 70
     0
  9
$DIMCLRT
 70
     0
  9
$DIMTFAC
 40
1.0
  9
$DIMGAP
 40
0.09
  9
$DIMJUST
 70
     0
  9
$DIMSD1
 70
     0
  9
$DIMSD2
 70
     0
  9
$DIMTOLJ
 70
     1
  9
$DIMTZIN
 70
     0
  9
$DIMALTZ
 70
     0
  9
$DIMALTTZ
 70
     0
  9
$DIMUPT
 70
     0
  9
$DIMDEC
 70
     4
  9
$DIMTDEC
 70
     4
  9
$DIMALTU
 70
     2
  9
$DIMALTTD
 70
     2
  9
$DIMTXSTY
  7
Standard
  9
$DIMAUNIT
 70
     0
  9
$DIMADEC
 70
     0
  9
$DIMALTRND
 40
0.0
  9
$DIMAZIN
 70
     0
  9
$DIMDSEP
 70
    46
  9
$DIMATFIT
 70
     3
  9
$DIMFRAC
 70
     0
  9
$DIMLDRBLK
  1

  9
$DIMLUNIT
 70
     2
  9
$DIMLWD
 70
    -2
  9
$DIMLWE
 70
    -2
  9
$DIMTMOVE
 70
     2
  9
$DIMFXL
 40
1.0
  9
$DIMFXLON
 70
     0
  9
$DIMJOGANG
 40
0.7853981633974483
  9
$DIMTFILL
 70
     0
  9
$DIMTFILLCLR
 70
     0
  9
$DIMARCSYM
 70
     0
  9
$DIMLTYPE
  6

  9
$DIMLTEX1
  6

  9
$DIMLTEX2
  6

  9
$LUNITS
 70
     2
  9
$LUPREC
 70
     3
  9
$SKETCHINC
 40
0.1
  9
$FILLETRAD
 40
0.5
  9
$AUNITS
 70
     0
  9
$AUPREC
 70
     0
  9
$MENU
  1
.
  9
$ELEVATION
 40
0.0
  9
$PELEVATION
 40
0.0
  9
$THICKNESS
 40
0.0
  9
$LIMCHECK
 70
     0
  9
$CHAMFERA
 40
0.0
  9
$CHAMFERB
 40
0.0
  9
$CHAMFERC
 40
0.0
  9
$CHAMFERD
 40
0.0
  9
$SKPOLY
 70
     0
  9
$TDCREATE
 40
2458877.518579329
  9
$TDUCREATE
 40
2458877.726912662
  9
$TDUPDATE
 40
2458877.51859419
  9
$TDUUPDATE
 40
2458877.726927523
  9
$TDINDWG
 40
0.0000000116
  9
$TDUSRTIMER
 40
0.0000000116
  9
$USRTIMER
 70
     1
  9
$ANGBASE
 50
0.0
  9
$ANGDIR
 70
     0
  9
$PDMODE
 70
     0
  9
$PDSIZE
 40
0.0
  9
$PLINEWID
 40
0.0
  9
$SPLFRAME
 70
     0
  9
$SPLINETYPE
 70
     6
  9
$SPLINESEGS
 70
     8
  9
$HANDSEED
  5
FF
  9
$SURFTAB1
 70
     6
  9
$SURFTAB2
 70
     6
  9
$SURFTYPE
 70
     6
  9
$SURFU
 70
     6
  9
$SURFV
 70
     6
  9
$UCSBASE
  2

  9
$UCSNAME
  2

  9
$UCSORG
 10
0.0
 20
0.0
 30
0.0
  9
$UCSXDIR
 10
1.0
 20
0.0
 30
0.0
  9
$UCSYDIR
 10
0.0
 20
1.0
 30
0.0
  9
$UCSORTHOREF
  2

  9
$UCSORTHOVIEW
 70
     0
  9
$UCSORGTOP
 10
0.0
 20
0.0
 30
0.0
  9
$UCSORGBOTTOM
 10
0.0
 20
0.0
 30
0.0
  9
$UCSORGLEFT
 10
0.0
 20
0.0
 30
0.0
  9
$UCSORGRIGHT
 10
0.0
 20
0.0
 30
0.0
  9
$UCSORGFRONT
 10
0.0
 20
0.0
 30
0.0
  9
$UCSORGBACK
 10
0.0
 20
0.0
 30
0.0
  9
$PUCSBASE
  2

  9
$PUCSNAME
  2

  9
$PUCSORG
 10
0.0
 20
0.0
 30
0.0
  9
$PUCSXDIR
 10
1.0
 20
0.0
 30
0.0
  9
$PUCSYDIR
 10
0.0
 20
1.0
 30
0.0
  9
$PUCSORTHOREF
  2

  9
$PUCSORTHOVIEW
 70
     0
  9
$PUCSORGTOP
 10
0.0
 20
0.0
 30
0.0
  9
$PUCSORGBOTTOM
 10
0.0
 20
0.0
 30
0.0
  9
$PUCSORGLEFT
 10
0.0
 20
0.0
 30
0.0
  9
$PUCSORGRIGHT
 10
0.0
 20
0.0
 30
0.0
  9
$PUCSORGFRONT
 10
0.0
 20
0.0
 30
0.0
  9
$PUCSORGBACK
 10
0.0
 20
0.0
 30
0.0
  9
$USERI1
 70
     0
  9
$USERI2
 70
     0
  9
$USERI3
 70
     0
  9
$USERI4
 70
     0
  9
$USERI5
 70
     0
  9
$USERR1
 40
0.0
  9
$USERR2
 40
0.0
  9
$USERR3
 40
0.0
  9
$USERR4
 40
0.0
  9
$USERR5
 40
0.0
  9
$WORLDVIEW
 70
     1
  9
$SHADEDGE
 70
     3
  9
$SHADEDIF
 70
    70
  9
$TILEMODE
 70
     1
  9
$MAXACTVP
 70
    64
  9
$PINSBASE
 10
0.0
 20
0.0
 30
0.0
  9
$PLIMCHECK
 70
     0
  9
$PEXTMIN
 10
1.000000000000000E+20
 20
1.000000000000000E+20
 30
1.000000000000000E+20
  9
$PEXTMAX
 10
-1.000000000000000E+20
 20
-1.000000000000000E+20
 30
-1.000000000000000E+20
  9
$PLIMMIN
 10
0.0
 20
0.0
  9
$PLIMMAX
 10
12.0
 20
9.0
  9
$UNITMODE
 70
     0
  9
$VISRETAIN
 70
     1
  9
$PLINEGEN
 70
     0
  9
$PSLTSCALE
 70
     1
  9
$TREEDEPTH
 70
  3020
  9
$CMLSTYLE
  2
Standard
  9
$CMLJUST
 70
     0
  9
$CMLSCALE
 40
1.0
  9
$PROXYGRAPHICS
 70
     1
  9
$MEASUREMENT
 70
     0
  9
$CELWEIGHT
370
    -1
  9
$ENDCAPS
280
     0
  9
$JOINSTYLE
280
     0
  9
$LWDISPLAY
290
     0
  9
$INSUNITS
 70
     1
  9
$HYPERLINKBASE
  1

  9
$STYLESHEET
  1

  9
$XEDIT
290
     1
  9
$CEPSNTYPE
380
     0
  9
$PSTYLEMODE
290
     1
  9
$FINGERPRINTGUID
  2
{d034d38c-716e-43e0-95c8-47ad10c5d89c}
  9
$VERSIONGUID
  2
{FAEB1C32-E019-11D5-929B-00C0DF256EC4}
  9
$EXTNAMES
290
     1
  9
$PSVPSCALE
 40
0.0
  9
$OLESTARTUP
290
     0
  9
$SORTENTS
280
   127
  9
$INDEXCTL
280
     0
  9
$HIDETEXT
280
     1
  9
$XCLIPFRAME
290
     0
  9
$HALOGAP
280
     0
  9
$OBSCOLOR
 70
   257
  9
$OBSLTYPE
280
     0
  9
$INTERSECTIONDISPLAY
280
     0
  9
$INTERSECTIONCOLOR
 70
   257
  9
$DIMASSOC
280
     2
  9
$PROJECTNAME
  1

  9
$CAMERADISPLAY
290
     0
  9
$LENSLENGTH
 40
50.0
  9
$CAMERAHEIGHT
 40
0.0
  9
$STEPSPERSEC
 40
2.0
  9
$STEPSIZE
 40
6.0
  9
$3DDWFPREC
 40
2.0
  9
$PSOLWIDTH
 40
0.25
  9
$PSOLHEIGHT
 40
4.0
  9
$LOFTANG1
 40
1.570796326794897
  9
$LOFTANG2
 40
1.570796326794897
  9
$LOFTMAG1
 40
0.0
  9
$LOFTMAG2
 40
0.0
  9
$LOFTPARAM
 70
     7
  9
$LOFTNORMALS
280
     1
  9
$LATITUDE
 40
37.795
  9
$LONGITUDE
 40
-122.394
  9
$NORTHDIRECTION
 40
0.0
  9
$TIMEZONE
 70
 -8000
  9
$LIGHTGLYPHDISPLAY
280
     1
  9
$TILEMODELIGHTSYNCH
280
     1
  9
$CMATERIAL
347
44
  9
$SOLIDHIST
280
     0
  9
$SHOWHIST
280
     1
  9
$DWFFRAME
280
     2
  9
$DGNFRAME
280
     2
  9
$REALWORLDSCALE
290
     1
  9
$INTERFERECOLOR
 62
   256
  9
$CSHADOW
280
     0
  9
$SHADOWPLANELOCATION
 40
0.0
  0
ENDSEC
  0
SECTION
  2
CLASSES
  0
CLASS
  1
ACDBDICTIONARYWDFLT
  2
AcDbDictionaryWithDefault
  3
ObjectDBX Classes
 90
        0
 91
        3
280
     0
281
     0
  0
CLASS
  1
VISUALSTYLE
  2
AcDbVisualStyle
  3
ObjectDBX Classes
 90
     4095
 91
        3
280
     0
281
     0
  0
CLASS
  1
MATERIAL
  2
AcDbMaterial
  3
ObjectDBX Classes
 90
     1153
 91
        3
280
     0
281
     0
  0
CLASS
  1
SCALE
  2
AcDbScale
  3
ObjectDBX Classes
 90
     1153
 91
        3
280
     0
281
     0
  0
CLASS
  1
TABLESTYLE
  2
AcDbTableStyle
  3
ObjectDBX Classes
 90
     4095
 91
        3
280
     0
281
     0
  0
CLASS
  1
MLEADERSTYLE
  2
AcDbMLeaderStyle
  3
ACDB_MLEADERSTYLE_CLASS
 90
     4095
 91
        3
280
     0
281
     0
  0
CLASS
  1
SUN
  2
AcDbSun
  3
SCENEOE
 90
     1153
 91
        3
280
     0
281
     0
  0
CLASS
  1
DICTIONARYVAR
  2
AcDbDictionaryVar
  3
ObjectDBX Classes
 90
        0
 91
        3
280
     0
281
     0
  0
CLASS
  1
CELLSTYLEMAP
  2
AcDbCellStyleMap
  3
ObjectDBX Classes
 90
     1152
 91
        3
280
     0
281
     0
  0
ENDSEC
  0
SECTION
  2
TABLES
  0
TABLE
  2
VPORT
  5
8
330
0
100
AcDbSymbolTable
 70
     1
  0
VPORT
  5
29
330
8
100
AcDbSymbolTableRecord
100
AcDbViewportTableRecord
  2
*Active
 70
     0
 10
0.0
 20
0.0
 11
1.0
 21
1.0
 12
10.42990654205607
 22
4.5
 13
0.0
 23
0.0
 14
0.5
 24
0.5
 15
0.5
 25
0.5
 16
0.0
 26
0.0
 36
1.0
 17
0.0
 27
0.0
 37
0.0
 40
9.0
 41
1.972972972850329
 42
50.0
 43
0.0
 44
0.0
 50
0.0
 51
0.0
 71
     0
 72
   100
 73
     1
 74
     3
 75
     0
 76
     0
 77
     0
 78
     0
281
     0
 65
     1
110
0.0
120
0.0
130
0.0
111
1.0
121
0.0
131
0.0
112
0.0
122
1.0
132
0.0
 79
     0
146
0.0
348
2F
 60
     3
 61
     5
292
     1
282
     1
141
0.0
142
0.0
 63
   250
361
6D
  0
ENDTAB
  0
TABLE
  2
LTYPE
  5
5
330
0
100
AcDbSymbolTable
 70
     1
  0
LTYPE
  5
14
330
5
100
AcDbSymbolTableRecord
100
AcDbLinetypeTableRecord
  2
ByBlock
 70
     0
  3

 72
    65
 73
     0
 40
0.0
  0
LTYPE
  5
15
330
5
100
AcDbSymbolTableRecord
100
AcDbLinetypeTableRecord
  2
ByLayer
 70
     0
  3

 72
    65
 73
     0
 40
0.0
  0
LTYPE
  5
16
330
5
100
AcDbSymbolTableRecord
100
AcDbLinetypeTableRecord
  2
Continuous
 70
     0
  3
Solid line
 72
    65
 73
     0
 40
0.0
  0
ENDTAB
  0
TABLE
  2
LAYER
  5
2
330
0
100
AcDbSymbolTable
 70
     2
  0
LAYER
  5
10
330
2
100
AcDbSymbolTableRecord
100
AcDbLayerTableRecord
  2
0
 70
     0
 62
     7
  6
Continuous
370
    -3
390
F
347
46
  0
LAYER
  5
6E
330
2
100
AcDbSymbolTableRecord
100
AcDbLayerTableRecord
  2
Layer 01
 70
     0
 62
    18
420
        0
  6
Continuous
370
    -3
390
F
347
46
  0
ENDTAB
  0
TABLE
  2
STYLE
  5
3
330
0
100
AcDbSymbolTable
 70
     1
  0
STYLE
  5
11
330
3
100
AcDbSymbolTableRecord
100
AcDbTextStyleTableRecord
  2
Standard
 70
     0
 40
0.0
 41
1.0
 50
0.0
 71
     0
 42
0.2
  3
txt
  4

  0
ENDTAB
  0
TABLE
  2
VIEW
  5
6
330
0
100
AcDbSymbolTable
 70
     0
  0
ENDTAB
  0
TABLE
  2
UCS
  5
7
330
0
100
AcDbSymbolTable
 70
     0
  0
ENDTAB
  0
TABLE
  2
APPID
  5
9
330
0
100
AcDbSymbolTable
 70
     2
  0
APPID
  5
12
330
9
100
AcDbSymbolTableRecord
100
AcDbRegAppTableRecord
  2
ACAD
 70
     0
  0
APPID
  5
F7
330
9
100
AcDbSymbolTableRecord
100
AcDbRegAppTableRecord
  2
ACAD_MLEADERVER
 70
     0
  0
ENDTAB
  0
TABLE
  2
DIMSTYLE
  5
A
330
0
100
AcDbSymbolTable
 70
     1
100
AcDbDimStyleTable
  0
DIMSTYLE
105
27
330
A
100
AcDbSymbolTableRecord
100
AcDbDimStyleTableRecord
  2
STANDARD_ACAD
 70
     0
178
     0
340
11
  0
ENDTAB
  0
TABLE
  2
BLOCK_RECORD
  5
1
330
0
100
AcDbSymbolTable
 70
     1
  0
BLOCK_RECORD
  5
1F
330
1
100
AcDbSymbolTableRecord
100
AcDbBlockTableRecord
  2
*Model_Space
340
22
 70
     0
280
     1
281
     0
  0
BLOCK_RECORD
  5
1B
330
1
100
AcDbSymbolTableRecord
100
AcDbBlockTableRecord
  2
*Paper_Space
340
1E
 70
     0
280
     1
281
     0
  0
BLOCK_RECORD
  5
23
330
1
100
AcDbSymbolTableRecord
100
AcDbBlockTableRecord
  2
*Paper_Space0
340
26
 70
     0
280
     1
281
     0
  0
ENDTAB
  0
ENDSEC
  0
SECTION
  2
BLOCKS
  0
BLOCK
  5
20
330
1F
100
AcDbEntity
  8
0
100
AcDbBlockBegin
  2
*Model_Space
 70
     0
 10
0.0
 20
0.0
 30
0.0
  3
*Model_Space
  1

  0
ENDBLK
  5
21
330
1F
100
AcDbEntity
  8
0
100
AcDbBlockEnd
  0
BLOCK
  5
1C
330
1B
100
AcDbEntity
 67
     1
  8
0
100
AcDbBlockBegin
  2
*Paper_Space
 70
     0
 10
0.0
 20
0.0
 30
0.0
  3
*Paper_Space
  1

  0
ENDBLK
  5
1D
330
1B
100
AcDbEntity
 67
     1
  8
0
100
AcDbBlockEnd
  0
BLOCK
  5
24
330
23
100
AcDbEntity
  8
0
100
AcDbBlockBegin
  2
*Paper_Space0
 70
     0
 10
0.0
 20
0.0
 30
0.0
  3
*Paper_Space0
  1

  0
ENDBLK
  5
25
330
23
100
AcDbEntity
  8
0
100
AcDbBlockEnd
  0
ENDSEC
  0
SECTION
  2
ENTITIES
  0
SPLINE
  5
6F
330
1F
100
AcDbEntity
  8
Layer 01
370
    -3
100
AcDbSpline
210
0.0
220
0.0
230
1.0
 70
     8
 71
     3
 72
    11
 73
     7
 74
     0
 42
0.000000001
 43
0.0000000001
 40
21.25203239335095
 40
21.25203239335095
 40
21.25203239335095
 40
21.25203239335095
 40
22.04822911478831
 40
22.04822911478831
 40
22.04822911478831
 40
22.74945123724664
 40
22.74945123724664
 40
22.74945123724664
 40
22.74945123724664
 10
-7.985993945557794
 20
44.90758615679561
 30
0.0
 10
-7.998822909224122
 20
44.87897705015527
 30
0.0
 10
-8.011509293992635
 20
44.85038069376958
 30
0.0
 10
-8.02404379306931
 20
44.82181679231185
 30
0.0
 10
-8.034415612753008
 20
44.79818125382163
 30
0.0
 10
-8.045111347698239
 20
44.77359630078565
 30
0.0
 10
-8.056103695966758
 20
44.74807680681117
 30
0.0
  0
SPLINE
  5
70
330
1F
100
AcDbEntity
  8
Layer 01
370
    -3
100
AcDbSpline
210
0.0
220
0.0
230
1.0
 70
    12
 71
     3
 72
    20
 73
    16
 74
     0
 42
0.000000001
 43
0.0000000001
 40
22.74945123724664
 40
22.74945123724664
 40
22.74945123724664
 40
22.74945123724664
 40
22.78920207912486
 40
22.78920207912486
 40
22.78920207912486
 40
22.84343076976063
 40
22.84343076976063
 40
22.84343076976063
 40
22.89384402825319
 40
22.89384402825319
 40
22.89384402825319
 40
22.94492924684744
 40
22.94492924684744
 40
22.94492924684744
 40
23.00107561836177
 40
23.00107561836177
 40
23.00107561836177
 40
23.00107561836177
 10
-8.05610369596676
 20
44.74807680681117
 30
0.0
 41
1.161989728879102
 10
-8.061345567805017
 20
44.7359067159046
 30
0.0
 41
1.161989728879102
 10
-8.066218819785036
 20
44.7235860957087
 30
0.0
 41
1.161989728879102
 10
-8.070718339027051
 20
44.7111350537364
 30
0.0
 41
1.161989728879102
 10
-8.07686150041977
 20
44.69413573531386
 30
0.0
 41
1.161989728879102
 10
-8.082308014820486
 20
44.67689330750068
 30
0.0
 41
1.161989728879102
 10
-8.087043360889957
 20
44.65945353226138
 30
0.0
 41
1.161989728879102
 10
-8.091444118304077
 20
44.64324601140466
 30
0.0
 41
1.161989728879102
 10
-8.095230655906917
 20
44.62686804609265
 30
0.0
 41
1.161989728879102
 10
-8.098394192228794
 20
44.61035951130459
 30
0.0
 41
1.161989728879102
 10
-8.101595685769862
 20
44.59365290132211
 30
0.0
 41
1.161989728879102
 10
-8.104159138366503
 20
44.57681256982997
 30
0.0
 41
1.161989728879102
 10
-8.106046346270544
 20
44.55987709266693
 30
0.0
 41
1.161989728879102
 10
-8.108117690978725
 20
44.54128920368714
 30
0.0
 41
1.161989728879102
 10
-8.109374389302673
 20
44.52258669631904
 30
0.0
 41
1.161989728879102
 10
-8.109853285465897
 20
44.50389026119333
 30
0.0
 41
1.161989728879102
  0
SPLINE
  5
71
330
1F
100
AcDbEntity
  8
Layer 01
370
    -3
100
AcDbSpline
210
0.0
220
0.0
230
1.0
 70
    12
 71
     3
 72
    53
 73
    49
 74
     0
 42
0.000000001
 43
0.0000000001
 40
23.00107561836177
 40
23.00107561836177
 40
23.00107561836177
 40
23.00107561836177
 40
23.04864598214289
 40
23.04864598214289
 40
23.04864598214289
 40
23.10014546944898
 40
23.10014546944898
 40
23.10014546944898
 40
23.15676947812972
 40
23.15676947812972
 40
23.15676947812972
 40
23.21876898529212
 40
23.21876898529212
 40
23.21876898529212
 40
23.28730334669227
 40
23.28730334669227
 40
23.28730334669227
 40
23.36374362420859
 40
23.36374362420859
 40
23.36374362420859
 40
23.44642872942328
 40
23.44642872942328
 40
23.44642872942328
 40
23.52987094335945
 40
23.52987094335945
 40
23.52987094335945
 40
23.60819858262985
 40
23.60819858262985
 40
23.60819858262985
 40
23.67871552779027
 40
23.67871552779027
 40
23.67871552779027
 40
23.74191672110764
 40
23.74191672110764
 40
23.74191672110764
 40
23.79922135214567
 40
23.79922135214567
 40
23.79922135214567
 40
23.85128002631834
 40
23.85128002631834
 40
23.85128002631834
 40
23.89891811977246
 40
23.89891811977246
 40
23.89891811977246
 40
23.94648827207799
 40
23.94648827207799
 40
23.94648827207799
 40
23.99864908285363
 40
23.99864908285363
 40
23.99864908285363
 40
23.99864908285363
 10
-8.109853285465896
 20
44.50389026119333
 30
0.0
 41
1.149187054449865
 10
-8.110254928327597
 20
44.48805761630911
 30
0.0
 41
1.149187054449865
 10
-8.11001036014556
 20
44.47218296059523
 30
0.0
 41
1.149187054449865
 10
-8.109159636881403
 20
44.4563458884635
 30
0.0
 41
1.149187054449865
 10
-8.108238700122309
 20
44.43920172126335
 30
0.0
 41
1.149187054449865
 10
-8.106607422582504
 20
44.42210159749676
 30
0.0
 41
1.149187054449865
 10
-8.104251323679692
 20
44.40511133723896
 30
0.0
 41
1.149187054449865
 10
-8.101658292609816
 20
44.38641251577569
 30
0.0
 41
1.149187054449865
 10
-8.09818733254587
 20
44.36784676483804
 30
0.0
 41
1.149187054449865
 10
-8.093870262233535
 20
44.34948870436028
 30
0.0
 41
1.149187054449865
 10
-8.089140004877715
 20
44.32937359287692
 30
0.0
 41
1.149187054449865
 10
-8.08339392403312
 20
44.30950783051551
 30
0.0
 41
1.149187054449865
 10
-8.076658835367054
 20
44.28998110908179
 30
0.0
 41
1.149187054449865
 10
-8.069213573579805
 20
44.26839541657971
 30
0.0
 41
1.149187054449865
 10
-8.060559738377405
 20
44.24722403409915
 30
0.0
 41
1.149187054449865
 10
-8.050756963266256
 20
44.22660682637802
 30
0.0
 41
1.149187054449865
 10
-8.039816603527335
 20
44.20359704937874
 30
0.0
 41
1.149187054449865
 10
-8.02744516863523
 20
44.18127753104542
 30
0.0
 41
1.149187054449865
 10
-8.013764036995887
 20
44.15982571830357
 30
0.0
 41
1.149187054449865
 10
-7.998937152812733
 20
44.13657738246214
 30
0.0
 41
1.149187054449865
 10
-7.982572020144945
 20
44.1143481732345
 30
0.0
 41
1.149187054449865
 10
-7.964848520033094
 20
44.09331135403837
 30
0.0
 41
1.149187054449865
 10
-7.946922580331287
 20
44.07203425019045
 30
0.0
 41
1.149187054449865
 10
-7.927607065149357
 20
44.05197693113471
 30
0.0
 41
1.149187054449865
 10
-7.907071977016351
 20
44.03327557083666
 30
0.0
 41
1.149187054449865
 10
-7.887774694476429
 20
44.01570148343974
 30
0.0
 41
1.149187054449865
 10
-7.867400433637186
 20
43.99932481367622
 30
0.0
 41
1.149187054449865
 10
-7.8461010114432
 20
43.9842626198113
 30
0.0
 41
1.149187054449865
 10
-7.826914803290217
 20
43.97069481576001
 30
0.0
 41
1.149187054449865
 10
-7.806977905980491
 20
43.95819359625518
 30
0.0
 41
1.149187054449865
 10
-7.786421321896309
 20
43.94683497613803
 30
0.0
 41
1.149187054449865
 10
-7.767979907048741
 20
43.93664510097113
 30
0.0
 41
1.149187054449865
 10
-7.74903976988195
 20
43.92737478684712
 30
0.0
 41
1.149187054449865
 10
-7.729705778301436
 20
43.91906368328017
 30
0.0
 41
1.149187054449865
 10
-7.712152209502433
 20
43.91151793011016
 30
0.0
 41
1.149187054449865
 10
-7.694273984640257
 20
43.90476285875646
 30
0.0
 41
1.149187054449865
 10
-7.676138638734843
 20
43.89881404071353
 30
0.0
 41
1.149187054449865
 10
-7.659654831016129
 20
43.89340696586176
 30
0.0
 41
1.149187054449865
 10
-7.64295860055355
 20
43.88866598406229
 30
0.0
 41
1.149187054449865
 10
-7.626086259094204
 20
43.88460405650188
 30
0.0
 41
1.149187054449865
 10
-7.610660743748594
 20
43.88089044472684
 30
0.0
 41
1.149187054449865
 10
-7.5950880259228
 20
43.87774442083678
 30
0.0
 41
1.149187054449865
 10
-7.579411322113803
 20
43.87518328238418
 30
0.0
 41
1.149187054449864
 10
-7.563766296643517
 20
43.87262731929321
 30
0.0
 41
1.149187054449864
 10
-7.548017705020031
 20
43.8706538802404
 30
0.0
 41
1.149187054449864
 10
-7.532232453234197
 20
43.86926813817882
 30
0.0
 41
1.149187054449864
 10
-7.514907446761248
 20
43.86774722546154
 30
0.0
 41
1.149187054449864
 10
-7.497538279362693
 20
43.86693425404788
 30
0.0
 41
1.149187054449864
 10
-7.476306008205663
 20
43.86682240268975
 30
0.0
 41
1.149187054449864
  0
SPLINE
  5
72
330
1F
100
AcDbEntity
  8
Layer 01
370
    -3
100
AcDbSpline
210
0.0
220
0.0
230
1.0
 70
    12
 71
     3
 72
    26
 73
    22
 74
     0
 42
0.000000001
 43
0.0000000001
 40
23.99864908285363
 40
23.99864908285363
 40
23.99864908285363
 40
23.99864908285363
 40
24.08021457320243
 40
24.08021457320243
 40
24.08021457320243
 40
24.16726354013824
 40
24.16726354013824
 40
24.16726354013824
 40
24.26513280188285
 40
24.26513280188285
 40
24.26513280188285
 40
24.36830115148346
 40
24.36830115148346
 40
24.36830115148346
 40
24.46656293421211
 40
24.46656293421211
 40
24.46656293421211
 40
24.55453903848417
 40
24.55453903848417
 40
24.55453903848417
 40
24.56228333311827
 40
24.56228333311827
 40
24.56228333311827
 40
24.56228333311827
 10
-7.476306008205664
 20
43.86682240268976
 30
0.0
 41
1.152878425298053
 10
-7.445193465210683
 20
43.8669386571968
 30
0.0
 41
1.152878425298053
 10
-7.418051897880301
 20
43.86884062070164
 30
0.0
 41
1.152878425298053
 10
-7.391193864039545
 20
43.87242546771798
 30
0.0
 41
1.152878425298053
 10
-7.362422808353139
 20
43.87626565325598
 30
0.0
 41
1.152878425298053
 10
-7.333977115187972
 20
43.88203699416859
 30
0.0
 41
1.152878425298053
 10
-7.306003116922662
 20
43.88967311716359
 30
0.0
 41
1.152878425298053
 10
-7.274619625103187
 20
43.89823993701079
 30
0.0
 41
1.152878425298053
 10
-7.24382981629152
 20
43.90915380245045
 30
0.0
 41
1.152878425298053
 10
-7.213977029210774
 20
43.9224272038121
 30
0.0
 41
1.152878425298053
 10
-7.182645093299893
 20
43.93635827696977
 30
0.0
 41
1.152878425298053
 10
-7.152345334811185
 20
43.95288849977909
 30
0.0
 41
1.152878425298053
 10
-7.123637979535883
 20
43.9717757624171
 30
0.0
 41
1.152878425298053
 10
-7.096270964901866
 20
43.98978118256303
 30
0.0
 41
1.152878425298054
 10
-7.070351126849142
 20
44.00992868130606
 30
0.0
 41
1.152878425298054
 10
-7.046166965234297
 20
44.03189888271082
 30
0.0
 41
1.152878425298054
 10
-7.024459608616966
 20
44.05161902039606
 30
0.0
 41
1.152878425298054
 10
-7.004150617102062
 20
44.07280763673242
 30
0.0
 41
1.152878425298054
 10
-6.985375712507594
 20
44.09530052799239
 30
0.0
 41
1.152878425298054
 10
-6.983723644216329
 20
44.09727975469059
 30
0.0
 41
1.152878425298054
 10
-6.982083454120883
 20
44.09926908018619
 30
0.0
 41
1.152878425298054
 10
-6.98044822459618
 20
44.10128047362917
 30
0.0
 41
1.152878425298054
  0
SPLINE
  5
73
330
1F
100
AcDbEntity
  8
Layer 01
370
    -3
100
AcDbSpline
210
0.0
220
0.0
230
1.0
 70
     8
 71
     3
 72
    11
 73
     7
 74
     0
 42
0.000000001
 43
0.0000000001
 40
24.56228333311827
 40
24.56228333311827
 40
24.56228333311827
 40
24.56228333311827
 40
25.24783648936135
 40
25.24783648936135
 40
25.24783648936135
 40
26.54378226055649
 40
26.54378226055649
 40
26.54378226055649
 40
26.54378226055649
 10
-6.980448224596181
 20
44.10128047362918
 30
0.0
 10
-6.963577113399678
 20
44.12199503665567
 30
0.0
 10
-6.946772708373073
 20
44.1427849011105
 30
0.0
 10
-6.930026990358582
 20
44.16366522493049
 30
0.0
 10
-6.898371069501477
 20
44.20313715905382
 30
0.0
 10
-6.866947447654621
 20
44.2429081560696
 30
0.0
 10
-6.835753540433458
 20
44.28294891188304
 30
0.0
  0
SPLINE
  5
74
330
1F
100
AcDbEntity
  8
Layer 01
370
    -3
100
AcDbSpline
210
0.0
220
0.0
230
1.0
 70
     8
 71
     3
 72
    11
 73
     7
 74
     0
 42
0.000000001
 43
0.0000000001
 40
21.25203239335095
 40
21.25203239335095
 40
21.25203239335095
 40
21.25203239335095
 40
22.04822911478831
 40
22.04822911478831
 40
22.04822911478831
 40
22.74945123724664
 40
22.74945123724664
 40
22.74945123724664
 40
22.74945123724664
 10
7.985993945557794
 20
44.90758615679561
 30
0.0
 10
7.998822909224122
 20
44.87897705015527
 30
0.0
 10
8.011509293992635
 20
44.85038069376958
 30
0.0
 10
8.02404379306931
 20
44.82181679231185
 30
0.0
 10
8.034415612753008
 20
44.79818125382163
 30
0.0
 10
8.045111347698239
 20
44.77359630078565
 30
0.0
 10
8.056103695966758
 20
44.74807680681117
 30
0.0
  0
SPLINE
  5
75
330
1F
100
AcDbEntity
  8
Layer 01
370
    -3
100
AcDbSpline
210
0.0
220
0.0
230
1.0
 70
    12
 71
     3
 72
    20
 73
    16
 74
     0
 42
0.000000001
 43
0.0000000001
 40
22.74945123724664
 40
22.74945123724664
 40
22.74945123724664
 40
22.74945123724664
 40
22.78920207912486
 40
22.78920207912486
 40
22.78920207912486
 40
22.84343076976063
 40
22.84343076976063
 40
22.84343076976063
 40
22.89384402825319
 40
22.89384402825319
 40
22.89384402825319
 40
22.94492924684744
 40
22.94492924684744
 40
22.94492924684744
 40
23.00107561836177
 40
23.00107561836177
 40
23.00107561836177
 40
23.00107561836177
 10
8.05610369596676
 20
44.74807680681117
 30
0.0
 41
1.161989728879102
 10
8.061345567805017
 20
44.7359067159046
 30
0.0
 41
1.161989728879102
 10
8.066218819785036
 20
44.7235860957087
 30
0.0
 41
1.161989728879102
 10
8.070718339027051
 20
44.7111350537364
 30
0.0
 41
1.161989728879102
 10
8.07686150041977
 20
44.69413573531386
 30
0.0
 41
1.161989728879102
 10
8.082308014820486
 20
44.67689330750068
 30
0.0
 41
1.161989728879102
 10
8.087043360889957
 20
44.65945353226138
 30
0.0
 41
1.161989728879102
 10
8.091444118304077
 20
44.64324601140466
 30
0.0
 41
1.161989728879102
 10
8.095230655906917
 20
44.62686804609265
 30
0.0
 41
1.161989728879102
 10
8.098394192228794
 20
44.61035951130459
 30
0.0
 41
1.161989728879102
 10
8.101595685769862
 20
44.59365290132211
 30
0.0
 41
1.161989728879102
 10
8.104159138366503
 20
44.57681256982997
 30
0.0
 41
1.161989728879102
 10
8.106046346270544
 20
44.55987709266693
 30
0.0
 41
1.161989728879102
 10
8.108117690978725
 20
44.54128920368714
 30
0.0
 41
1.161989728879102
 10
8.109374389302673
 20
44.52258669631904
 30
0.0
 41
1.161989728879102
 10
8.109853285465897
 20
44.50389026119333
 30
0.0
 41
1.161989728879102
  0
SPLINE
  5
76
330
1F
100
AcDbEntity
  8
Layer 01
370
    -3
100
AcDbSpline
210
0.0
220
0.0
230
1.0
 70
    12
 71
     3
 72
    53
 73
    49
 74
     0
 42
0.000000001
 43
0.0000000001
 40
23.00107561836177
 40
23.00107561836177
 40
23.00107561836177
 40
23.00107561836177
 40
23.04864598214289
 40
23.04864598214289
 40
23.04864598214289
 40
23.10014546944898
 40
23.10014546944898
 40
23.10014546944898
 40
23.15676947812972
 40
23.15676947812972
 40
23.15676947812972
 40
23.21876898529212
 40
23.21876898529212
 40
23.21876898529212
 40
23.28730334669227
 40
23.28730334669227
 40
23.28730334669227
 40
23.36374362420859
 40
23.36374362420859
 40
23.36374362420859
 40
23.44642872942328
 40
23.44642872942328
 40
23.44642872942328
 40
23.52987094335945
 40
23.52987094335945
 40
23.52987094335945
 40
23.60819858262985
 40
23.60819858262985
 40
23.60819858262985
 40
23.67871552779027
 40
23.67871552779027
 40
23.67871552779027
 40
23.74191672110764
 40
23.74191672110764
 40
23.74191672110764
 40
23.79922135214567
 40
23.79922135214567
 40
23.79922135214567
 40
23.85128002631834
 40
23.85128002631834
 40
23.85128002631834
 40
23.89891811977246
 40
23.89891811977246
 40
23.89891811977246
 40
23.94648827207799
 40
23.94648827207799
 40
23.94648827207799
 40
23.99864908285363
 40
23.99864908285363
 40
23.99864908285363
 40
23.99864908285363
 10
8.109853285465896
 20
44.50389026119333
 30
0.0
 41
1.149187054449865
 10
8.110254928327597
 20
44.48805761630911
 30
0.0
 41
1.149187054449865
 10
8.11001036014556
 20
44.47218296059523
 30
0.0
 41
1.149187054449865
 10
8.109159636881403
 20
44.4563458884635
 30
0.0
 41
1.149187054449865
 10
8.108238700122309
 20
44.43920172126335
 30
0.0
 41
1.149187054449865
 10
8.106607422582504
 20
44.42210159749676
 30
0.0
 41
1.149187054449865
 10
8.104251323679692
 20
44.40511133723896
 30
0.0
 41
1.149187054449865
 10
8.101658292609816
 20
44.38641251577569
 30
0.0
 41
1.149187054449865
 10
8.09818733254587
 20
44.36784676483804
 30
0.0
 41
1.149187054449865
 10
8.093870262233535
 20
44.34948870436028
 30
0.0
 41
1.149187054449865
 10
8.089140004877715
 20
44.32937359287692
 30
0.0
 41
1.149187054449865
 10
8.08339392403312
 20
44.30950783051551
 30
0.0
 41
1.149187054449865
 10
8.076658835367054
 20
44.28998110908179
 30
0.0
 41
1.149187054449865
 10
8.069213573579805
 20
44.26839541657971
 30
0.0
 41
1.149187054449865
 10
8.060559738377405
 20
44.24722403409915
 30
0.0
 41
1.149187054449865
 10
8.050756963266256
 20
44.22660682637802
 30
0.0
 41
1.149187054449865
 10
8.039816603527335
 20
44.20359704937874
 30
0.0
 41
1.149187054449865
 10
8.02744516863523
 20
44.18127753104542
 30
0.0
 41
1.149187054449865
 10
8.013764036995887
 20
44.15982571830357
 30
0.0
 41
1.149187054449865
 10
7.998937152812733
 20
44.13657738246214
 30
0.0
 41
1.149187054449865
 10
7.982572020144945
 20
44.1143481732345
 30
0.0
 41
1.149187054449865
 10
7.964848520033094
 20
44.09331135403837
 30
0.0
 41
1.149187054449865
 10
7.946922580331287
 20
44.07203425019045
 30
0.0
 41
1.149187054449865
 10
7.927607065149357
 20
44.05197693113471
 30
0.0
 41
1.149187054449865
 10
7.907071977016351
 20
44.03327557083666
 30
0.0
 41
1.149187054449865
 10
7.887774694476429
 20
44.01570148343974
 30
0.0
 41
1.149187054449865
 10
7.867400433637186
 20
43.99932481367622
 30
0.0
 41
1.149187054449865
 10
7.8461010114432
 20
43.9842626198113
 30
0.0
 41
1.149187054449865
 10
7.826914803290217
 20
43.97069481576001
 30
0.0
 41
1.149187054449865
 10
7.806977905980491
 20
43.95819359625518
 30
0.0
 41
1.149187054449865
 10
7.786421321896309
 20
43.94683497613803
 30
0.0
 41
1.149187054449865
 10
7.767979907048741
 20
43.93664510097113
 30
0.0
 41
1.149187054449865
 10
7.74903976988195
 20
43.92737478684712
 30
0.0
 41
1.149187054449865
 10
7.729705778301436
 20
43.91906368328017
 30
0.0
 41
1.149187054449865
 10
7.712152209502433
 20
43.91151793011016
 30
0.0
 41
1.149187054449865
 10
7.694273984640257
 20
43.90476285875646
 30
0.0
 41
1.149187054449865
 10
7.676138638734843
 20
43.89881404071353
 30
0.0
 41
1.149187054449865
 10
7.659654831016129
 20
43.89340696586176
 30
0.0
 41
1.149187054449865
 10
7.64295860055355
 20
43.88866598406229
 30
0.0
 41
1.149187054449865
 10
7.626086259094204
 20
43.88460405650188
 30
0.0
 41
1.149187054449865
 10
7.610660743748594
 20
43.88089044472684
 30
0.0
 41
1.149187054449865
 10
7.5950880259228
 20
43.87774442083678
 30
0.0
 41
1.149187054449865
 10
7.579411322113803
 20
43.87518328238418
 30
0.0
 41
1.149187054449864
 10
7.563766296643517
 20
43.87262731929321
 30
0.0
 41
1.149187054449864
 10
7.548017705020031
 20
43.8706538802404
 30
0.0
 41
1.149187054449864
 10
7.532232453234197
 20
43.86926813817882
 30
0.0
 41
1.149187054449864
 10
7.514907446761248
 20
43.86774722546154
 30
0.0
 41
1.149187054449864
 10
7.497538279362693
 20
43.86693425404788
 30
0.0
 41
1.149187054449864
 10
7.476306008205663
 20
43.86682240268975
 30
0.0
 41
1.149187054449864
  0
SPLINE
  5
77
330
1F
100
AcDbEntity
  8
Layer 01
370
    -3
100
AcDbSpline
210
0.0
220
0.0
230
1.0
 70
    12
 71
     3
 72
    26
 73
    22
 74
     0
 42
0.000000001
 43
0.0000000001
 40
23.99864908285363
 40
23.99864908285363
 40
23.99864908285363
 40
23.99864908285363
 40
24.08021457320243
 40
24.08021457320243
 40
24.08021457320243
 40
24.16726354013824
 40
24.16726354013824
 40
24.16726354013824
 40
24.26513280188285
 40
24.26513280188285
 40
24.26513280188285
 40
24.36830115148346
 40
24.36830115148346
 40
24.36830115148346
 40
24.46656293421211
 40
24.46656293421211
 40
24.46656293421211
 40
24.55453903848417
 40
24.55453903848417
 40
24.55453903848417
 40
24.56228333311827
 40
24.56228333311827
 40
24.56228333311827
 40
24.56228333311827
 10
7.476306008205664
 20
43.86682240268976
 30
0.0
 41
1.152878425298053
 10
7.445193465210683
 20
43.8669386571968
 30
0.0
 41
1.152878425298053
 10
7.418051897880301
 20
43.86884062070164
 30
0.0
 41
1.152878425298053
 10
7.391193864039545
 20
43.87242546771798
 30
0.0
 41
1.152878425298053
 10
7.362422808353139
 20
43.87626565325598
 30
0.0
 41
1.152878425298053
 10
7.333977115187972
 20
43.88203699416859
 30
0.0
 41
1.152878425298053
 10
7.306003116922662
 20
43.88967311716359
 30
0.0
 41
1.152878425298053
 10
7.274619625103187
 20
43.89823993701079
 30
0.0
 41
1.152878425298053
 10
7.24382981629152
 20
43.90915380245045
 30
0.0
 41
1.152878425298053
 10
7.213977029210774
 20
43.9224272038121
 30
0.0
 41
1.152878425298053
 10
7.182645093299893
 20
43.93635827696977
 30
0.0
 41
1.152878425298053
 10
7.152345334811185
 20
43.95288849977909
 30
0.0
 41
1.152878425298053
 10
7.123637979535883
 20
43.9717757624171
 30
0.0
 41
1.152878425298053
 10
7.096270964901866
 20
43.98978118256303
 30
0.0
 41
1.152878425298054
 10
7.070351126849142
 20
44.00992868130606
 30
0.0
 41
1.152878425298054
 10
7.046166965234297
 20
44.03189888271082
 30
0.0
 41
1.152878425298054
 10
7.024459608616966
 20
44.05161902039606
 30
0.0
 41
1.152878425298054
 10
7.004150617102062
 20
44.07280763673242
 30
0.0
 41
1.152878425298054
 10
6.985375712507594
 20
44.09530052799239
 30
0.0
 41
1.152878425298054
 10
6.983723644216329
 20
44.09727975469059
 30
0.0
 41
1.152878425298054
 10
6.982083454120883
 20
44.09926908018619
 30
0.0
 41
1.152878425298054
 10
6.98044822459618
 20
44.10128047362917
 30
0.0
 41
1.152878425298054
  0
SPLINE
  5
78
330
1F
100
AcDbEntity
  8
Layer 01
370
    -3
100
AcDbSpline
210
0.0
220
0.0
230
1.0
 70
     8
 71
     3
 72
    11
 73
     7
 74
     0
 42
0.000000001
 43
0.0000000001
 40
24.56228333311827
 40
24.56228333311827
 40
24.56228333311827
 40
24.56228333311827
 40
25.24783648936135
 40
25.24783648936135
 40
25.24783648936135
 40
26.54378226055649
 40
26.54378226055649
 40
26.54378226055649
 40
26.54378226055649
 10
6.980448224596181
 20
44.10128047362918
 30
0.0
 10
6.963577113399678
 20
44.12199503665567
 30
0.0
 10
6.946772708373073
 20
44.1427849011105
 30
0.0
 10
6.930026990358582
 20
44.16366522493049
 30
0.0
 10
6.898371069501477
 20
44.20313715905382
 30
0.0
 10
6.866947447654621
 20
44.2429081560696
 30
0.0
 10
6.835753540433458
 20
44.28294891188304
 30
0.0
  0
SPLINE
  5
79
330
1F
100
AcDbEntity
  8
Layer 01
370
    -3
100
AcDbSpline
210
0.0
220
0.0
230
1.0
 70
    12
 71
     3
 72
    35
 73
    31
 74
     0
 42
0.000000001
 43
0.0000000001
 40
0.5430752283983208
 40
0.5430752283983208
 40
0.5430752283983208
 40
0.5430752283983208
 40
0.5431464873470472
 40
0.5431464873470472
 40
0.5431464873470472
 40
0.618862025946273
 40
0.618862025946273
 40
0.618862025946273
 40
0.68838901879361
 40
0.68838901879361
 40
0.68838901879361
 40
0.7523187853738503
 40
0.7523187853738503
 40
0.7523187853738503
 40
0.8111457908333785
 40
0.8111457908333785
 40
0.8111457908333785
 40
0.8653817281447894
 40
0.8653817281447894
 40
0.8653817281447894
 40
0.9152971764513311
 40
0.9152971764513311
 40
0.9152971764513311
 40
0.9613912721731162
 40
0.9613912721731162
 40
0.9613912721731162
 40
1.007564030773777
 40
1.007564030773777
 40
1.007564030773777
 40
1.057975212588515
 40
1.057975212588515
 40
1.057975212588515
 40
1.057975212588515
 10
-6.452694086756133
 20
61.50808632928204
 30
0.0
 41
1.136288131427444
 10
-6.452710720091386
 20
61.5081033025144
 30
0.0
 41
1.136288131427444
 10
-6.452727354369636
 20
61.50812027486166
 30
0.0
 41
1.136288131427444
 10
-6.452743989590817
 20
61.50813724632364
 30
0.0
 41
1.136288131427444
 10
-6.470379140736815
 20
61.52612884944153
 30
0.0
 41
1.136288131427444
 10
-6.489073988396308
 20
61.54312557582922
 30
0.0
 41
1.136288131427444
 10
-6.508725725453767
 20
61.55898992756165
 30
0.0
 41
1.136288131427444
 10
-6.526730543735225
 20
61.5735247632996
 30
0.0
 41
1.136288131427444
 10
-6.545538587241126
 20
61.58710906923905
 30
0.0
 41
1.136288131427444
 10
-6.565046582246838
 20
61.5996415738596
 30
0.0
 41
1.136288131427444
 10
-6.582955673041832
 20
61.61114689580948
 30
0.0
 41
1.136288131427444
 10
-6.601454679263596
 20
61.62176576516363
 30
0.0
 41
1.136288131427444
 10
-6.620449882642323
 20
61.6314322019544
 30
0.0
 41
1.136288131427444
 10
-6.637913114678045
 20
61.64031903644992
 30
0.0
 41
1.136288131427444
 10
-6.655795734351853
 20
61.64840087148588
 30
0.0
 41
1.136288131427444
 10
-6.674019938199493
 20
61.65563780792206
 30
0.0
 41
1.136288131427444
 10
-6.690810986705038
 20
61.66230563010772
 30
0.0
 41
1.136288131427443
 10
-6.707892007330884
 20
61.66825621461913
 30
0.0
 41
1.136288131427443
 10
-6.725206920704329
 20
61.67346547859844
 30
0.0
 41
1.136288131427443
 10
-6.741125142802389
 20
61.67825454217625
 30
0.0
 41
1.136288131427443
 10
-6.757241046036987
 20
61.68241705753145
 30
0.0
 41
1.136288131427443
 10
-6.773512968557823
 20
61.68593393615988
 30
0.0
 41
1.136288131427443
 10
-6.788514090648526
 20
61.68917615450354
 30
0.0
 41
1.136288131427443
 10
-6.803647814118869
 20
61.69186964375862
 30
0.0
 41
1.136288131427443
 10
-6.818874750846313
 20
61.69399864015633
 30
0.0
 41
1.136288131427443
 10
-6.834100822654286
 20
61.69612751562294
 30
0.0
 41
1.136288131427443
 10
-6.849420097130281
 20
61.69769196235888
 30
0.0
 41
1.136288131427443
 10
-6.864788037345687
 20
61.69867939000384
 30
0.0
 41
1.136288131427443
 10
-6.881553434971364
 20
61.69975660769614
 30
0.0
 41
1.136288131427443
 10
-6.898376751418604
 20
61.70014709451306
 30
0.0
 41
1.136288131427443
 10
-6.915157687291781
 20
61.69985153977728
 30
0.0
 41
1.136288131427443
  0
SPLINE
  5
7A
330
1F
100
AcDbEntity
  8
Layer 01
370
    -3
100
AcDbSpline
210
0.0
220
0.0
230
1.0
 70
    12
 71
     3
 72
    41
 73
    37
 74
     0
 42
0.000000001
 43
0.0000000001
 40
1.057975212588515
 40
1.057975212588515
 40
1.057975212588515
 40
1.057975212588515
 40
1.104674850290024
 40
1.104674850290024
 40
1.104674850290024
 40
1.155225579576259
 40
1.155225579576259
 40
1.155225579576259
 40
1.210683176965073
 40
1.210683176965073
 40
1.210683176965073
 40
1.271499685135817
 40
1.271499685135817
 40
1.271499685135817
 40
1.338409862335342
 40
1.338409862335342
 40
1.338409862335342
 40
1.412246182770201
 40
1.412246182770201
 40
1.412246182770201
 40
1.493930445733309
 40
1.493930445733309
 40
1.493930445733309
 40
1.584479197725385
 40
1.584479197725385
 40
1.584479197725385
 40
1.685200177300238
 40
1.685200177300238
 40
1.685200177300238
 40
1.797699291289969
 40
1.797699291289969
 40
1.797699291289969
 40
1.92384332608715
 40
1.92384332608715
 40
1.92384332608715
 40
2.065809581404322
 40
2.065809581404322
 40
2.065809581404322
 40
2.065809581404322
 10
-6.915157687291781
 20
61.69985153977729
 30
0.0
 41
1.13355708691105
 10
-6.930706797808203
 20
61.69957660055896
 30
0.0
 41
1.13355708691105
 10
-6.946267330859469
 20
61.69873717420389
 30
0.0
 41
1.13355708691105
 10
-6.961769184103078
 20
61.69733530347136
 30
0.0
 41
1.13355708691105
 10
-6.978555864273339
 20
61.69581724267842
 30
0.0
 41
1.13355708691105
 10
-6.995273734520722
 20
61.69363964062546
 30
0.0
 41
1.13355708691105
 10
-7.011871783345501
 20
61.69081636726154
 30
0.0
 41
1.13355708691105
 10
-7.030099636473169
 20
61.68771586956085
 30
0.0
 41
1.13355708691105
 10
-7.048182981751618
 20
61.6838366749428
 30
0.0
 41
1.13355708691105
 10
-7.066064512657173
 20
61.67919883390882
 30
0.0
 41
1.13355708691105
 10
-7.085680492540741
 20
61.67411113773188
 30
0.0
 41
1.13355708691105
 10
-7.105053608665448
 20
61.66811048517044
 30
0.0
 41
1.13355708691105
 10
-7.124115412148104
 20
61.66121602651387
 30
0.0
 41
1.13355708691105
 10
-7.145066255754062
 20
61.6536383214351
 30
0.0
 41
1.13355708691105
 10
-7.165641026657214
 20
61.64498087840617
 30
0.0
 41
1.13355708691105
 10
-7.185727932704328
 20
61.63527473886301
 30
0.0
 41
1.13355708691105
 10
-7.20786154568301
 20
61.62457961559909
 30
0.0
 41
1.13355708691105
 10
-7.22940280911384
 20
61.61261119933536
 30
0.0
 41
1.13355708691105
 10
-7.250193236305654
 20
61.59944017448364
 30
0.0
 41
1.13355708691105
 10
-7.273174090514055
 20
61.58488148364481
 30
0.0
 41
1.13355708691105
 10
-7.295237561624064
 20
61.56885342740335
 30
0.0
 41
1.13355708691105
 10
-7.316189353802525
 20
61.55149367685736
 30
0.0
 41
1.13355708691105
 10
-7.339418824358744
 20
61.53224674033107
 30
0.0
 41
1.13355708691105
 10
-7.361281776014795
 20
61.51136283346673
 30
0.0
 41
1.13355708691105
 10
-7.381567909316153
 20
61.48906208443751
 30
0.0
 41
1.13355708691105
 10
-7.404143900346908
 20
61.46424407192698
 30
0.0
 41
1.13355708691105
 10
-7.424767005951053
 20
61.4376713040844
 30
0.0
 41
1.13355708691105
 10
-7.443203309643026
 20
61.40965975096961
 30
0.0
 41
1.13355708691105
 10
-7.463792011362568
 20
61.37837791045448
 30
0.0
 41
1.13355708691105
 10
-7.481653496293792
 20
61.34530172390036
 30
0.0
 41
1.13355708691105
 10
-7.496514714538153
 20
61.31091676655869
 30
0.0
 41
1.13355708691105
 10
-7.51315862609934
 20
61.27240712491153
 30
0.0
 41
1.13355708691105
 10
-7.526039298367229
 20
61.23225588997693
 30
0.0
 41
1.13355708691105
 10
-7.534860164618824
 20
61.191167247737
 30
0.0
 41
1.13355708691105
 10
-7.54477226744676
 20
61.14499549596986
 30
0.0
 41
1.13355708691105
 10
-7.549557947656099
 20
61.09764005562411
 30
0.0
 41
1.13355708691105
 10
-7.549063883416014
 20
61.05049676208709
 30
0.0
 41
1.13355708691105
  0
SPLINE
  5
7B
330
1F
100
AcDbEntity
  8
Layer 01
370
    -3
100
AcDbSpline
210
0.0
220
0.0
230
1.0
 70
    12
 71
     3
 72
    11
 73
     7
 74
     0
 42
0.000000001
 43
0.0000000001
 40
2.065809581404322
 40
2.065809581404322
 40
2.065809581404322
 40
2.065809581404322
 40
2.193409459824034
 40
2.193409459824034
 40
2.193409459824034
 40
2.267219631497666
 40
2.267219631497666
 40
2.267219631497666
 40
2.267219631497666
 10
-7.549063883416014
 20
61.05049676208709
 30
0.0
 41
1.158243105533942
 10
-7.548616989155866
 20
61.0080582775146
 30
0.0
 41
1.158243105533942
 10
-7.543898083285773
 20
60.96559119950361
 30
0.0
 41
1.158243105533942
 10
-7.535073425614678
 20
60.92409289102828
 30
0.0
 41
1.158243105533943
 10
-7.529954786961219
 20
60.90002228639631
 30
0.0
 41
1.158243105533942
 10
-7.523454791406673
 20
60.87627761877871
 30
0.0
 41
1.158243105533942
 10
-7.515637692197942
 20
60.85299545184881
 30
0.0
 41
1.158243105533942
  0
SPLINE
  5
7C
330
1F
100
AcDbEntity
  8
Layer 01
370
    -3
100
AcDbSpline
210
0.0
220
0.0
230
1.0
 70
     8
 71
     3
 72
     8
 73
     4
 74
     0
 42
0.000000001
 43
0.0000000001
 40
2.267219631497666
 40
2.267219631497666
 40
2.267219631497666
 40
2.267219631497666
 40
2.456632917873457
 40
2.456632917873457
 40
2.456632917873457
 40
2.456632917873457
 10
-7.515637692197942
 20
60.85299545184881
 30
0.0
 10
-7.511897769010823
 20
60.84185572234584
 30
0.0
 10
-7.508151096174625
 20
60.83071600765304
 30
0.0
 10
-7.504397731328506
 20
60.81957630350874
 30
0.0
  0
SPLINE
  5
7D
330
1F
100
AcDbEntity
  8
Layer 01
370
    -3
100
AcDbSpline
210
0.0
220
0.0
230
1.0
 70
    12
 71
     3
 72
    35
 73
    31
 74
     0
 42
0.000000001
 43
0.0000000001
 40
0.5430752283983208
 40
0.5430752283983208
 40
0.5430752283983208
 40
0.5430752283983208
 40
0.5431464873470472
 40
0.5431464873470472
 40
0.5431464873470472
 40
0.618862025946273
 40
0.618862025946273
 40
0.618862025946273
 40
0.68838901879361
 40
0.68838901879361
 40
0.68838901879361
 40
0.7523187853738503
 40
0.7523187853738503
 40
0.7523187853738503
 40
0.8111457908333785
 40
0.8111457908333785
 40
0.8111457908333785
 40
0.8653817281447894
 40
0.8653817281447894
 40
0.8653817281447894
 40
0.9152971764513311
 40
0.9152971764513311
 40
0.9152971764513311
 40
0.9613912721731162
 40
0.9613912721731162
 40
0.9613912721731162
 40
1.007564030773777
 40
1.007564030773777
 40
1.007564030773777
 40
1.057975212588515
 40
1.057975212588515
 40
1.057975212588515
 40
1.057975212588515
 10
6.452694086756133
 20
61.50808632928204
 30
0.0
 41
1.136288131427444
 10
6.452710720091386
 20
61.5081033025144
 30
0.0
 41
1.136288131427444
 10
6.452727354369636
 20
61.50812027486166
 30
0.0
 41
1.136288131427444
 10
6.452743989590817
 20
61.50813724632364
 30
0.0
 41
1.136288131427444
 10
6.470379140736815
 20
61.52612884944153
 30
0.0
 41
1.136288131427444
 10
6.489073988396308
 20
61.54312557582922
 30
0.0
 41
1.136288131427444
 10
6.508725725453767
 20
61.55898992756165
 30
0.0
 41
1.136288131427444
 10
6.526730543735225
 20
61.5735247632996
 30
0.0
 41
1.136288131427444
 10
6.545538587241126
 20
61.58710906923905
 30
0.0
 41
1.136288131427444
 10
6.565046582246838
 20
61.5996415738596
 30
0.0
 41
1.136288131427444
 10
6.582955673041832
 20
61.61114689580948
 30
0.0
 41
1.136288131427444
 10
6.601454679263596
 20
61.62176576516363
 30
0.0
 41
1.136288131427444
 10
6.620449882642323
 20
61.6314322019544
 30
0.0
 41
1.136288131427444
 10
6.637913114678045
 20
61.64031903644992
 30
0.0
 41
1.136288131427444
 10
6.655795734351853
 20
61.64840087148588
 30
0.0
 41
1.136288131427444
 10
6.674019938199493
 20
61.65563780792206
 30
0.0
 41
1.136288131427444
 10
6.690810986705038
 20
61.66230563010772
 30
0.0
 41
1.136288131427443
 10
6.707892007330884
 20
61.66825621461913
 30
0.0
 41
1.136288131427443
 10
6.725206920704329
 20
61.67346547859844
 30
0.0
 41
1.136288131427443
 10
6.741125142802389
 20
61.67825454217625
 30
0.0
 41
1.136288131427443
 10
6.757241046036987
 20
61.68241705753145
 30
0.0
 41
1.136288131427443
 10
6.773512968557823
 20
61.68593393615988
 30
0.0
 41
1.136288131427443
 10
6.788514090648526
 20
61.68917615450354
 30
0.0
 41
1.136288131427443
 10
6.803647814118869
 20
61.69186964375862
 30
0.0
 41
1.136288131427443
 10
6.818874750846313
 20
61.69399864015633
 30
0.0
 41
1.136288131427443
 10
6.834100822654286
 20
61.69612751562294
 30
0.0
 41
1.136288131427443
 10
6.849420097130281
 20
61.69769196235888
 30
0.0
 41
1.136288131427443
 10
6.864788037345687
 20
61.69867939000384
 30
0.0
 41
1.136288131427443
 10
6.881553434971364
 20
61.69975660769614
 30
0.0
 41
1.136288131427443
 10
6.898376751418604
 20
61.70014709451306
 30
0.0
 41
1.136288131427443
 10
6.915157687291781
 20
61.69985153977728
 30
0.0
 41
1.136288131427443
  0
SPLINE
  5
7E
330
1F
100
AcDbEntity
  8
Layer 01
370
    -3
100
AcDbSpline
210
0.0
220
0.0
230
1.0
 70
    12
 71
     3
 72
    41
 73
    37
 74
     0
 42
0.000000001
 43
0.0000000001
 40
1.057975212588515
 40
1.057975212588515
 40
1.057975212588515
 40
1.057975212588515
 40
1.104674850290024
 40
1.104674850290024
 40
1.104674850290024
 40
1.155225579576259
 40
1.155225579576259
 40
1.155225579576259
 40
1.210683176965073
 40
1.210683176965073
 40
1.210683176965073
 40
1.271499685135817
 40
1.271499685135817
 40
1.271499685135817
 40
1.338409862335342
 40
1.338409862335342
 40
1.338409862335342
 40
1.412246182770201
 40
1.412246182770201
 40
1.412246182770201
 40
1.493930445733309
 40
1.493930445733309
 40
1.493930445733309
 40
1.584479197725385
 40
1.584479197725385
 40
1.584479197725385
 40
1.685200177300238
 40
1.685200177300238
 40
1.685200177300238
 40
1.797699291289969
 40
1.797699291289969
 40
1.797699291289969
 40
1.92384332608715
 40
1.92384332608715
 40
1.92384332608715
 40
2.065809581404322
 40
2.065809581404322
 40
2.065809581404322
 40
2.065809581404322
 10
6.915157687291781
 20
61.69985153977729
 30
0.0
 41
1.13355708691105
 10
6.930706797808203
 20
61.69957660055896
 30
0.0
 41
1.13355708691105
 10
6.946267330859469
 20
61.69873717420389
 30
0.0
 41
1.13355708691105
 10
6.961769184103078
 20
61.69733530347136
 30
0.0
 41
1.13355708691105
 10
6.978555864273339
 20
61.69581724267842
 30
0.0
 41
1.13355708691105
 10
6.995273734520722
 20
61.69363964062546
 30
0.0
 41
1.13355708691105
 10
7.011871783345501
 20
61.69081636726154
 30
0.0
 41
1.13355708691105
 10
7.030099636473169
 20
61.68771586956085
 30
0.0
 41
1.13355708691105
 10
7.048182981751618
 20
61.6838366749428
 30
0.0
 41
1.13355708691105
 10
7.066064512657173
 20
61.67919883390882
 30
0.0
 41
1.13355708691105
 10
7.085680492540741
 20
61.67411113773188
 30
0.0
 41
1.13355708691105
 10
7.105053608665448
 20
61.66811048517044
 30
0.0
 41
1.13355708691105
 10
7.124115412148104
 20
61.66121602651387
 30
0.0
 41
1.13355708691105
 10
7.145066255754062
 20
61.6536383214351
 30
0.0
 41
1.13355708691105
 10
7.165641026657214
 20
61.64498087840617
 30
0.0
 41
1.13355708691105
 10
7.185727932704328
 20
61.63527473886301
 30
0.0
 41
1.13355708691105
 10
7.20786154568301
 20
61.62457961559909
 30
0.0
 41
1.13355708691105
 10
7.22940280911384
 20
61.61261119933536
 30
0.0
 41
1.13355708691105
 10
7.250193236305654
 20
61.59944017448364
 30
0.0
 41
1.13355708691105
 10
7.273174090514055
 20
61.58488148364481
 30
0.0
 41
1.13355708691105
 10
7.295237561624064
 20
61.56885342740335
 30
0.0
 41
1.13355708691105
 10
7.316189353802525
 20
61.55149367685736
 30
0.0
 41
1.13355708691105
 10
7.339418824358744
 20
61.53224674033107
 30
0.0
 41
1.13355708691105
 10
7.361281776014795
 20
61.51136283346673
 30
0.0
 41
1.13355708691105
 10
7.381567909316153
 20
61.48906208443751
 30
0.0
 41
1.13355708691105
 10
7.404143900346908
 20
61.46424407192698
 30
0.0
 41
1.13355708691105
 10
7.424767005951053
 20
61.4376713040844
 30
0.0
 41
1.13355708691105
 10
7.443203309643026
 20
61.40965975096961
 30
0.0
 41
1.13355708691105
 10
7.463792011362568
 20
61.37837791045448
 30
0.0
 41
1.13355708691105
 10
7.481653496293792
 20
61.34530172390036
 30
0.0
 41
1.13355708691105
 10
7.496514714538153
 20
61.31091676655869
 30
0.0
 41
1.13355708691105
 10
7.51315862609934
 20
61.27240712491153
 30
0.0
 41
1.13355708691105
 10
7.526039298367229
 20
61.23225588997693
 30
0.0
 41
1.13355708691105
 10
7.534860164618824
 20
61.191167247737
 30
0.0
 41
1.13355708691105
 10
7.54477226744676
 20
61.14499549596986
 30
0.0
 41
1.13355708691105
 10
7.549557947656099
 20
61.09764005562411
 30
0.0
 41
1.13355708691105
 10
7.549063883416014
 20
61.05049676208709
 30
0.0
 41
1.13355708691105
  0
SPLINE
  5
7F
330
1F
100
AcDbEntity
  8
Layer 01
370
    -3
100
AcDbSpline
210
0.0
220
0.0
230
1.0
 70
    12
 71
     3
 72
    11
 73
     7
 74
     0
 42
0.000000001
 43
0.0000000001
 40
2.065809581404322
 40
2.065809581404322
 40
2.065809581404322
 40
2.065809581404322
 40
2.193409459824034
 40
2.193409459824034
 40
2.193409459824034
 40
2.267219631497666
 40
2.267219631497666
 40
2.267219631497666
 40
2.267219631497666
 10
7.549063883416014
 20
61.05049676208709
 30
0.0
 41
1.158243105533942
 10
7.548616989155866
 20
61.0080582775146
 30
0.0
 41
1.158243105533942
 10
7.543898083285773
 20
60.96559119950361
 30
0.0
 41
1.158243105533942
 10
7.535073425614678
 20
60.92409289102828
 30
0.0
 41
1.158243105533943
 10
7.529954786961219
 20
60.90002228639631
 30
0.0
 41
1.158243105533942
 10
7.523454791406673
 20
60.87627761877871
 30
0.0
 41
1.158243105533942
 10
7.515637692197942
 20
60.85299545184881
 30
0.0
 41
1.158243105533942
  0
SPLINE
  5
80
330
1F
100
AcDbEntity
  8
Layer 01
370
    -3
100
AcDbSpline
210
0.0
220
0.0
230
1.0
 70
     8
 71
     3
 72
     8
 73
     4
 74
     0
 42
0.000000001
 43
0.0000000001
 40
2.267219631497666
 40
2.267219631497666
 40
2.267219631497666
 40
2.267219631497666
 40
2.456632917873457
 40
2.456632917873457
 40
2.456632917873457
 40
2.456632917873457
 10
7.515637692197942
 20
60.85299545184881
 30
0.0
 10
7.511897769010823
 20
60.84185572234584
 30
0.0
 10
7.508151096174625
 20
60.83071600765304
 30
0.0
 10
7.504397731328506
 20
60.81957630350874
 30
0.0
  0
SPLINE
  5
81
330
1F
100
AcDbEntity
  8
Layer 01
370
    -3
100
AcDbSpline
210
0.0
220
0.0
230
1.0
 70
     8
 71
     2
 72
    43
 73
    40
 74
     0
 42
0.000000001
 43
0.0000000001
 40
0.0
 40
0.0
 40
0.0
 40
1.0
 40
2.0
 40
3.0
 40
4.0
 40
5.0
 40
6.0
 40
7.0
 40
8.0
 40
9.0
 40
10.0
 40
11.0
 40
12.0
 40
13.0
 40
14.0
 40
15.0
 40
16.0
 40
17.0
 40
18.0
 40
19.0
 40
20.0
 40
21.0
 40
22.0
 40
23.0
 40
24.0
 40
25.0
 40
26.0
 40
27.0
 40
28.0
 40
29.0
 40
30.0
 40
31.0
 40
32.0
 40
33.0
 40
34.0
 40
35.0
 40
36.0
 40
37.0
 40
38.0
 40
38.0
 40
38.0
 10
0.0
 20
62.50761583635114
 30
0.0
 10
0.4270034797759052
 20
62.50739668449597
 30
0.0
 10
1.28037779756437
 20
62.47467518325497
 30
0.0
 10
2.132050200287878
 20
62.41180838953815
 30
0.0
 10
2.981011670266767
 20
62.31914741240647
 30
0.0
 10
3.826382027853768
 20
62.19883906951283
 30
0.0
 10
4.669222273539518
 20
62.05928948406441
 30
0.0
 10
5.498126619724331
 20
61.85479644115023
 30
0.0
 10
6.312511408511284
 20
61.59082139872659
 30
0.0
 10
7.062070835181572
 20
61.1831054251826
 30
0.0
 10
7.748153783329698
 20
60.64987874933593
 30
0.0
 10
8.106582728514283
 20
59.87497365157398
 30
0.0
 10
8.353513281829336
 20
59.05641710783091
 30
0.0
 10
8.625351269790997
 20
58.24637329716306
 30
0.0
 10
8.754532354578643
 20
57.40034311461886
 30
0.0
 10
8.809827332018358
 20
56.54818201567593
 30
0.0
 10
8.825343310261943
 20
55.69429280662421
 30
0.0
 10
8.846372929161149
 20
54.84066619619995
 30
0.0
 10
8.86626657543799
 20
53.98699034851826
 30
0.0
 10
8.88650940657439
 20
53.13332374961634
 30
0.0
 10
8.907401781505214
 20
52.279687854454
 30
0.0
 10
8.927321649700488
 20
51.42593806274012
 30
0.0
 10
8.94693528127597
 20
50.57271068931465
 30
0.0
 10
8.964200996333076
 20
49.71634301176593
 30
0.0
 10
8.770781975005988
 20
48.88151547174555
 30
0.0
 10
8.695339670594834
 20
48.02938005925299
 30
0.0
 10
8.711731301046001
 20
47.17604787950042
 30
0.0
 10
8.718058675280062
 20
46.31987756955856
 30
0.0
 10
8.491108846605798
 20
45.48716775619604
 30
0.0
 10
7.942655470144658
 20
44.81841188732948
 30
0.0
 10
7.200319726909598
 20
44.38225829854971
 30
0.0
 10
6.374273721313415
 20
44.15632558639466
 30
0.0
 10
5.534886656495246
 20
43.9995397322384
 30
0.0
 10
4.69097057561433
 20
43.86838307595059
 30
0.0
 10
3.840688156103838
 20
43.7876134445719
 30
0.0
 10
2.988179454942539
 20
43.73782354408587
 30
0.0
 10
2.134681149180139
 20
43.7103838529349
 30
0.0
 10
1.280852441859125
 20
43.69799949285192
 30
0.0
 10
0.426952929932483
 20
43.69417239123305
 30
0.0
 10
0.0
 20
43.69437424214726
 30
0.0
  0
SPLINE
  5
82
330
1F
100
AcDbEntity
  8
Layer 01
370
    -3
100
AcDbSpline
210
0.0
220
0.0
230
1.0
 70
     8
 71
     2
 72
    43
 73
    40
 74
     0
 42
0.000000001
 43
0.0000000001
 40
38.0
 40
38.0
 40
38.0
 40
39.0
 40
40.0
 40
41.0
 40
42.0
 40
43.0
 40
44.0
 40
45.0
 40
46.0
 40
47.0
 40
48.0
 40
49.0
 40
50.0
 40
51.0
 40
52.0
 40
53.0
 40
54.0
 40
55.0
 40
56.0
 40
57.0
 40
58.0
 40
59.0
 40
60.0
 40
61.0
 40
62.0
 40
63.0
 40
64.0
 40
65.0
 40
66.0
 40
67.0
 40
68.0
 40
69.0
 40
70.0
 40
71.0
 40
72.0
 40
73.0
 40
74.0
 40
75.0
 40
76.0
 40
76.0
 40
76.0
 10
0.0
 20
43.69437424214726
 30
0.0
 10
-0.426952929932483
 20
43.69417239123305
 30
0.0
 10
-1.280852441859111
 20
43.69799949285192
 30
0.0
 10
-2.134681149180153
 20
43.7103838529349
 30
0.0
 10
-2.988179454942539
 20
43.73782354408587
 30
0.0
 10
-3.840688156103838
 20
43.7876134445719
 30
0.0
 10
-4.69097057561433
 20
43.86838307595059
 30
0.0
 10
-5.534886656495246
 20
43.9995397322384
 30
0.0
 10
-6.374273721313415
 20
44.15632558639466
 30
0.0
 10
-7.200319726909598
 20
44.38225829854971
 30
0.0
 10
-7.942655470144651
 20
44.81841188732948
 30
0.0
 10
-8.491108846605798
 20
45.48716775619604
 30
0.0
 10
-8.718058675280062
 20
46.31987756955856
 30
0.0
 10
-8.711731301046001
 20
47.17604787950042
 30
0.0
 10
-8.695339670594834
 20
48.02938005925299
 30
0.0
 10
-8.770781975005995
 20
48.88151547174555
 30
0.0
 10
-8.964200996333084
 20
49.71634301176593
 30
0.0
 10
-8.946935281275962
 20
50.57271068931465
 30
0.0
 10
-8.927321649700488
 20
51.42593806274012
 30
0.0
 10
-8.907401781505214
 20
52.279687854454
 30
0.0
 10
-8.88650940657439
 20
53.13332374961634
 30
0.0
 10
-8.866266575437983
 20
53.98699034851826
 30
0.0
 10
-8.846372929161149
 20
54.84066619619995
 30
0.0
 10
-8.825343310261943
 20
55.69429280662421
 30
0.0
 10
-8.809827332018358
 20
56.54818201567593
 30
0.0
 10
-8.754532354578643
 20
57.40034311461886
 30
0.0
 10
-8.62535126979099
 20
58.24637329716306
 30
0.0
 10
-8.353513281829336
 20
59.05641710783091
 30
0.0
 10
-8.106582728514283
 20
59.87497365157398
 30
0.0
 10
-7.748153783329705
 20
60.64987874933593
 30
0.0
 10
-7.062070835181572
 20
61.1831054251826
 30
0.0
 10
-6.312511408511284
 20
61.59082139872659
 30
0.0
 10
-5.498126619724331
 20
61.85479644115023
 30
0.0
 10
-4.669222273539518
 20
62.05928948406441
 30
0.0
 10
-3.826382027853768
 20
62.19883906951283
 30
0.0
 10
-2.981011670266767
 20
62.31914741240647
 30
0.0
 10
-2.132050200287878
 20
62.41180838953815
 30
0.0
 10
-1.28037779756437
 20
62.47467518325497
 30
0.0
 10
-0.4270034797759052
 20
62.50739668449597
 30
0.0
 10
0.0
 20
62.50761583635114
 30
0.0
  0
SPLINE
  5
83
330
1F
100
AcDbEntity
  8
Layer 01
370
    -3
100
AcDbSpline
210
0.0
220
0.0
230
1.0
 70
     8
 71
     2
 72
    53
 73
    50
 74
     0
 42
0.000000001
 43
0.0000000001
 40
0.0
 40
0.0
 40
0.0
 40
1.0
 40
2.0
 40
3.0
 40
4.0
 40
5.0
 40
6.0
 40
7.0
 40
8.0
 40
9.0
 40
10.0
 40
11.0
 40
12.0
 40
13.0
 40
14.0
 40
15.0
 40
16.0
 40
17.0
 40
18.0
 40
19.0
 40
20.0
 40
21.0
 40
22.0
 40
23.0
 40
24.0
 40
25.0
 40
26.0
 40
27.0
 40
28.0
 40
29.0
 40
30.0
 40
31.0
 40
32.0
 40
33.0
 40
34.0
 40
35.0
 40
36.0
 40
37.0
 40
38.0
 40
39.0
 40
40.0
 40
41.0
 40
42.0
 40
43.0
 40
44.0
 40
45.0
 40
46.0
 40
47.0
 40
48.0
 40
48.0
 40
48.0
 10
0.0
 20
58.4897379422568
 30
0.0
 10
0.2929627807905604
 20
58.48952992202965
 30
0.0
 10
0.8787509059270775
 20
58.4768330593608
 30
0.0
 10
1.464144245254673
 20
58.45186149003345
 30
0.0
 10
2.048885251813601
 20
58.41461922379244
 30
0.0
 10
2.632715075833502
 20
58.36510523909394
 30
0.0
 10
3.21537620549195
 20
58.30333168979
 30
0.0
 10
3.796593406231082
 20
58.22921861975144
 30
0.0
 10
4.376199490194253
 20
58.1433421202188
 30
0.0
 10
4.953763560028221
 20
58.04501115027819
 30
0.0
 10
5.529156597220094
 20
57.93260039903458
 30
0.0
 10
6.090940658675507
 20
57.76726112368038
 30
0.0
 10
6.645147764341687
 20
57.56631496976402
 30
0.0
 10
7.105942749091909
 20
57.19571445028572
 30
0.0
 10
7.364286435074291
 20
56.66125890979927
 30
0.0
 10
7.477294988714647
 20
56.08505836341303
 30
0.0
 10
7.525278749685825
 20
55.50087941582859
 30
0.0
 10
7.571670449053528
 20
54.91685648858292
 30
0.0
 10
7.618211181952233
 20
54.33279584060958
 30
0.0
 10
7.667401155456844
 20
53.74895965549742
 30
0.0
 10
7.720165409983238
 20
53.16543479292594
 30
0.0
 10
7.773560708284137
 20
52.58197054937393
 30
0.0
 10
7.826427798861999
 20
51.99844578945517
 30
0.0
 10
7.877449967947697
 20
51.41482615868041
 30
0.0
 10
7.928879883156213
 20
50.83084098212035
 30
0.0
 10
7.979102520683014
 20
50.24908876479095
 30
0.0
 10
8.066242075269756
 20
49.65708388742242
 30
0.0
 10
8.504806691805712
 20
49.23600765463661
 30
0.0
 10
8.655977872210059
 20
48.66378329498842
 30
0.0
 10
8.637431490032725
 20
48.07564040331005
 30
0.0
 10
8.63933403437251
 20
47.49012666585739
 30
0.0
 10
8.641579949116846
 20
46.9041206006985
 30
0.0
 10
8.61031286882752
 20
46.31851150565681
 30
0.0
 10
8.471961873607285
 20
45.74613347250526
 30
0.0
 10
8.191981385375058
 20
45.22699329005034
 30
0.0
 10
7.768138506803965
 20
44.81677056649062
 30
0.0
 10
7.258560065844463
 20
44.52360934918603
 30
0.0
 10
6.702452361807943
 20
44.33498587625897
 30
0.0
 10
6.131005259261372
 20
44.20479481382085
 30
0.0
 10
5.553877908510316
 20
44.10327599796359
 30
0.0
 10
4.973328125872129
 20
44.02373114030869
 30
0.0
 10
4.390297737160722
 20
43.96534718818532
 30
0.0
 10
3.806178257404341
 20
43.91943054088475
 30
0.0
 10
3.221427547806115
 20
43.88251034007502
 30
0.0
 10
2.636088789269323
 20
43.85644585641811
 30
0.0
 10
2.050467800565443
 20
43.83805108548704
 30
0.0
 10
1.464699102445664
 20
43.82527162471277
 30
0.0
 10
0.8788474823903698
 20
43.81721146509383
 30
0.0
 10
0.2929532790967215
 20
43.81342545135668
 30
0.0
 10
0.0000000000001137
 20
43.81344155951371
 30
0.0
  0
SPLINE
  5
84
330
1F
100
AcDbEntity
  8
Layer 01
370
    -3
100
AcDbSpline
210
0.0
220
0.0
230
1.0
 70
     8
 71
     2
 72
    53
 73
    50
 74
     0
 42
0.000000001
 43
0.0000000001
 40
48.0
 40
48.0
 40
48.0
 40
49.0
 40
50.0
 40
51.0
 40
52.0
 40
53.0
 40
54.0
 40
55.0
 40
56.0
 40
57.0
 40
58.0
 40
59.0
 40
60.0
 40
61.0
 40
62.0
 40
63.0
 40
64.0
 40
65.0
 40
66.0
 40
67.0
 40
68.0
 40
69.0
 40
70.0
 40
71.0
 40
72.0
 40
73.0
 40
74.0
 40
75.0
 40
76.0
 40
77.0
 40
78.0
 40
79.0
 40
80.0
 40
81.0
 40
82.0
 40
83.0
 40
84.0
 40
85.0
 40
86.0
 40
87.0
 40
88.0
 40
89.0
 40
90.0
 40
91.0
 40
92.0
 40
93.0
 40
94.0
 40
95.0
 40
96.0
 40
96.0
 40
96.0
 10
-0.0000000000001137
 20
43.81344155951371
 30
0.0
 10
-0.2929532790967215
 20
43.81342545135668
 30
0.0
 10
-0.8788474823903698
 20
43.81721146509383
 30
0.0
 10
-1.464699102445664
 20
43.82527162471277
 30
0.0
 10
-2.050467800565443
 20
43.83805108548704
 30
0.0
 10
-2.636088789269323
 20
43.85644585641811
 30
0.0
 10
-3.221427547806115
 20
43.88251034007502
 30
0.0
 10
-3.806178257404341
 20
43.91943054088475
 30
0.0
 10
-4.390297737160722
 20
43.96534718818532
 30
0.0
 10
-4.973328125872129
 20
44.02373114030869
 30
0.0
 10
-5.553877908510316
 20
44.10327599796359
 30
0.0
 10
-6.131005259261372
 20
44.20479481382085
 30
0.0
 10
-6.70245236180795
 20
44.33498587625897
 30
0.0
 10
-7.258560065844463
 20
44.52360934918603
 30
0.0
 10
-7.768138506803965
 20
44.81677056649062
 30
0.0
 10
-8.191981385375051
 20
45.22699329005034
 30
0.0
 10
-8.471961873607285
 20
45.74613347250526
 30
0.0
 10
-8.61031286882752
 20
46.31851150565681
 30
0.0
 10
-8.641579949116839
 20
46.9041206006985
 30
0.0
 10
-8.639334034372517
 20
47.49012666585739
 30
0.0
 10
-8.637431490032718
 20
48.07564040331005
 30
0.0
 10
-8.655977872210066
 20
48.66378329498842
 30
0.0
 10
-8.504806691805712
 20
49.23600765463661
 30
0.0
 10
-8.066242075269756
 20
49.65708388742242
 30
0.0
 10
-7.979102520683014
 20
50.24908876479095
 30
0.0
 10
-7.928879883156213
 20
50.83084098212035
 30
0.0
 10
-7.877449967947705
 20
51.41482615868041
 30
0.0
 10
-7.826427798861992
 20
51.99844578945517
 30
0.0
 10
-7.773560708284144
 20
52.58197054937393
 30
0.0
 10
-7.720165409983231
 20
53.16543479292594
 30
0.0
 10
-7.667401155456844
 20
53.74895965549742
 30
0.0
 10
-7.618211181952226
 20
54.33279584060958
 30
0.0
 10
-7.571670449053535
 20
54.91685648858292
 30
0.0
 10
-7.525278749685825
 20
55.50087941582859
 30
0.0
 10
-7.477294988714647
 20
56.08505836341303
 30
0.0
 10
-7.364286435074291
 20
56.66125890979927
 30
0.0
 10
-7.105942749091909
 20
57.19571445028572
 30
0.0
 10
-6.645147764341679
 20
57.56631496976402
 30
0.0
 10
-6.090940658675507
 20
57.76726112368038
 30
0.0
 10
-5.529156597220094
 20
57.93260039903458
 30
0.0
 10
-4.953763560028221
 20
58.04501115027819
 30
0.0
 10
-4.376199490194253
 20
58.1433421202188
 30
0.0
 10
-3.796593406231082
 20
58.22921861975144
 30
0.0
 10
-3.21537620549195
 20
58.30333168979
 30
0.0
 10
-2.632715075833502
 20
58.36510523909394
 30
0.0
 10
-2.048885251813601
 20
58.41461922379244
 30
0.0
 10
-1.464144245254673
 20
58.45186149003345
 30
0.0
 10
-0.8787509059270775
 20
58.4768330593608
 30
0.0
 10
-0.2929627807905604
 20
58.48952992202965
 30
0.0
 10
0.0
 20
58.4897379422568
 30
0.0
  0
SPLINE
  5
85
330
1F
100
AcDbEntity
  8
Layer 01
370
    -3
100
AcDbSpline
210
0.0
220
0.0
230
1.0
 70
     8
 71
     3
 72
     8
 73
     4
 74
     0
 42
0.000000001
 43
0.0000000001
 40
0.9222264946042712
 40
0.9222264946042712
 40
0.9222264946042712
 40
0.9222264946042712
 40
0.9240712203240278
 40
0.9240712203240278
 40
0.9240712203240278
 40
0.9240712203240278
 10
35.54284338214426
 20
22.94749528648063
 30
0.0
 10
35.54227655925588
 20
22.94769251610708
 30
0.0
 10
35.54170991482294
 20
22.94789016644736
 30
0.0
 10
35.54114344969987
 20
22.9480882367403
 30
0.0
  0
SPLINE
  5
86
330
1F
100
AcDbEntity
  8
Layer 01
370
    -3
100
AcDbSpline
210
0.0
220
0.0
230
1.0
 70
     8
 71
     2
 72
     9
 73
     6
 74
     0
 42
0.000000001
 43
0.0000000001
 40
29.0
 40
29.0
 40
29.0
 40
30.0
 40
31.0
 40
32.0
 40
33.0
 40
33.0
 40
33.0
 10
8.09874098007344
 20
21.6133445771903
 30
0.0
 10
7.975377778704503
 20
21.52162513174647
 30
0.0
 10
7.712918162051423
 20
21.3613766011786
 30
0.0
 10
7.436476551763517
 20
21.22669677025243
 30
0.0
 10
7.150166153313264
 20
21.11470160417242
 30
0.0
 10
7.003698538332255
 20
21.06814645269197
 30
0.0
  0
SPLINE
  5
87
330
1F
100
AcDbEntity
  8
Layer 01
370
    -3
100
AcDbSpline
210
0.0
220
0.0
230
1.0
 70
     8
 71
     3
 72
     8
 73
     4
 74
     0
 42
0.000000001
 43
0.0000000001
 40
28.0
 40
28.0
 40
28.0
 40
28.0
 40
29.0
 40
29.0
 40
29.0
 40
29.0
 10
8.691307918972836
 20
22.26122518958673
 30
0.0
 10
8.595564571113915
 20
22.03046148220304
 30
0.0
 10
8.310218415204401
 20
21.77057617347553
 30
0.0
 10
8.09874098007344
 20
21.6133445771903
 30
0.0
  0
SPLINE
  5
88
330
1F
100
AcDbEntity
  8
Layer 01
370
    -3
100
AcDbSpline
210
0.0
220
0.0
230
1.0
 70
     8
 71
     2
 72
    33
 73
    30
 74
     0
 42
0.000000001
 43
0.0000000001
 40
0.0
 40
0.0
 40
0.0
 40
1.0
 40
2.0
 40
3.0
 40
4.0
 40
5.0
 40
6.0
 40
7.0
 40
8.0
 40
9.0
 40
10.0
 40
11.0
 40
12.0
 40
13.0
 40
14.0
 40
15.0
 40
16.0
 40
17.0
 40
18.0
 40
19.0
 40
20.0
 40
21.0
 40
22.0
 40
23.0
 40
24.0
 40
25.0
 40
26.0
 40
27.0
 40
28.0
 40
28.0
 40
28.0
 10
0.0005730417488898
 20
34.96812972469408
 30
0.0
 10
0.3567950357875161
 20
34.96811568721832
 30
0.0
 10
1.069237727999216
 20
34.96938114379861
 30
0.0
 10
1.781677460131806
 20
34.97181136407097
 30
0.0
 10
2.494113250066774
 20
34.97512699842477
 30
0.0
 10
3.206547562723551
 20
34.97884608904188
 30
0.0
 10
3.918981281874187
 20
34.98249743284475
 30
0.0
 10
4.631422557168014
 20
34.98574599742683
 30
0.0
 10
5.34381659658811
 20
34.99143930743836
 30
0.0
 10
6.056485284629412
 20
34.9832070329469
 30
0.0
 10
6.762741327202111
 20
34.85708269740202
 30
0.0
 10
7.388215046128237
 20
34.49628203465079
 30
0.0
 10
7.786402568888222
 20
33.89341448597767
 30
0.0
 10
7.992084488058699
 20
33.20791660235515
 30
0.0
 10
8.052956818144398
 20
32.49689574062177
 30
0.0
 10
8.110686723953933
 20
31.78699564723231
 30
0.0
 10
8.164980186510725
 20
31.07658824603786
 30
0.0
 10
8.218833559237252
 20
30.36618891565626
 30
0.0
 10
8.2712188282722
 20
29.65567255252434
 30
0.0
 10
8.325437442341816
 20
28.94529449217007
 30
0.0
 10
8.382866800024413
 20
28.23516682868849
 30
0.0
 10
8.443830159365797
 20
27.52534003392494
 30
0.0
 10
8.505963263066755
 20
26.81558503112238
 30
0.0
 10
8.565373440098206
 20
26.10577129814479
 30
0.0
 10
8.599626922178649
 20
25.39290678144533
 30
0.0
 10
8.739671318354818
 20
24.6949217360474
 30
0.0
 10
8.957376886277556
 20
24.01103701686644
 30
0.0
 10
8.943051738174129
 20
23.297224206642
 30
0.0
 10
8.828462777197888
 20
22.59180025592277
 30
0.0
 10
8.691307918972836
 20
22.26122518958673
 30
0.0
  0
SPLINE
  5
89
330
1F
100
AcDbEntity
  8
Layer 01
370
    -3
100
AcDbSpline
210
0.0
220
0.0
230
1.0
 70
     8
 71
     2
 72
     9
 73
     6
 74
     0
 42
0.000000001
 43
0.0000000001
 40
0.0
 40
0.0
 40
0.0
 40
1.0
 40
2.0
 40
3.0
 40
4.0
 40
4.0
 40
4.0
 10
5.519161140685494
 20
20.80288485422957
 30
0.0
 10
4.832372774187014
 20
20.72971958089449
 30
0.0
 10
3.452861373788383
 20
20.66153919689899
 30
0.0
 10
2.071998014553317
 20
20.64055340821479
 30
0.0
 10
0.6910509433282049
 20
20.63599734878561
 30
0.0
 10
0.000573035666303
 20
20.63631010286751
 30
0.0
  0
SPLINE
  5
8A
330
1F
100
AcDbEntity
  8
Layer 01
370
    -3
100
AcDbSpline
210
0.0
220
0.0
230
1.0
 70
     8
 71
     2
 72
    33
 73
    30
 74
     0
 42
0.000000001
 43
0.0000000001
 40
0.0
 40
0.0
 40
0.0
 40
1.0
 40
2.0
 40
3.0
 40
4.0
 40
5.0
 40
6.0
 40
7.0
 40
8.0
 40
9.0
 40
10.0
 40
11.0
 40
12.0
 40
13.0
 40
14.0
 40
15.0
 40
16.0
 40
17.0
 40
18.0
 40
19.0
 40
20.0
 40
21.0
 40
22.0
 40
23.0
 40
24.0
 40
25.0
 40
26.0
 40
27.0
 40
28.0
 40
28.0
 40
28.0
 10
0.000573035389575
 20
22.667263818272
 30
0.0
 10
0.1619404237238179
 20
22.66729045564245
 30
0.0
 10
0.4846715781914119
 20
22.66879823113418
 30
0.0
 10
0.8073943206844871
 20
22.67156357209579
 30
0.0
 10
1.130105778523974
 20
22.67542393638192
 30
0.0
 10
1.452804274242898
 20
22.68024031321437
 30
0.0
 10
1.775489189978857
 20
22.68589120859518
 30
0.0
 10
2.098160578288983
 20
22.69226724682011
 30
0.0
 10
2.420818986404477
 20
22.69926860182344
 30
0.0
 10
2.743465548910358
 20
22.70679132815998
 30
0.0
 10
3.066100682188501
 20
22.71479126527187
 30
0.0
 10
3.388722475809482
 20
22.72331266608592
 30
0.0
 10
3.71132882330736
 20
22.73240090340906
 30
0.0
 10
4.033916475435879
 20
22.74213098355198
 30
0.0
 10
4.356484366501689
 20
22.75249404666665
 30
0.0
 10
4.679033796251528
 20
22.76341643048228
 30
0.0
 10
5.001566412361447
 20
22.77482351871548
 30
0.0
 10
5.324085062317724
 20
22.78661939036492
 30
0.0
 10
5.646591799644739
 20
22.79873545013957
 30
0.0
 10
5.969094023588923
 20
22.81097028128405
 30
0.0
 10
6.291594691906933
 20
22.82324852507096
 30
0.0
 10
6.614083642266944
 20
22.83582117055391
 30
0.0
 10
6.936558997079038
 20
22.84879405372428
 30
0.0
 10
7.259021309950588
 20
22.86176337330362
 30
0.0
 10
7.581570673810857
 20
22.8744692505605
 30
0.0
 10
7.903825235500048
 20
22.88323423896624
 30
0.0
 10
8.22831482414932
 20
22.89976805091878
 30
0.0
 10
8.540188275427312
 20
22.79348861456923
 30
0.0
 10
8.719903279510392
 20
22.50937039174759
 30
0.0
 10
8.715978122246163
 20
22.34429312017617
 30
0.0
  0
SPLINE
  5
8B
330
1F
100
AcDbEntity
  8
Layer 01
370
    -3
100
AcDbSpline
210
0.0
220
0.0
230
1.0
 70
     8
 71
     2
 72
    10
 73
     7
 74
     0
 42
0.000000001
 43
0.0000000001
 40
28.0
 40
28.0
 40
28.0
 40
29.0
 40
30.0
 40
31.0
 40
32.0
 40
33.0
 40
33.0
 40
33.0
 10
8.640472933279835
 20
24.11110114414232
 30
0.0
 10
8.659578450411148
 20
23.96797122505311
 30
0.0
 10
8.665094630346662
 20
23.67900044181209
 30
0.0
 10
8.65053352419454
 20
23.39212893131694
 30
0.0
 10
8.62160971591785
 20
23.09706270349058
 30
0.0
 10
8.410216127056604
 20
22.88713990460516
 30
0.0
 10
8.25872067372087
 20
22.8790074510641
 30
0.0
  0
SPLINE
  5
8C
330
1F
100
AcDbEntity
  8
Layer 01
370
    -3
100
AcDbSpline
210
0.0
220
0.0
230
1.0
 70
     8
 71
     2
 72
    33
 73
    30
 74
     0
 42
0.000000001
 43
0.0000000001
 40
0.0
 40
0.0
 40
0.0
 40
1.0
 40
2.0
 40
3.0
 40
4.0
 40
5.0
 40
6.0
 40
7.0
 40
8.0
 40
9.0
 40
10.0
 40
11.0
 40
12.0
 40
13.0
 40
14.0
 40
15.0
 40
16.0
 40
17.0
 40
18.0
 40
19.0
 40
20.0
 40
21.0
 40
22.0
 40
23.0
 40
24.0
 40
25.0
 40
26.0
 40
27.0
 40
28.0
 40
28.0
 40
28.0
 10
0.0005730358388227
 20
24.49946906652866
 30
0.0
 10
0.1557537134795463
 20
24.49946652379922
 30
0.0
 10
0.4661141905386426
 20
24.4988273382546
 30
0.0
 10
0.7764727214050569
 20
24.49757905250773
 30
0.0
 10
1.086828503730277
 20
24.49574621323896
 30
0.0
 10
1.397180407858663
 20
24.49335142004315
 30
0.0
 10
1.707527781493321
 20
24.49042542153934
 30
0.0
 10
2.017869271256474
 20
24.48694946515885
 30
0.0
 10
2.328202982163309
 20
24.48282306948215
 30
0.0
 10
2.638532263982214
 20
24.47837809063568
 30
0.0
 10
2.948857775374004
 20
24.473681706544
 30
0.0
 10
3.259179726854952
 20
24.46875245890864
 30
0.0
 10
3.569497444118029
 20
24.46356695703456
 30
0.0
 10
3.879807051386603
 20
24.45790805874068
 30
0.0
 10
4.190116679358626
 20
24.45226565476626
 30
0.0
 10
4.500426507237473
 20
24.44662728524051
 30
0.0
 10
4.810735194357495
 20
24.44093027111443
 30
0.0
 10
5.121041437701752
 20
24.4350865290636
 30
0.0
 10
5.431340621500956
 20
24.42889855974763
 30
0.0
 10
5.741633720182815
 20
24.42239881694452
 30
0.0
 10
6.051939003353966
 20
24.41651001327221
 30
0.0
 10
6.362248058146887
 20
24.41081976798093
 30
0.0
 10
6.672526879423001
 20
24.4036463812153
 30
0.0
 10
6.982753447928292
 20
24.39451266003795
 30
0.0
 10
7.292923922460364
 20
24.3833393508508
 30
0.0
 10
7.602775834535983
 20
24.36572386210052
 30
0.0
 10
7.912347349197439
 20
24.34211100213844
 30
0.0
 10
8.219843432202252
 20
24.30178510189546
 30
0.0
 10
8.522427579413787
 20
24.21827280531377
 30
0.0
 10
8.640472933279835
 20
24.11110114414232
 30
0.0
  0
SPLINE
  5
8D
330
1F
100
AcDbEntity
  8
Layer 01
370
    -3
100
AcDbSpline
210
0.0
220
0.0
230
1.0
 70
     8
 71
     2
 72
    33
 73
    30
 74
     0
 42
0.000000001
 43
0.0000000001
 40
0.0
 40
0.0
 40
0.0
 40
1.0
 40
2.0
 40
3.0
 40
4.0
 40
5.0
 40
6.0
 40
7.0
 40
8.0
 40
9.0
 40
10.0
 40
11.0
 40
12.0
 40
13.0
 40
14.0
 40
15.0
 40
16.0
 40
17.0
 40
18.0
 40
19.0
 40
20.0
 40
21.0
 40
22.0
 40
23.0
 40
24.0
 40
25.0
 40
26.0
 40
27.0
 40
28.0
 40
28.0
 40
28.0
 10
0.0005730357479159
 20
23.95330460568198
 30
0.0
 10
0.1548135000750294
 20
23.95330759281906
 30
0.0
 10
0.4632926631348145
 20
23.95435125952013
 30
0.0
 10
0.7717668613624332
 20
23.95638120344438
 30
0.0
 10
1.080233565148499
 20
23.95934222115602
 30
0.0
 10
1.388690608113836
 20
23.96317515366791
 30
0.0
 10
1.697136513629335
 20
23.96781653501397
 30
0.0
 10
2.005570280107047
 20
23.97319819351699
 30
0.0
 10
2.313991674006097
 20
23.97924699798468
 30
0.0
 10
2.622400958614542
 20
23.98588478897146
 30
0.0
 10
2.930799046696159
 20
23.99302711309609
 30
0.0
 10
3.239187157670508
 20
24.00058484807623
 30
0.0
 10
3.54756759996009
 20
24.00845029228434
 30
0.0
 10
3.855940969854807
 20
24.01657312719958
 30
0.0
 10
4.164300456417717
 20
24.02522754521264
 30
0.0
 10
4.472679716943597
 20
24.0331372241244
 30
0.0
 10
4.781051783164521
 20
24.04132347318972
 30
0.0
 10
5.089432052568123
 20
24.04919112275977
 30
0.0
 10
5.397817262770051
 20
24.05686411614613
 30
0.0
 10
5.706193092437495
 20
24.06490649716346
 30
0.0
 10
6.014570306690016
 20
24.07289228576501
 30
0.0
 10
6.322944642287298
 20
24.08099073937957
 30
0.0
 10
6.631319893726266
 20
24.08905126126855
 30
0.0
 10
6.939694282736983
 20
24.09714584723284
 30
0.0
 10
7.248072311861933
 20
24.10512554160422
 30
0.0
 10
7.556432972551766
 20
24.11360999153721
 30
0.0
 10
7.86485471471358
 20
24.12067207245978
 30
0.0
 10
8.173210026704936
 20
24.1236026026546
 30
0.0
 10
8.482308363744938
 20
24.12935518895023
 30
0.0
 10
8.634741924508752
 20
24.11251824914699
 30
0.0
  0
SPLINE
  5
8E
330
1F
100
AcDbEntity
  8
Layer 01
370
    -3
100
AcDbSpline
210
0.0
220
0.0
230
1.0
 70
     8
 71
     2
 72
     9
 73
     6
 74
     0
 42
0.000000001
 43
0.0000000001
 40
0.0
 40
0.0
 40
0.0
 40
1.0
 40
2.0
 40
3.0
 40
4.0
 40
4.0
 40
4.0
 10
5.738048768090323
 20
6.35900014805944
 30
0.0
 10
5.59151938160182
 20
8.154058089512695
 30
0.0
 10
5.30803954789507
 20
11.74494282462085
 30
0.0
 10
5.03316644755542
 20
15.33649613859993
 30
0.0
 10
4.765690504732673
 20
18.92860751088531
 30
0.0
 10
4.634985908773182
 20
20.72488636225998
 30
0.0
  0
LINE
  5
8F
330
1F
100
AcDbEntity
  8
Layer 01
370
    -3
100
AcDbLine
 10
7.952478316806516
 20
0.0014001480570283
 30
0.0
 11
6.987640696763745
 21
0.0009196945080699
 31
0.0
  0
SPLINE
  5
90
330
1F
100
AcDbEntity
  8
Layer 01
370
    -3
100
AcDbSpline
210
0.0
220
0.0
230
1.0
 70
    12
 71
     3
 72
    17
 73
    13
 74
     0
 42
0.000000001
 43
0.0000000001
 40
19.46412262039428
 40
19.46412262039428
 40
19.46412262039428
 40
19.46412262039428
 40
19.48419499793761
 40
19.48419499793761
 40
19.48419499793761
 40
19.58934686571531
 40
19.58934686571531
 40
19.58934686571531
 40
19.69449861085216
 40
19.69449861085216
 40
19.69449861085216
 40
19.73721733136759
 40
19.73721733136759
 40
19.73721733136759
 40
19.73721733136759
 10
8.11045129338152
 20
0.1661304243163109
 30
0.0
 41
1.0
 10
8.110753177392251
 20
0.1595177786393585
 30
0.0
 41
1.0
 10
8.110620515972808
 20
0.1528776100156133
 30
0.0
 41
1.0
 10
8.110065912700076
 20
0.1462414615858538
 30
0.0
 41
1.0
 10
8.10717454076875
 20
0.1116445267216477
 30
0.0
 41
1.0
 10
8.092964857781492
 20
0.0789336607662765
 30
0.0
 41
1.0
 10
8.069591884995457
 20
0.0531910034360727
 30
0.0
 41
1.0
 10
8.046218940216871
 20
0.0274483769528828
 30
0.0
 41
1.0
 10
8.015028019962184
 20
0.0101556314803268
 30
0.0
 41
1.0
 10
7.980870156792246
 20
0.0039470989436481
 30
0.0
 41
1.0
 10
7.974907270578651
 20
0.0028632848629613
 30
0.0
 41
1.0
 10
7.952839072018815
 20
0.0014001480570922
 30
0.0
 41
1.0
 10
7.952478316806516
 20
0.0014001480570283
 30
0.0
 41
1.0
  0
SPLINE
  5
91
330
1F
100
AcDbEntity
  8
Layer 01
370
    -3
100
AcDbSpline
210
0.0
220
0.0
230
1.0
 70
     8
 71
     2
 72
     9
 73
     6
 74
     0
 42
0.000000001
 43
0.0000000001
 40
15.46412262039428
 40
15.46412262039428
 40
15.46412262039428
 40
16.46412262039428
 40
17.46412262039428
 40
18.46412262039428
 40
19.46412262039428
 40
19.46412262039428
 40
19.46412262039428
 10
6.979420087541339
 20
21.4593878475514
 30
0.0
 10
7.137322364100589
 20
18.79862917645799
 30
0.0
 10
7.443734311289772
 20
13.47656111460755
 30
0.0
 10
7.732802785812035
 20
8.153518537250894
 30
0.0
 10
7.996683916245366
 20
2.829159381547655
 30
0.0
 10
8.11045129338152
 20
0.1661304243163109
 30
0.0
  0
SPLINE
  5
92
330
1F
100
AcDbEntity
  8
Layer 01
370
    -3
100
AcDbSpline
210
0.0
220
0.0
230
1.0
 70
     8
 71
     3
 72
     8
 73
     4
 74
     0
 42
0.000000001
 43
0.0000000001
 40
14.46412262039428
 40
14.46412262039428
 40
14.46412262039428
 40
14.46412262039428
 40
15.46412262039428
 40
15.46412262039428
 40
15.46412262039428
 40
15.46412262039428
 10
5.488975963926929
 20
21.3208892607659
 30
0.0
 10
5.474801135154906
 20
21.57714552253102
 30
0.0
 10
6.970361691533287
 20
21.61202786167797
 30
0.0
 10
6.979420087541339
 20
21.4593878475514
 30
0.0
  0
SPLINE
  5
93
330
1F
100
AcDbEntity
  8
Layer 01
370
    -3
100
AcDbSpline
210
0.0
220
0.0
230
1.0
 70
     8
 71
     2
 72
     9
 73
     6
 74
     0
 42
0.000000001
 43
0.0000000001
 40
10.46412262039428
 40
10.46412262039428
 40
10.46412262039428
 40
11.46412262039428
 40
12.46412262039428
 40
13.46412262039428
 40
14.46412262039428
 40
14.46412262039428
 40
14.46412262039428
 10
6.840121124761104
 20
0.1459383690115106
 30
0.0
 10
6.645077311770498
 20
2.792676331363296
 30
0.0
 10
6.283755186631185
 20
8.084482440586136
 30
0.0
 10
5.948180115271311
 20
13.37798125087287
 30
0.0
 10
5.635450926166893
 20
18.6728765849527
 30
0.0
 10
5.488975963926929
 20
21.3208892607659
 30
0.0
  0
SPLINE
  5
94
330
1F
100
AcDbEntity
  8
Layer 01
370
    -3
100
AcDbSpline
210
0.0
220
0.0
230
1.0
 70
    12
 71
     3
 72
    14
 73
    10
 74
     0
 42
0.000000001
 43
0.0000000001
 40
10.23793245064014
 40
10.23793245064014
 40
10.23793245064014
 40
10.23793245064014
 40
10.25561396369204
 40
10.25561396369204
 40
10.25561396369204
 40
10.35986828199727
 40
10.35986828199727
 40
10.35986828199727
 40
10.46412262039428
 40
10.46412262039428
 40
10.46412262039428
 40
10.46412262039428
 10
6.987640696763744
 20
0.0009196945080699
 30
0.0
 41
1.19168453564508
 10
6.983409740524858
 20
0.0015172559334113
 30
0.0
 41
1.19168453564508
 10
6.977623769692799
 20
0.0024545439896618
 30
0.0
 41
1.19168453564508
 10
6.969724829241019
 20
0.0038669281474424
 30
0.0
 41
1.19168453564508
 10
6.935835329807844
 20
0.0099266006322173
 30
0.0
 41
1.19168453564508
 10
6.904824749513175
 20
0.0268955336148579
 30
0.0
 41
1.19168453564508
 10
6.881438696060971
 20
0.0522292991289141
 30
0.0
 41
1.19168453564508
 10
6.858052638079622
 20
0.0775630695493027
 30
0.0
 41
1.19168453564508
 10
6.843613371365508
 20
0.1098292889599279
 30
0.0
 41
1.19168453564508
 10
6.840121124761103
 20
0.1459383690115106
 30
0.0
 41
1.19168453564508
  0
SPLINE
  5
95
330
1F
100
AcDbEntity
  8
Layer 01
370
    -3
100
AcDbSpline
210
0.0
220
0.0
230
1.0
 70
     8
 71
     2
 72
     9
 73
     6
 74
     0
 42
0.000000001
 43
0.0000000001
 40
29.0
 40
29.0
 40
29.0
 40
30.0
 40
31.0
 40
32.0
 40
33.0
 40
33.0
 40
33.0
 10
-8.09874098007344
 20
21.6133445771903
 30
0.0
 10
-7.975377778704503
 20
21.52162513174647
 30
0.0
 10
-7.712918162051423
 20
21.3613766011786
 30
0.0
 10
-7.436476551763517
 20
21.22669677025243
 30
0.0
 10
-7.150166153313264
 20
21.11470160417242
 30
0.0
 10
-7.003698538332255
 20
21.06814645269197
 30
0.0
  0
SPLINE
  5
96
330
1F
100
AcDbEntity
  8
Layer 01
370
    -3
100
AcDbSpline
210
0.0
220
0.0
230
1.0
 70
     8
 71
     3
 72
     8
 73
     4
 74
     0
 42
0.000000001
 43
0.0000000001
 40
28.0
 40
28.0
 40
28.0
 40
28.0
 40
29.0
 40
29.0
 40
29.0
 40
29.0
 10
-8.691307918972836
 20
22.26122518958673
 30
0.0
 10
-8.595564571113915
 20
22.03046148220304
 30
0.0
 10
-8.310218415204401
 20
21.77057617347553
 30
0.0
 10
-8.09874098007344
 20
21.6133445771903
 30
0.0
  0
SPLINE
  5
97
330
1F
100
AcDbEntity
  8
Layer 01
370
    -3
100
AcDbSpline
210
0.0
220
0.0
230
1.0
 70
     8
 71
     2
 72
    33
 73
    30
 74
     0
 42
0.000000001
 43
0.0000000001
 40
0.0
 40
0.0
 40
0.0
 40
1.0
 40
2.0
 40
3.0
 40
4.0
 40
5.0
 40
6.0
 40
7.0
 40
8.0
 40
9.0
 40
10.0
 40
11.0
 40
12.0
 40
13.0
 40
14.0
 40
15.0
 40
16.0
 40
17.0
 40
18.0
 40
19.0
 40
20.0
 40
21.0
 40
22.0
 40
23.0
 40
24.0
 40
25.0
 40
26.0
 40
27.0
 40
28.0
 40
28.0
 40
28.0
 10
-0.0005730417488898
 20
34.96812972469408
 30
0.0
 10
-0.3567950357875161
 20
34.96811568721832
 30
0.0
 10
-1.069237727999216
 20
34.96938114379861
 30
0.0
 10
-1.781677460131806
 20
34.97181136407097
 30
0.0
 10
-2.494113250066774
 20
34.97512699842477
 30
0.0
 10
-3.206547562723551
 20
34.97884608904188
 30
0.0
 10
-3.918981281874187
 20
34.98249743284475
 30
0.0
 10
-4.631422557168014
 20
34.98574599742683
 30
0.0
 10
-5.34381659658811
 20
34.99143930743836
 30
0.0
 10
-6.056485284629412
 20
34.9832070329469
 30
0.0
 10
-6.762741327202111
 20
34.85708269740202
 30
0.0
 10
-7.388215046128237
 20
34.49628203465079
 30
0.0
 10
-7.786402568888222
 20
33.89341448597767
 30
0.0
 10
-7.992084488058699
 20
33.20791660235515
 30
0.0
 10
-8.052956818144398
 20
32.49689574062177
 30
0.0
 10
-8.110686723953933
 20
31.78699564723231
 30
0.0
 10
-8.164980186510725
 20
31.07658824603786
 30
0.0
 10
-8.218833559237252
 20
30.36618891565626
 30
0.0
 10
-8.2712188282722
 20
29.65567255252434
 30
0.0
 10
-8.325437442341816
 20
28.94529449217007
 30
0.0
 10
-8.382866800024413
 20
28.23516682868849
 30
0.0
 10
-8.443830159365797
 20
27.52534003392494
 30
0.0
 10
-8.505963263066755
 20
26.81558503112238
 30
0.0
 10
-8.565373440098206
 20
26.10577129814479
 30
0.0
 10
-8.599626922178649
 20
25.39290678144533
 30
0.0
 10
-8.739671318354818
 20
24.6949217360474
 30
0.0
 10
-8.957376886277556
 20
24.01103701686644
 30
0.0
 10
-8.943051738174129
 20
23.297224206642
 30
0.0
 10
-8.828462777197888
 20
22.59180025592277
 30
0.0
 10
-8.691307918972836
 20
22.26122518958673
 30
0.0
  0
SPLINE
  5
98
330
1F
100
AcDbEntity
  8
Layer 01
370
    -3
100
AcDbSpline
210
0.0
220
0.0
230
1.0
 70
     8
 71
     2
 72
     9
 73
     6
 74
     0
 42
0.000000001
 43
0.0000000001
 40
0.0
 40
0.0
 40
0.0
 40
1.0
 40
2.0
 40
3.0
 40
4.0
 40
4.0
 40
4.0
 10
-5.519161140685494
 20
20.80288485422957
 30
0.0
 10
-4.832372774187014
 20
20.72971958089449
 30
0.0
 10
-3.452861373788383
 20
20.66153919689899
 30
0.0
 10
-2.071998014553317
 20
20.64055340821479
 30
0.0
 10
-0.6910509433282049
 20
20.63599734878561
 30
0.0
 10
-0.000573035666303
 20
20.63631010286751
 30
0.0
  0
SPLINE
  5
99
330
1F
100
AcDbEntity
  8
Layer 01
370
    -3
100
AcDbSpline
210
0.0
220
0.0
230
1.0
 70
     8
 71
     2
 72
    33
 73
    30
 74
     0
 42
0.000000001
 43
0.0000000001
 40
0.0
 40
0.0
 40
0.0
 40
1.0
 40
2.0
 40
3.0
 40
4.0
 40
5.0
 40
6.0
 40
7.0
 40
8.0
 40
9.0
 40
10.0
 40
11.0
 40
12.0
 40
13.0
 40
14.0
 40
15.0
 40
16.0
 40
17.0
 40
18.0
 40
19.0
 40
20.0
 40
21.0
 40
22.0
 40
23.0
 40
24.0
 40
25.0
 40
26.0
 40
27.0
 40
28.0
 40
28.0
 40
28.0
 10
-0.000573035389575
 20
22.667263818272
 30
0.0
 10
-0.1619404237238179
 20
22.66729045564245
 30
0.0
 10
-0.4846715781914119
 20
22.66879823113418
 30
0.0
 10
-0.8073943206844871
 20
22.67156357209579
 30
0.0
 10
-1.130105778523974
 20
22.67542393638192
 30
0.0
 10
-1.452804274242898
 20
22.68024031321437
 30
0.0
 10
-1.775489189978857
 20
22.68589120859518
 30
0.0
 10
-2.098160578288983
 20
22.69226724682011
 30
0.0
 10
-2.420818986404477
 20
22.69926860182344
 30
0.0
 10
-2.743465548910358
 20
22.70679132815998
 30
0.0
 10
-3.066100682188501
 20
22.71479126527187
 30
0.0
 10
-3.388722475809482
 20
22.72331266608592
 30
0.0
 10
-3.71132882330736
 20
22.73240090340906
 30
0.0
 10
-4.033916475435879
 20
22.74213098355198
 30
0.0
 10
-4.356484366501689
 20
22.75249404666665
 30
0.0
 10
-4.679033796251528
 20
22.76341643048228
 30
0.0
 10
-5.001566412361447
 20
22.77482351871548
 30
0.0
 10
-5.324085062317724
 20
22.78661939036492
 30
0.0
 10
-5.646591799644739
 20
22.79873545013957
 30
0.0
 10
-5.969094023588923
 20
22.81097028128405
 30
0.0
 10
-6.291594691906933
 20
22.82324852507096
 30
0.0
 10
-6.614083642266944
 20
22.83582117055391
 30
0.0
 10
-6.936558997079038
 20
22.84879405372428
 30
0.0
 10
-7.259021309950588
 20
22.86176337330362
 30
0.0
 10
-7.581570673810857
 20
22.8744692505605
 30
0.0
 10
-7.903825235500048
 20
22.88323423896624
 30
0.0
 10
-8.22831482414932
 20
22.89976805091878
 30
0.0
 10
-8.540188275427312
 20
22.79348861456923
 30
0.0
 10
-8.719903279510392
 20
22.50937039174759
 30
0.0
 10
-8.715978122246163
 20
22.34429312017617
 30
0.0
  0
SPLINE
  5
9A
330
1F
100
AcDbEntity
  8
Layer 01
370
    -3
100
AcDbSpline
210
0.0
220
0.0
230
1.0
 70
     8
 71
     2
 72
    10
 73
     7
 74
     0
 42
0.000000001
 43
0.0000000001
 40
28.0
 40
28.0
 40
28.0
 40
29.0
 40
30.0
 40
31.0
 40
32.0
 40
33.0
 40
33.0
 40
33.0
 10
-8.640472933279835
 20
24.11110114414232
 30
0.0
 10
-8.659578450411148
 20
23.96797122505311
 30
0.0
 10
-8.665094630346662
 20
23.67900044181209
 30
0.0
 10
-8.65053352419454
 20
23.39212893131694
 30
0.0
 10
-8.62160971591785
 20
23.09706270349058
 30
0.0
 10
-8.410216127056604
 20
22.88713990460516
 30
0.0
 10
-8.25872067372087
 20
22.8790074510641
 30
0.0
  0
SPLINE
  5
9B
330
1F
100
AcDbEntity
  8
Layer 01
370
    -3
100
AcDbSpline
210
0.0
220
0.0
230
1.0
 70
     8
 71
     2
 72
    33
 73
    30
 74
     0
 42
0.000000001
 43
0.0000000001
 40
0.0
 40
0.0
 40
0.0
 40
1.0
 40
2.0
 40
3.0
 40
4.0
 40
5.0
 40
6.0
 40
7.0
 40
8.0
 40
9.0
 40
10.0
 40
11.0
 40
12.0
 40
13.0
 40
14.0
 40
15.0
 40
16.0
 40
17.0
 40
18.0
 40
19.0
 40
20.0
 40
21.0
 40
22.0
 40
23.0
 40
24.0
 40
25.0
 40
26.0
 40
27.0
 40
28.0
 40
28.0
 40
28.0
 10
-0.0005730358388227
 20
24.49946906652866
 30
0.0
 10
-0.1557537134795463
 20
24.49946652379922
 30
0.0
 10
-0.4661141905386426
 20
24.4988273382546
 30
0.0
 10
-0.7764727214050569
 20
24.49757905250773
 30
0.0
 10
-1.086828503730277
 20
24.49574621323896
 30
0.0
 10
-1.397180407858663
 20
24.49335142004315
 30
0.0
 10
-1.707527781493321
 20
24.49042542153934
 30
0.0
 10
-2.017869271256474
 20
24.48694946515885
 30
0.0
 10
-2.328202982163309
 20
24.48282306948215
 30
0.0
 10
-2.638532263982214
 20
24.47837809063568
 30
0.0
 10
-2.948857775374004
 20
24.473681706544
 30
0.0
 10
-3.259179726854952
 20
24.46875245890864
 30
0.0
 10
-3.569497444118029
 20
24.46356695703456
 30
0.0
 10
-3.879807051386603
 20
24.45790805874068
 30
0.0
 10
-4.190116679358626
 20
24.45226565476626
 30
0.0
 10
-4.500426507237473
 20
24.44662728524051
 30
0.0
 10
-4.810735194357495
 20
24.44093027111443
 30
0.0
 10
-5.121041437701752
 20
24.4350865290636
 30
0.0
 10
-5.431340621500956
 20
24.42889855974763
 30
0.0
 10
-5.741633720182815
 20
24.42239881694452
 30
0.0
 10
-6.051939003353966
 20
24.41651001327221
 30
0.0
 10
-6.362248058146887
 20
24.41081976798093
 30
0.0
 10
-6.672526879423001
 20
24.4036463812153
 30
0.0
 10
-6.982753447928292
 20
24.39451266003795
 30
0.0
 10
-7.292923922460364
 20
24.3833393508508
 30
0.0
 10
-7.602775834535983
 20
24.36572386210052
 30
0.0
 10
-7.912347349197439
 20
24.34211100213844
 30
0.0
 10
-8.219843432202252
 20
24.30178510189546
 30
0.0
 10
-8.522427579413787
 20
24.21827280531377
 30
0.0
 10
-8.640472933279835
 20
24.11110114414232
 30
0.0
  0
SPLINE
  5
9C
330
1F
100
AcDbEntity
  8
Layer 01
370
    -3
100
AcDbSpline
210
0.0
220
0.0
230
1.0
 70
     8
 71
     2
 72
    33
 73
    30
 74
     0
 42
0.000000001
 43
0.0000000001
 40
0.0
 40
0.0
 40
0.0
 40
1.0
 40
2.0
 40
3.0
 40
4.0
 40
5.0
 40
6.0
 40
7.0
 40
8.0
 40
9.0
 40
10.0
 40
11.0
 40
12.0
 40
13.0
 40
14.0
 40
15.0
 40
16.0
 40
17.0
 40
18.0
 40
19.0
 40
20.0
 40
21.0
 40
22.0
 40
23.0
 40
24.0
 40
25.0
 40
26.0
 40
27.0
 40
28.0
 40
28.0
 40
28.0
 10
-0.0005730357479159
 20
23.95330460568198
 30
0.0
 10
-0.1548135000750294
 20
23.95330759281906
 30
0.0
 10
-0.4632926631348145
 20
23.95435125952013
 30
0.0
 10
-0.7717668613624332
 20
23.95638120344438
 30
0.0
 10
-1.080233565148499
 20
23.95934222115602
 30
0.0
 10
-1.388690608113836
 20
23.96317515366791
 30
0.0
 10
-1.697136513629335
 20
23.96781653501397
 30
0.0
 10
-2.005570280107047
 20
23.97319819351699
 30
0.0
 10
-2.313991674006097
 20
23.97924699798468
 30
0.0
 10
-2.622400958614542
 20
23.98588478897146
 30
0.0
 10
-2.930799046696159
 20
23.99302711309609
 30
0.0
 10
-3.239187157670508
 20
24.00058484807623
 30
0.0
 10
-3.54756759996009
 20
24.00845029228434
 30
0.0
 10
-3.855940969854807
 20
24.01657312719958
 30
0.0
 10
-4.164300456417717
 20
24.02522754521264
 30
0.0
 10
-4.472679716943597
 20
24.0331372241244
 30
0.0
 10
-4.781051783164521
 20
24.04132347318972
 30
0.0
 10
-5.089432052568123
 20
24.04919112275977
 30
0.0
 10
-5.397817262770051
 20
24.05686411614613
 30
0.0
 10
-5.706193092437495
 20
24.06490649716346
 30
0.0
 10
-6.014570306690016
 20
24.07289228576501
 30
0.0
 10
-6.322944642287298
 20
24.08099073937957
 30
0.0
 10
-6.631319893726266
 20
24.08905126126855
 30
0.0
 10
-6.939694282736983
 20
24.09714584723284
 30
0.0
 10
-7.248072311861933
 20
24.10512554160422
 30
0.0
 10
-7.556432972551766
 20
24.11360999153721
 30
0.0
 10
-7.86485471471358
 20
24.12067207245978
 30
0.0
 10
-8.173210026704936
 20
24.1236026026546
 30
0.0
 10
-8.482308363744938
 20
24.12935518895023
 30
0.0
 10
-8.634741924508752
 20
24.11251824914699
 30
0.0
  0
SPLINE
  5
9D
330
1F
100
AcDbEntity
  8
Layer 01
370
    -3
100
AcDbSpline
210
0.0
220
0.0
230
1.0
 70
     8
 71
     2
 72
     9
 73
     6
 74
     0
 42
0.000000001
 43
0.0000000001
 40
0.0
 40
0.0
 40
0.0
 40
1.0
 40
2.0
 40
3.0
 40
4.0
 40
4.0
 40
4.0
 10
-5.738048768090323
 20
6.35900014805944
 30
0.0
 10
-5.59151938160182
 20
8.154058089512695
 30
0.0
 10
-5.30803954789507
 20
11.74494282462085
 30
0.0
 10
-5.03316644755542
 20
15.33649613859993
 30
0.0
 10
-4.765690504732673
 20
18.92860751088531
 30
0.0
 10
-4.634985908773182
 20
20.72488636225998
 30
0.0
  0
LINE
  5
9E
330
1F
100
AcDbEntity
  8
Layer 01
370
    -3
100
AcDbLine
 10
-7.952478316806516
 20
0.0014001480570283
 30
0.0
 11
-6.987640696763745
 21
0.0009196945080699
 31
0.0
  0
SPLINE
  5
9F
330
1F
100
AcDbEntity
  8
Layer 01
370
    -3
100
AcDbSpline
210
0.0
220
0.0
230
1.0
 70
    12
 71
     3
 72
    17
 73
    13
 74
     0
 42
0.000000001
 43
0.0000000001
 40
19.46412262039428
 40
19.46412262039428
 40
19.46412262039428
 40
19.46412262039428
 40
19.48419499793761
 40
19.48419499793761
 40
19.48419499793761
 40
19.58934686571531
 40
19.58934686571531
 40
19.58934686571531
 40
19.69449861085216
 40
19.69449861085216
 40
19.69449861085216
 40
19.73721733136759
 40
19.73721733136759
 40
19.73721733136759
 40
19.73721733136759
 10
-8.11045129338152
 20
0.1661304243163109
 30
0.0
 41
1.0
 10
-8.110753177392251
 20
0.1595177786393585
 30
0.0
 41
1.0
 10
-8.110620515972808
 20
0.1528776100156133
 30
0.0
 41
1.0
 10
-8.110065912700076
 20
0.1462414615858538
 30
0.0
 41
1.0
 10
-8.10717454076875
 20
0.1116445267216477
 30
0.0
 41
1.0
 10
-8.092964857781492
 20
0.0789336607662765
 30
0.0
 41
1.0
 10
-8.069591884995457
 20
0.0531910034360727
 30
0.0
 41
1.0
 10
-8.046218940216871
 20
0.0274483769528828
 30
0.0
 41
1.0
 10
-8.015028019962184
 20
0.0101556314803268
 30
0.0
 41
1.0
 10
-7.980870156792246
 20
0.0039470989436481
 30
0.0
 41
1.0
 10
-7.974907270578651
 20
0.0028632848629613
 30
0.0
 41
1.0
 10
-7.952839072018815
 20
0.0014001480570922
 30
0.0
 41
1.0
 10
-7.952478316806516
 20
0.0014001480570283
 30
0.0
 41
1.0
  0
SPLINE
  5
A0
330
1F
100
AcDbEntity
  8
Layer 01
370
    -3
100
AcDbSpline
210
0.0
220
0.0
230
1.0
 70
     8
 71
     2
 72
     9
 73
     6
 74
     0
 42
0.000000001
 43
0.0000000001
 40
15.46412262039428
 40
15.46412262039428
 40
15.46412262039428
 40
16.46412262039428
 40
17.46412262039428
 40
18.46412262039428
 40
19.46412262039428
 40
19.46412262039428
 40
19.46412262039428
 10
-6.979420087541339
 20
21.4593878475514
 30
0.0
 10
-7.137322364100589
 20
18.79862917645799
 30
0.0
 10
-7.443734311289772
 20
13.47656111460755
 30
0.0
 10
-7.732802785812035
 20
8.153518537250894
 30
0.0
 10
-7.996683916245366
 20
2.829159381547655
 30
0.0
 10
-8.11045129338152
 20
0.1661304243163109
 30
0.0
  0
SPLINE
  5
A1
330
1F
100
AcDbEntity
  8
Layer 01
370
    -3
100
AcDbSpline
210
0.0
220
0.0
230
1.0
 70
     8
 71
     3
 72
     8
 73
     4
 74
     0
 42
0.000000001
 43
0.0000000001
 40
14.46412262039428
 40
14.46412262039428
 40
14.46412262039428
 40
14.46412262039428
 40
15.46412262039428
 40
15.46412262039428
 40
15.46412262039428
 40
15.46412262039428
 10
-5.488975963926929
 20
21.3208892607659
 30
0.0
 10
-5.474801135154906
 20
21.57714552253102
 30
0.0
 10
-6.970361691533287
 20
21.61202786167797
 30
0.0
 10
-6.979420087541339
 20
21.4593878475514
 30
0.0
  0
SPLINE
  5
A2
330
1F
100
AcDbEntity
  8
Layer 01
370
    -3
100
AcDbSpline
210
0.0
220
0.0
230
1.0
 70
     8
 71
     2
 72
     9
 73
     6
 74
     0
 42
0.000000001
 43
0.0000000001
 40
10.46412262039428
 40
10.46412262039428
 40
10.46412262039428
 40
11.46412262039428
 40
12.46412262039428
 40
13.46412262039428
 40
14.46412262039428
 40
14.46412262039428
 40
14.46412262039428
 10
-6.840121124761104
 20
0.1459383690115106
 30
0.0
 10
-6.645077311770498
 20
2.792676331363296
 30
0.0
 10
-6.283755186631185
 20
8.084482440586136
 30
0.0
 10
-5.948180115271311
 20
13.37798125087287
 30
0.0
 10
-5.635450926166893
 20
18.6728765849527
 30
0.0
 10
-5.488975963926929
 20
21.3208892607659
 30
0.0
  0
SPLINE
  5
A3
330
1F
100
AcDbEntity
  8
Layer 01
370
    -3
100
AcDbSpline
210
0.0
220
0.0
230
1.0
 70
    12
 71
     3
 72
    14
 73
    10
 74
     0
 42
0.000000001
 43
0.0000000001
 40
10.23793245064014
 40
10.23793245064014
 40
10.23793245064014
 40
10.23793245064014
 40
10.25561396369204
 40
10.25561396369204
 40
10.25561396369204
 40
10.35986828199727
 40
10.35986828199727
 40
10.35986828199727
 40
10.46412262039428
 40
10.46412262039428
 40
10.46412262039428
 40
10.46412262039428
 10
-6.987640696763744
 20
0.0009196945080699
 30
0.0
 41
1.19168453564508
 10
-6.983409740524858
 20
0.0015172559334113
 30
0.0
 41
1.19168453564508
 10
-6.977623769692799
 20
0.0024545439896618
 30
0.0
 41
1.19168453564508
 10
-6.969724829241019
 20
0.0038669281474424
 30
0.0
 41
1.19168453564508
 10
-6.935835329807844
 20
0.0099266006322173
 30
0.0
 41
1.19168453564508
 10
-6.904824749513175
 20
0.0268955336148579
 30
0.0
 41
1.19168453564508
 10
-6.881438696060971
 20
0.0522292991289141
 30
0.0
 41
1.19168453564508
 10
-6.858052638079622
 20
0.0775630695493027
 30
0.0
 41
1.19168453564508
 10
-6.843613371365508
 20
0.1098292889599279
 30
0.0
 41
1.19168453564508
 10
-6.840121124761103
 20
0.1459383690115106
 30
0.0
 41
1.19168453564508
  0
LINE
  5
A4
330
1F
100
AcDbEntity
  8
Layer 01
370
    -3
100
AcDbLine
 10
6.427312533976329
 20
5.984000148057047
 30
0.0
 11
0.0005730357479585
 21
5.984000148057047
 31
0.0
  0
LINE
  5
A5
330
1F
100
AcDbEntity
  8
Layer 01
370
    -3
100
AcDbLine
 10
0.0005730357479301
 20
6.359000148057047
 30
0.0
 11
6.401961522485617
 21
6.359000148057047
 31
0.0
  0
LINE
  5
A6
330
1F
100
AcDbEntity
  8
Layer 01
370
    -3
100
AcDbLine
 10
-0.0005730357479301
 20
6.359000148057047
 30
0.0
 11
-6.401961522485617
 21
6.359000148057047
 31
0.0
  0
LINE
  5
A7
330
1F
100
AcDbEntity
  8
Layer 01
370
    -3
100
AcDbLine
 10
-6.427312533976329
 20
5.984000148057047
 30
0.0
 11
-0.0005730357479585
 21
5.984000148057047
 31
0.0
  0
SPLINE
  5
A8
330
1F
100
AcDbEntity
  8
Layer 01
370
    -3
100
AcDbSpline
210
0.0
220
0.0
230
1.0
 70
     8
 71
     2
 72
     9
 73
     6
 74
     0
 42
0.000000001
 43
0.0000000001
 40
0.2518610139352419
 40
0.2518610139352419
 40
0.2518610139352419
 40
1.251860076410277
 40
2.251860388918598
 40
3.251860701426921
 40
4.251861013935242
 40
4.251861013935242
 40
4.251861013935242
 10
6.264272906190781
 20
0.1455135152905699
 30
0.0
 10
6.199913286809434
 20
0.8751158898072783
 30
0.0
 10
6.073833594019417
 20
2.334551992638537
 30
0.0
 10
5.950122369920916
 20
3.794191594515099
 30
0.0
 10
5.828555723091156
 20
5.254011318999327
 30
0.0
 10
5.768728416234694
 20
5.984000148057046
 30
0.0
  0
SPLINE
  5
A9
330
1F
100
AcDbEntity
  8
Layer 01
370
    -3
100
AcDbSpline
210
0.0
220
0.0
230
1.0
 70
    12
 71
     3
 72
    13
 73
     9
 74
     0
 42
0.000000001
 43
0.0000000001
 40
0.0
 40
0.0
 40
0.0
 40
0.0
 40
0.0105068634278738
 40
0.0105068634278738
 40
0.1286966548774517
 40
0.1286966548774517
 40
0.1286966548774517
 40
0.2518610139352419
 40
0.2518610139352419
 40
0.2518610139352419
 40
0.2518610139352419
 10
6.42166430001918
 20
0.0012592208681077
 30
0.0
 41
1.151618005854252
 10
6.420100324191378
 20
0.0013166200028891
 30
0.0
 41
1.151618005854252
 10
6.417809026731945
 20
0.001412385084662
 30
0.0
 41
1.151618005854252
 10
6.377304192343791
 20
0.0032490599803078
 30
0.0
 41
1.151618005854252
 10
6.342049303988962
 20
0.0180035796297379
 30
0.0
 41
1.151618005854252
 10
6.314814373500104
 20
0.0430036047646524
 30
0.0
 41
1.151618005854252
 10
6.285097875404651
 20
0.07028155943438
 30
0.0
 41
1.151618005854252
 10
6.267666403940741
 20
0.1070638275628937
 30
0.0
 41
1.151618005854252
 10
6.264272906190781
 20
0.1455135152905699
 30
0.0
 41
1.151618005854252
  0
LINE
  5
AA
330
1F
100
AcDbEntity
  8
Layer 01
370
    -3
100
AcDbLine
 10
6.987640696763745
 20
0.0009196945080699
 30
0.0
 11
6.42166430001918
 21
0.0012592208681077
 31
0.0
  0
SPLINE
  5
AB
330
1F
100
AcDbEntity
  8
Layer 01
370
    -3
100
AcDbSpline
210
0.0
220
0.0
230
1.0
 70
     8
 71
     2
 72
     9
 73
     6
 74
     0
 42
0.000000001
 43
0.0000000001
 40
0.2518610139352419
 40
0.2518610139352419
 40
0.2518610139352419
 40
1.251860076410277
 40
2.251860388918598
 40
3.251860701426921
 40
4.251861013935242
 40
4.251861013935242
 40
4.251861013935242
 10
-6.264272906190781
 20
0.1455135152905699
 30
0.0
 10
-6.199913286809434
 20
0.8751158898072783
 30
0.0
 10
-6.073833594019417
 20
2.334551992638537
 30
0.0
 10
-5.950122369920916
 20
3.794191594515099
 30
0.0
 10
-5.828555723091156
 20
5.254011318999327
 30
0.0
 10
-5.768728416234694
 20
5.984000148057046
 30
0.0
  0
SPLINE
  5
AC
330
1F
100
AcDbEntity
  8
Layer 01
370
    -3
100
AcDbSpline
210
0.0
220
0.0
230
1.0
 70
    12
 71
     3
 72
    13
 73
     9
 74
     0
 42
0.000000001
 43
0.0000000001
 40
0.0
 40
0.0
 40
0.0
 40
0.0
 40
0.0105068634278738
 40
0.0105068634278738
 40
0.1286966548774517
 40
0.1286966548774517
 40
0.1286966548774517
 40
0.2518610139352419
 40
0.2518610139352419
 40
0.2518610139352419
 40
0.2518610139352419
 10
-6.42166430001918
 20
0.0012592208681077
 30
0.0
 41
1.151618005854252
 10
-6.420100324191378
 20
0.0013166200028891
 30
0.0
 41
1.151618005854252
 10
-6.417809026731945
 20
0.001412385084662
 30
0.0
 41
1.151618005854252
 10
-6.377304192343791
 20
0.0032490599803078
 30
0.0
 41
1.151618005854252
 10
-6.342049303988962
 20
0.0180035796297379
 30
0.0
 41
1.151618005854252
 10
-6.314814373500104
 20
0.0430036047646524
 30
0.0
 41
1.151618005854252
 10
-6.285097875404651
 20
0.07028155943438
 30
0.0
 41
1.151618005854252
 10
-6.267666403940741
 20
0.1070638275628937
 30
0.0
 41
1.151618005854252
 10
-6.264272906190781
 20
0.1455135152905699
 30
0.0
 41
1.151618005854252
  0
LINE
  5
AD
330
1F
100
AcDbEntity
  8
Layer 01
370
    -3
100
AcDbLine
 10
-6.987640696763745
 20
0.0009196945080699
 30
0.0
 11
-6.42166430001918
 21
0.0012592208681077
 31
0.0
  0
LINE
  5
AE
330
1F
100
AcDbEntity
  8
Layer 01
370
    -3
100
AcDbLine
 10
22.16972283328842
 20
0.0000000000002274
 30
0.0
 11
23.14645835058453
 21
0.0000000000003126
 31
0.0
  0
SPLINE
  5
AF
330
1F
100
AcDbEntity
  8
Layer 01
370
    -3
100
AcDbSpline
210
0.0
220
0.0
230
1.0
 70
    12
 71
     2
 72
     8
 73
     5
 74
     0
 42
0.000000001
 43
0.0000000001
 40
10.20173079054031
 40
10.20173079054031
 40
10.20173079054031
 40
10.33810926042251
 40
10.33810926042251
 40
10.47459458359673
 40
10.47459458359673
 40
10.47459458359673
 10
22.01360778007594
 20
0.1824827856243898
 30
0.0
 41
0.99985643031487
 10
22.00238910967265
 20
0.1106198240121557
 30
0.0
 41
0.9083081367838136
 10
22.04964307495913
 20
0.0553337587620657
 30
0.0
 41
1.0
 10
22.09693780468723
 20
0.0000000000419252
 30
0.0
 41
0.908236295697424
 10
22.16972283328842
 20
0.0000000000002274
 30
0.0
 41
1.0
  0
SPLINE
  5
B0
330
1F
100
AcDbEntity
  8
Layer 01
370
    -3
100
AcDbSpline
210
0.0
220
0.0
230
1.0
 70
     8
 71
     2
 72
     9
 73
     6
 74
     0
 42
0.000000001
 43
0.0000000001
 40
6.20173079054031
 40
6.20173079054031
 40
6.20173079054031
 40
7.201735645311534
 40
8.201740500082758
 40
9.201745354853983
 40
10.20173079054031
 40
10.20173079054031
 40
10.20173079054031
 10
25.49690296429041
 20
21.21518734962022
 30
0.0
 10
25.04472348542373
 20
18.58888782300509
 30
0.0
 10
24.15566864599435
 20
13.33367805772643
 30
0.0
 10
23.27354994307384
 20
8.077292286981622
 30
0.0
 10
22.42464876270451
 20
2.815485661627939
 30
0.0
 10
22.01360778007594
 20
0.1824827856243898
 30
0.0
  0
SPLINE
  5
B1
330
1F
100
AcDbEntity
  8
Layer 01
370
    -3
100
AcDbSpline
210
0.0
220
0.0
230
1.0
 70
     8
 71
     3
 72
     8
 73
     4
 74
     0
 42
0.000000001
 43
0.0000000001
 40
5.20173079054031
 40
5.20173079054031
 40
5.20173079054031
 40
5.20173079054031
 40
6.20173079054031
 40
6.20173079054031
 40
6.20173079054031
 40
6.20173079054031
 10
26.95417601266541
 20
20.80081442571023
 30
0.0
 10
26.97770086931129
 20
20.93940224635655
 30
0.0
 10
25.51441450330917
 20
21.31652272950862
 30
0.0
 10
25.49690296429041
 20
21.21518734962022
 30
0.0
  0
SPLINE
  5
B2
330
1F
100
AcDbEntity
  8
Layer 01
370
    -3
100
AcDbSpline
210
0.0
220
0.0
230
1.0
 70
     8
 71
     2
 72
     9
 73
     6
 74
     0
 42
0.000000001
 43
0.0000000001
 40
1.20173079054031
 40
1.20173079054031
 40
1.20173079054031
 40
2.20173079054031
 40
3.20173079054031
 40
4.20173079054031
 40
5.20173079054031
 40
5.20173079054031
 40
5.20173079054031
 10
23.30179306734626
 20
0.1289490359949869
 30
0.0
 10
23.78416258179089
 20
2.708277685464902
 30
0.0
 10
24.71758002590087
 20
7.87269090890919
 30
0.0
 10
25.62580223024252
 20
13.04158897606733
 30
0.0
 10
26.51532700318664
 20
18.21373318265946
 30
0.0
 10
26.95417601266541
 20
20.80081442571023
 30
0.0
  0
SPLINE
  5
B3
330
1F
100
AcDbEntity
  8
Layer 01
370
    -3
100
AcDbSpline
210
0.0
220
0.0
230
1.0
 70
    12
 71
     3
 72
    17
 73
    13
 74
     0
 42
0.000000001
 43
0.0000000001
 40
0.9767355172961132
 40
0.9767355172961132
 40
0.9767355172961132
 40
0.9767355172961132
 40
1.002266354272631
 40
1.002266354272631
 40
1.002266354272631
 40
1.09917193909154
 40
1.09917193909154
 40
1.09917193909154
 40
1.196077537741149
 40
1.196077537741149
 40
1.196077537741149
 40
1.20173079054031
 40
1.20173079054031
 40
1.20173079054031
 40
1.20173079054031
 10
23.14645835058453
 20
0.0000000000003126
 30
0.0
 41
1.0
 10
23.14649787912462
 20
0.0000000000003304
 30
0.0
 41
1.0
 10
23.16826735299881
 20
0.0015084069307463
 30
0.0
 41
1.0
 10
23.16830638783192
 20
0.0015138496844784
 30
0.0
 41
1.0
 10
23.20004174157767
 20
0.0059388132684131
 30
0.0
 41
1.0
 10
23.22970082862658
 20
0.0199115135224304
 30
0.0
 41
1.0
 10
23.25333195325894
 20
0.0416034567227914
 30
0.0
 41
1.0
 10
23.27696308128437
 20
0.0632954030377899
 30
0.0
 41
1.0
 10
23.29341805431007
 20
0.0916526244981135
 30
0.0
 41
1.0
 10
23.30053753285966
 20
0.1228940434710442
 30
0.0
 41
1.0
 10
23.30099654536163
 20
0.1249082642862377
 30
0.0
 41
1.004090631917953
 10
23.30141500990717
 20
0.126926884247266
 30
0.0
 41
1.008323082895125
 10
23.30179306734626
 20
0.1289490359949869
 30
0.0
 41
1.012697352931514
  0
SPLINE
  5
B4
330
1F
100
AcDbEntity
  8
Layer 01
370
    -3
100
AcDbSpline
210
0.0
220
0.0
230
1.0
 70
     8
 71
     2
 72
     9
 73
     6
 74
     0
 42
0.000000001
 43
0.0000000001
 40
6.497923903636401
 40
6.497923903636401
 40
6.497923903636401
 40
7.497923903636401
 40
8.497923903636401
 40
9.497923903636401
 40
10.4979239036364
 40
10.4979239036364
 40
10.4979239036364
 10
36.42441707626062
 20
21.31847857800052
 30
0.0
 10
36.6785518460404
 20
18.6697888793267
 30
0.0
 10
37.19071898102212
 20
13.37278418678785
 30
0.0
 10
37.71754366635967
 20
8.07720683409909
 30
0.0
 10
38.27707005599423
 20
2.784980615922535
 30
0.0
 10
38.57253757075487
 20
0.1405743890090661
 30
0.0
  0
SPLINE
  5
B5
330
1F
100
AcDbEntity
  8
Layer 01
370
    -3
100
AcDbSpline
210
0.0
220
0.0
230
1.0
 70
     8
 71
     3
 72
     8
 73
     4
 74
     0
 42
0.000000001
 43
0.0000000001
 40
5.497923903636401
 40
5.497923903636401
 40
5.497923903636401
 40
5.497923903636401
 40
6.497923903636401
 40
6.497923903636401
 40
6.497923903636401
 40
6.497923903636401
 10
37.90898318992562
 20
21.46077065185364
 30
0.0
 10
37.899499335451
 20
21.55857673621346
 30
0.0
 10
36.40703368354743
 20
21.49956866535985
 30
0.0
 10
36.42441707626062
 20
21.31847857800052
 30
0.0
  0
SPLINE
  5
B6
330
1F
100
AcDbEntity
  8
Layer 01
370
    -3
100
AcDbSpline
210
0.0
220
0.0
230
1.0
 70
     8
 71
     2
 72
     9
 73
     6
 74
     0
 42
0.000000001
 43
0.0000000001
 40
1.497923903636401
 40
1.497923903636401
 40
1.497923903636401
 40
2.497923903636401
 40
3.497923903636401
 40
4.497923903636401
 40
5.497923903636401
 40
5.497923903636401
 40
5.497923903636401
 10
39.84426350476706
 20
0.1707082262321915
 30
0.0
 10
39.63034474325918
 20
2.834406058208023
 30
0.0
 10
39.16769445553195
 20
8.158887128836726
 30
0.0
 10
38.67665872021175
 20
13.48081834945681
 30
0.0
 10
38.16727543962698
 20
18.80101891697107
 30
0.0
 10
37.90898318992562
 20
21.46077065185364
 30
0.0
  0
SPLINE
  5
B7
330
1F
100
AcDbEntity
  8
Layer 01
370
    -3
100
AcDbSpline
210
0.0
220
0.0
230
1.0
 70
     8
 71
     3
 72
    11
 73
     7
 74
     0
 42
0.000000001
 43
0.0000000001
 40
1.232344511575932
 40
1.232344511575932
 40
1.232344511575932
 40
1.232344511575932
 40
1.298739359591049
 40
1.365134207606167
 40
1.431529055621284
 40
1.497923903636401
 40
1.497923903636401
 40
1.497923903636401
 40
1.497923903636401
 10
39.68677854134742
 20
0.0000000000002238
 30
0.0
 10
39.70851984587742
 20
0.0000000000002238
 30
0.0
 10
39.75198993917741
 20
0.0091039734682248
 30
0.0
 10
39.80624769494742
 20
0.0477746960162229
 30
0.0
 10
39.84043229196742
 20
0.1049683475952214
 30
0.0
 10
39.84601214490742
 20
0.1490344938442227
 30
0.0
 10
39.84426350476741
 20
0.1707082262322253
 30
0.0
  0
LINE
  5
B8
330
1F
100
AcDbEntity
  8
Layer 01
370
    -3
100
AcDbLine
 10
38.72956804827218
 20
0.0000000000000031
 30
0.0
 11
39.68677854134742
 21
0.0000000000002238
 31
0.0
  0
SPLINE
  5
B9
330
1F
100
AcDbEntity
  8
Layer 01
370
    -3
100
AcDbSpline
210
0.0
220
0.0
230
1.0
 70
    12
 71
     3
 72
     8
 73
     4
 74
     0
 42
0.000000001
 43
0.0000000001
 40
0.0
 40
0.0
 40
0.0
 40
0.0
 40
0.2751340185007014
 40
0.2751340185007014
 40
0.2751340185007014
 40
0.2751340185007014
 10
38.57253757075487
 20
0.1405743890090661
 30
0.0
 41
1.146079204581115
 10
38.58187193272322
 20
0.0564519464566266
 30
0.0
 41
0.9513069318030081
 10
38.64493232495744
 20
-0.0000000000011297
 30
0.0
 41
0.9513069318062949
 10
38.72956804827218
 20
0.0000000000000031
 30
0.0
 41
1.146079204590976
  0
LINE
  5
BA
330
1F
100
AcDbEntity
  8
Layer 01
370
    -3
100
AcDbLine
 10
37.89985748947631
 20
6.357600000000229
 30
0.0
 11
24.44318701980844
 21
6.357600000000229
 31
0.0
  0
LINE
  5
BB
330
1F
100
AcDbEntity
  8
Layer 01
370
    -3
100
AcDbLine
 10
24.37573097325298
 20
5.982600000000222
 30
0.0
 11
37.93917773857395
 21
5.982600000000222
 31
0.0
  0
SPLINE
  5
BC
330
1F
100
AcDbEntity
  8
Layer 01
370
    -3
100
AcDbSpline
210
0.0
220
0.0
230
1.0
 70
     8
 71
     2
 72
     9
 73
     6
 74
     0
 42
0.000000001
 43
0.0000000001
 40
0.0
 40
0.0
 40
0.0
 40
1.0
 40
2.0
 40
3.0
 40
4.0
 40
4.0
 40
4.0
 10
36.45114187170961
 20
21.02830090817418
 30
0.0
 10
35.26378716066553
 20
20.9227442959442
 30
0.0
 10
32.88286127978638
 20
20.80240736221612
 30
0.0
 10
30.50041547815346
 20
20.72322733016879
 30
0.0
 10
28.11777124513366
 20
20.6452016830373
 30
0.0
 10
26.9259936289376
 20
20.63845995914982
 30
0.0
  0
SPLINE
  5
BD
330
1F
100
AcDbEntity
  8
Layer 01
370
    -3
100
AcDbSpline
210
0.0
220
0.0
230
1.0
 70
     8
 71
     2
 72
    53
 73
    50
 74
     0
 42
0.000000001
 43
0.0000000001
 40
10.0
 40
10.0
 40
10.0
 40
11.0
 40
12.0
 40
13.0
 40
14.0
 40
15.0
 40
16.0
 40
17.0
 40
18.0
 40
19.0
 40
20.0
 40
21.0
 40
22.0
 40
23.0
 40
24.0
 40
25.0
 40
26.0
 40
27.0
 40
28.0
 40
29.0
 40
30.0
 40
31.0
 40
32.0
 40
33.0
 40
34.0
 40
35.0
 40
36.0
 40
37.0
 40
38.0
 40
39.0
 40
40.0
 40
41.0
 40
42.0
 40
43.0
 40
44.0
 40
45.0
 40
46.0
 40
47.0
 40
48.0
 40
49.0
 40
50.0
 40
51.0
 40
52.0
 40
53.0
 40
54.0
 40
55.0
 40
56.0
 40
57.0
 40
58.0
 40
58.0
 40
58.0
 10
33.34687989799347
 20
24.36198658832171
 30
0.0
 10
32.9911384607668
 20
24.39614786634025
 30
0.0
 10
32.27955160037821
 20
24.46337840007224
 30
0.0
 10
31.56798217439085
 20
24.53079208717328
 30
0.0
 10
30.85636529152645
 20
24.59770503496848
 30
0.0
 10
30.14474204823529
 20
24.66454192823301
 30
0.0
 10
29.43316567662248
 20
24.73192092765842
 30
0.0
 10
28.72164367554721
 20
24.79961203612587
 30
0.0
 10
28.00982108029326
 20
24.86567974456799
 30
0.0
 10
27.29967706403834
 20
24.94037902264669
 30
0.0
 10
26.59541764624116
 20
25.10277927032637
 30
0.0
 10
26.04952764268286
 20
25.59085238756789
 30
0.0
 10
25.81227036310282
 20
26.27349476951496
 30
0.0
 10
25.64807323707261
 20
26.96827489348414
 30
0.0
 10
25.48152853025095
 20
27.66350466567361
 30
0.0
 10
25.31443282138783
 20
28.35842856547016
 30
0.0
 10
25.14782463631299
 20
29.05349946292078
 30
0.0
 10
24.98073944563054
 20
29.74845045562498
 30
0.0
 10
24.81488369654315
 20
30.44369742546561
 30
0.0
 10
24.65044934219604
 20
31.13927768111718
 30
0.0
 10
24.48455750911866
 20
31.83453888391692
 30
0.0
 10
24.31768869322107
 20
32.5294073500964
 30
0.0
 10
24.15070443119882
 20
33.22517245385526
 30
0.0
 10
23.87910375235566
 20
33.8884602374558
 30
0.0
 10
23.46475596178858
 20
34.47395434818525
 30
0.0
 10
22.88925067178982
 20
34.92385201337801
 30
0.0
 10
22.17877162093112
 20
35.00460811801914
 30
0.0
 10
21.42721245060396
 20
34.92975351048619
 30
0.0
 10
21.17414165036028
 20
34.2167441444436
 30
0.0
 10
21.21391359183168
 20
33.501643084934
 30
0.0
 10
21.27830903898185
 20
32.79004319336288
 30
0.0
 10
21.36450707346575
 20
32.08041292509672
 30
0.0
 10
21.45047534493998
 20
31.37086104052084
 30
0.0
 10
21.5407050954153
 20
30.66181745737791
 30
0.0
 10
21.63674635832672
 20
29.95353952971036
 30
0.0
 10
21.73963784495938
 20
29.24622213345743
 30
0.0
 10
21.84932474535615
 20
28.53992683229716
 30
0.0
 10
21.96689290536457
 20
27.83489794112329
 30
0.0
 10
22.09347165549705
 20
27.13142828295291
 30
0.0
 10
22.23043411522764
 20
26.42990238721914
 30
0.0
 10
22.37943927660109
 20
25.7308292562274
 30
0.0
 10
22.54240234481759
 20
25.03487168363523
 30
0.0
 10
22.72160159348182
 20
24.34289948197498
 30
0.0
 10
22.92342450626587
 20
23.65711036943539
 30
0.0
 10
23.16726540426036
 20
22.98475088164848
 30
0.0
 10
23.48584439359941
 20
22.34352456971523
 30
0.0
 10
23.91275404096831
 20
21.76721448516503
 30
0.0
 10
24.45651700383217
 20
21.29847505133272
 30
0.0
 10
25.09289505038356
 20
20.96719810708371
 30
0.0
 10
25.43650377464176
 20
20.86524308057398
 30
0.0
  0
SPLINE
  5
BE
330
1F
100
AcDbEntity
  8
Layer 01
370
    -3
100
AcDbSpline
210
0.0
220
0.0
230
1.0
 70
     8
 71
     2
 72
    15
 73
    12
 74
     0
 42
0.000000001
 43
0.0000000001
 40
0.0
 40
0.0
 40
0.0
 40
1.000000149892421
 40
2.000000299784842
 40
3.000000449677263
 40
4.000000599569685
 40
5.000000749462107
 40
6.000000899354528
 40
7.000001049246949
 40
8.00000119913937
 40
9.000001349031791
 40
10.0
 40
10.0
 40
10.0
 10
36.41929093829837
 20
22.87072557406398
 30
0.0
 10
36.24015229161049
 20
22.86960709824874
 30
0.0
 10
35.88140335294052
 20
22.87718166936551
 30
0.0
 10
35.5270579627697
 20
22.93801520043766
 30
0.0
 10
35.20789401097042
 20
23.10846902837815
 30
0.0
 10
34.95069563009081
 20
23.36013312591802
 30
0.0
 10
34.72794555687899
 20
23.64112842614312
 30
0.0
 10
34.48447181257946
 20
23.90454397608746
 30
0.0
 10
34.20485063833585
 20
24.13062480097011
 30
0.0
 10
33.87979782567883
 20
24.28624290744302
 30
0.0
 10
33.52559091605195
 20
24.34860348434947
 30
0.0
 10
33.34687989799347
 20
24.36198658832171
 30
0.0
  0
SPLINE
  5
BF
330
1F
100
AcDbEntity
  8
Layer 01
370
    -3
100
AcDbSpline
210
0.0
220
0.0
230
1.0
 70
     8
 71
     2
 72
    25
 73
    22
 74
     0
 42
0.000000001
 43
0.0000000001
 40
-20.0
 40
-20.0
 40
-20.0
 40
-18.99999998807907
 40
-17.99999997615814
 40
-16.99999996423721
 40
-15.99999995231628
 40
-14.99999994039536
 40
-13.99999992847443
 40
-12.9999999165535
 40
-11.99999990463257
 40
-10.99999989271164
 40
-9.999999880790709
 40
-8.99999986886978
 40
-7.999999856948851
 40
-6.999999845027922
 40
-5.999999833106993
 40
-4.999999821186064
 40
-3.999999809265135
 40
-2.999999797344206
 40
-1.999999785423276
 40
-0.9999997735023471
 40
0.0
 40
0.0
 40
0.0
 10
37.93405178641851
 20
21.2004371709013
 30
0.0
 10
38.09153574808848
 20
21.22369119013216
 30
0.0
 10
38.40581717135598
 20
21.27471734990563
 30
0.0
 10
38.71849397243354
 20
21.33491668521834
 30
0.0
 10
39.02790921019968
 20
21.41014674914588
 30
0.0
 10
39.33315192649042
 20
21.50146186407078
 30
0.0
 10
39.62780597196073
 20
21.6218940661799
 30
0.0
 10
39.89916812994139
 20
21.79792815083773
 30
0.0
 10
40.03920525743241
 20
22.09320218440132
 30
0.0
 10
39.97226985852111
 20
22.41699289133068
 30
0.0
 10
39.73202014087563
 20
22.63427111314268
 30
0.0
 10
39.43464427244382
 20
22.7538257157648
 30
0.0
 10
39.12285969744444
 20
22.81980391371451
 30
0.0
 10
38.80656917306104
 20
22.85731625394571
 30
0.0
 10
38.4885233072801
 20
22.87353999946564
 30
0.0
 10
38.17027369972852
 20
22.88267713624927
 30
0.0
 10
37.85190637486175
 20
22.88640295428196
 30
0.0
 10
37.5335224566556
 20
22.88582781392321
 30
0.0
 10
37.21515882786456
 20
22.88237210682502
 30
0.0
 10
36.8968103533516
 20
22.87779933864674
 30
0.0
 10
36.5784642762444
 20
22.87306838426158
 30
0.0
 10
36.41929093829837
 20
22.87072557406398
 30
0.0
  0
SPLINE
  5
C0
330
1F
100
AcDbEntity
  8
Layer 01
370
    -3
100
AcDbSpline
210
0.0
220
0.0
230
1.0
 70
     8
 71
     2
 72
    38
 73
    35
 74
     0
 42
0.000000001
 43
0.0000000001
 40
0.4226922760117803
 40
0.4226922760117803
 40
0.4226922760117803
 40
1.0
 40
2.0
 40
3.0
 40
4.0
 40
5.0
 40
6.0
 40
7.0
 40
8.0
 40
9.0
 40
10.0
 40
11.0
 40
12.0
 40
13.0
 40
14.0
 40
15.0
 40
16.0
 40
17.0
 40
18.0
 40
19.0
 40
20.0
 40
21.0
 40
22.0
 40
23.0
 40
24.0
 40
25.0
 40
26.0
 40
27.0
 40
28.0
 40
29.0
 40
30.0
 40
31.0
 40
32.0
 40
32.42113600819457
 40
32.42113600819457
 40
32.42113600819457
 10
39.6257054642019
 20
22.67575305987675
 30
0.0
 10
39.70546360649047
 20
22.69443972012779
 30
0.0
 10
39.89544212311756
 20
22.834366574998
 30
0.0
 10
39.9498060480858
 20
23.1272367846348
 30
0.0
 10
39.96223001674147
 20
23.41531227475259
 30
0.0
 10
39.95348889812254
 20
23.70349812518159
 30
0.0
 10
39.90379219629395
 20
23.99651864641838
 30
0.0
 10
39.66835531600607
 20
24.17945012366013
 30
0.0
 10
39.39872568850525
 20
24.28442276707521
 30
0.0
 10
39.11822603655243
 20
24.35592700630048
 30
0.0
 10
38.83313116119288
 20
24.40477911641353
 30
0.0
 10
38.54583131941684
 20
24.43810767523922
 30
0.0
 10
38.25762724564626
 20
24.46191634189179
 30
0.0
 10
37.96889808284017
 20
24.4781155646856
 30
0.0
 10
37.6799073189789
 20
24.48855925286231
 30
0.0
 10
37.39076957139589
 20
24.49322185366225
 30
0.0
 10
37.10159876771532
 20
24.49409991189898
 30
0.0
 10
36.81243280595515
 20
24.49546872709612
 30
0.0
 10
36.52326525375643
 20
24.49657414584389
 30
0.0
 10
36.23409698572181
 20
24.49744735738744
 30
0.0
 10
35.94492786563141
 20
24.49798476706061
 30
0.0
 10
35.65575824852904
 20
24.49810608943016
 30
0.0
 10
35.36658886831678
 20
24.49772597125179
 30
0.0
 10
35.07742075992298
 20
24.49676623033105
 30
0.0
 10
34.78825492428013
 20
24.49528308284686
 30
0.0
 10
34.49909173993468
 20
24.49335289821627
 30
0.0
 10
34.20993131178387
 20
24.49104858096072
 30
0.0
 10
33.92077344791426
 20
24.48844365184604
 30
0.0
 10
33.63161773235726
 20
24.48561132410666
 30
0.0
 10
33.34246355908992
 20
24.48262597594644
 30
0.0
 10
33.05331030502556
 20
24.47955525973422
 30
0.0
 10
32.76415793490326
 20
24.47640359978768
 30
0.0
 10
32.47500640957992
 20
24.47317023650283
 30
0.0
 10
32.2695452336059
 20
24.47081474927081
 30
0.0
 10
32.20865944957457
 20
24.4701094942788
 30
0.0
  0
SPLINE
  5
C1
330
1F
100
AcDbEntity
  8
Layer 01
370
    -3
100
AcDbSpline
210
0.0
220
0.0
230
1.0
 70
     8
 71
     2
 72
    19
 73
    16
 74
     0
 42
0.000000001
 43
0.0000000001
 40
0.0
 40
0.0
 40
0.0
 40
1.0
 40
2.0
 40
3.0
 40
4.0
 40
5.0
 40
6.0
 40
7.0
 40
8.0
 40
9.0
 40
10.0
 40
11.0
 40
12.0
 40
13.0
 40
14.0
 40
14.0
 40
14.0
 10
34.24870853350687
 20
24.08868703809721
 30
0.0
 10
34.45140852171325
 20
24.09111594989195
 30
0.0
 10
34.85679843916834
 20
24.09674802087453
 30
0.0
 10
35.26219444168028
 20
24.10191604307339
 30
0.0
 10
35.66759282189287
 20
24.10692530507598
 30
0.0
 10
36.07300465657711
 20
24.11063406298272
 30
0.0
 10
36.47842630717931
 20
24.11335302795714
 30
0.0
 10
36.88384475424314
 20
24.10853322062925
 30
0.0
 10
37.28918496378181
 20
24.11851864278764
 30
0.0
 10
37.69457861289452
 20
24.12340082089896
 30
0.0
 10
38.10001841523986
 20
24.12356814800934
 30
0.0
 10
38.50541105489372
 20
24.12282452841383
 30
0.0
 10
38.91102743234117
 20
24.11817800276134
 30
0.0
 10
39.31490685205691
 20
24.09586207022305
 30
0.0
 10
39.72443763554585
 20
24.05990140295571
 30
0.0
 10
39.89815741003741
 20
23.95190445762517
 30
0.0
  0
ENDSEC
  0
SECTION
  2
OBJECTS
  0
DICTIONARY
  5
C
330
0
100
AcDbDictionary
281
     1
  3
ACAD_DETAILVIEWSTYLE
350
FD
  3
ACAD_GROUP
350
D
  3
ACAD_LAYOUT
350
1A
  3
ACAD_MATERIAL
350
43
  3
ACAD_MLEADERSTYLE
350
6B
  3
ACAD_MLINESTYLE
350
17
  3
ACAD_PLOTSETTINGS
350
19
  3
ACAD_PLOTSTYLENAME
350
E
  3
ACAD_SCALELIST
350
47
  3
ACAD_SECTIONVIEWSTYLE
350
FE
  3
ACAD_TABLESTYLE
350
69
  3
ACAD_VISUALSTYLE
350
2A
  3
ACDB_RECOMPOSE_DATA
350
FA
  3
AcDbVariableDictionary
350
C2
  0
SUN
  5
6D
330
29
100
AcDbSun
 90
        1
290
     0
 63
     7
421
 16777215
 40
1.0
291
     1
 91
  2455826
 92
 54000000
292
     0
 70
     2
 71
   256
280
     1
  0
DICTIONARY
  5
FD
102
{ACAD_REACTORS
330
C
102
}
330
C
100
AcDbDictionary
281
     1
  0
DICTIONARY
  5
D
102
{ACAD_REACTORS
330
C
102
}
330
C
100
AcDbDictionary
281
     1
  0
DICTIONARY
  5
1A
102
{ACAD_REACTORS
330
C
102
}
330
C
100
AcDbDictionary
281
     1
  3
Layout1
350
1E
  3
Layout2
350
26
  3
Model
350
22
  0
DICTIONARY
  5
43
102
{ACAD_REACTORS
330
C
102
}
330
C
100
AcDbDictionary
281
     1
  3
ByBlock
350
45
  3
ByLayer
350
44
  3
Global
350
46
  0
DICTIONARY
  5
6B
102
{ACAD_REACTORS
330
C
102
}
330
C
100
AcDbDictionary
281
     1
  3
Standard
350
6C
  0
DICTIONARY
  5
17
102
{ACAD_REACTORS
330
C
102
}
330
C
100
AcDbDictionary
281
     1
  3
Standard
350
18
  0
DICTIONARY
  5
19
102
{ACAD_REACTORS
330
C
102
}
330
C
100
AcDbDictionary
281
     1
  0
ACDBDICTIONARYWDFLT
  5
E
102
{ACAD_REACTORS
330
C
102
}
330
C
100
AcDbDictionary
281
     1
  3
Normal
350
F
100
AcDbDictionaryWithDefault
340
F
  0
DICTIONARY
  5
47
102
{ACAD_REACTORS
330
C
102
}
330
C
100
AcDbDictionary
281
     1
  3
A0
350
48
  3
A1
350
49
  3
A2
350
4A
  3
A3
350
4B
  3
A4
350
4C
  3
A5
350
4D
  3
A6
350
4E
  3
A7
350
4F
  3
A8
350
50
  3
A9
350
51
  3
B0
350
52
  3
B1
350
53
  3
B2
350
54
  3
B3
350
55
  3
B4
350
56
  3
B5
350
57
  3
B6
350
58
  3
B7
350
59
  3
B8
350
5A
  3
B9
350
5B
  3
C0
350
5C
  3
C1
350
5D
  3
C2
350
5E
  3
C3
350
5F
  3
C4
350
60
  3
C5
350
61
  3
C6
350
62
  3
C7
350
63
  3
C8
350
64
  3
C9
350
65
  3
D0
350
66
  3
D1
350
67
  3
D2
350
68
  0
DICTIONARY
  5
FE
102
{ACAD_REACTORS
330
C
102
}
330
C
100
AcDbDictionary
281
     1
  0
DICTIONARY
  5
69
102
{ACAD_REACTORS
330
C
102
}
330
C
100
AcDbDictionary
281
     1
  3
Standard
350
6A
  0
DICTIONARY
  5
2A
102
{ACAD_REACTORS
330
C
102
}
330
C
100
AcDbDictionary
281
     1
  3
2dWireframe
350
2F
  3
Basic
350
32
  3
Brighten
350
36
  3
ColorChange
350
3A
  3
Conceptual
350
34
  3
Dim
350
35
  3
EdgeColorOff
350
3D
  3
Facepattern
350
39
  3
Flat
350
2B
  3
FlatWithEdges
350
2C
  3
Gouraud
350
2D
  3
GouraudWithEdges
350
2E
  3
Hidden
350
31
  3
JitterOff
350
3B
  3
Linepattern
350
38
  3
OverhangOff
350
3C
  3
Realistic
350
33
  3
Shaded
350
42
  3
Shaded with edges
350
41
  3
Shades of Gray
350
3E
  3
Sketchy
350
3F
  3
Thicken
350
37
  3
Wireframe
350
30
  3
X-Ray
350
40
  0
XRECORD
  5
FA
102
{ACAD_REACTORS
330
C
102
}
330
C
100
AcDbXrecord
280
     1
 90
        1
330
6A
  0
DICTIONARY
  5
C2
102
{ACAD_REACTORS
330
C
102
}
330
C
100
AcDbDictionary
281
     1
  3
CANNOSCALE
350
C3
  3
CMLEADERSTYLE
350
FC
  3
CTABLESTYLE
350
FB
  3
XCLIPFRAME
350
C4
  0
LAYOUT
  5
1E
102
{ACAD_REACTORS
330
1A
102
}
330
1A
100
AcDbPlotSettings
  1

  2
none_device
  4

  6

 40
0.0
 41
0.0
 42
0.0
 43
0.0
 44
0.0
 45
0.0
 46
0.0
 47
0.0
 48
0.0
 49
0.0
140
0.0
141
0.0
142
1.0
143
1.0
 70
   688
 72
     0
 73
     0
 74
     5
  7

 75
    16
 76
     0
 77
     2
 78
   300
147
1.0
148
0.0
149
0.0
100
AcDbLayout
  1
Layout1
 70
     1
 71
     1
 10
0.0
 20
0.0
 11
12.0
 21
9.0
 12
0.0
 22
0.0
 32
0.0
 14
1.000000000000000E+20
 24
1.000000000000000E+20
 34
1.000000000000000E+20
 15
-1.000000000000000E+20
 25
-1.000000000000000E+20
 35
-1.000000000000000E+20
146
0.0
 13
0.0
 23
0.0
 33
0.0
 16
1.0
 26
0.0
 36
0.0
 17
0.0
 27
1.0
 37
0.0
 76
     0
330
1B
  0
LAYOUT
  5
26
102
{ACAD_REACTORS
330
1A
102
}
330
1A
100
AcDbPlotSettings
  1

  2
none_device
  4

  6

 40
0.0
 41
0.0
 42
0.0
 43
0.0
 44
0.0
 45
0.0
 46
0.0
 47
0.0
 48
0.0
 49
0.0
140
0.0
141
0.0
142
1.0
143
1.0
 70
   688
 72
     0
 73
     0
 74
     5
  7

 75
    16
 76
     0
 77
     2
 78
   300
147
1.0
148
0.0
149
0.0
100
AcDbLayout
  1
Layout2
 70
     1
 71
     2
 10
0.0
 20
0.0
 11
0.0
 21
0.0
 12
0.0
 22
0.0
 32
0.0
 14
0.0
 24
0.0
 34
0.0
 15
0.0
 25
0.0
 35
0.0
146
0.0
 13
0.0
 23
0.0
 33
0.0
 16
1.0
 26
0.0
 36
0.0
 17
0.0
 27
1.0
 37
0.0
 76
     0
330
23
  0
LAYOUT
  5
22
102
{ACAD_REACTORS
330
1A
102
}
330
1A
100
AcDbPlotSettings
  1

  2
none_device
  4
Letter_(8.50_x_11.00_Inches)
  6

 40
6.35
 41
6.35
 42
6.35000508
 43
6.35000508
 44
215.9
 45
279.4
 46
0.0
 47
0.0
 48
0.0
 49
0.0
140
0.0
141
0.0
142
1.0
143
1.0
 70
  1712
 72
     0
 73
     0
 74
     0
  7

 75
     0
 76
     0
 77
     2
 78
   300
147
1.0
148
0.0
149
0.0
100
AcDbLayout
  1
Model
 70
     1
 71
     0
 10
0.0
 20
0.0
 11
12.0
 21
9.0
 12
0.0
 22
0.0
 32
0.0
 14
1.000000000000000E+20
 24
1.000000000000000E+20
 34
1.000000000000000E+20
 15
-1.000000000000000E+20
 25
-1.000000000000000E+20
 35
-1.000000000000000E+20
146
0.0
 13
0.0
 23
0.0
 33
0.0
 16
1.0
 26
0.0
 36
0.0
 17
0.0
 27
1.0
 37
0.0
 76
     0
330
1F
331
29
  0
MATERIAL
  5
45
102
{ACAD_REACTORS
330
43
102
}
330
43
100
AcDbMaterial
  1
ByBlock
 72
     1
 94
      127
  0
MATERIAL
  5
44
102
{ACAD_REACTORS
330
43
102
}
330
43
100
AcDbMaterial
  1
ByLayer
 72
     1
 94
      127
  0
MATERIAL
  5
46
102
{ACAD_REACTORS
330
43
102
}
330
43
100
AcDbMaterial
  1
Global
 72
     1
 94
      127
  0
MLEADERSTYLE
  5
6C
102
{ACAD_REACTORS
330
6B
102
}
102
{ACAD_XDICTIONARY
360
F8
102
}
330
6B
100
AcDbMLeaderStyle
170
     2
171
     1
172
     0
 90
        2
 40
0.0
 41
0.0
173
     1
 91
-1056964608
340
14
 92
       -2
290
     1
 42
0.09
291
     1
 43
0.36
  3
Standard
341
0
 44
0.18
300

342
11
174
     1
178
     6
175
     1
176
     0
 93
-1056964608
 45
0.18
292
     0
297
     0
 46
0.18
343
0
 94
-1056964608
 47
1.0
 49
1.0
140
1.0
293
     1
141
0.0
294
     1
177
     0
142
1.0
295
     0
296
     0
143
0.125
1001
ACAD_MLEADERVER
1070
     2
  0
MLINESTYLE
  5
18
102
{ACAD_REACTORS
330
17
102
}
330
17
100
AcDbMlineStyle
  2
Standard
 70
     0
  3

 62
   256
 51
90.0
 52
90.0
 71
     2
 49
0.5
 62
   256
  6
BYLAYER
 49
-0.5
 62
   256
  6
BYLAYER
  0
ACDBPLACEHOLDER
  5
F
102
{ACAD_REACTORS
330
E
102
}
330
E
  0
SCALE
  5
48
102
{ACAD_REACTORS
330
47
102
}
330
47
100
AcDbScale
 70
     0
300
1:1
140
1.0
141
1.0
290
     1
  0
SCALE
  5
49
102
{ACAD_REACTORS
330
47
102
}
330
47
100
AcDbScale
 70
     0
300
1:2
140
1.0
141
2.0
290
     0
  0
SCALE
  5
4A
102
{ACAD_REACTORS
330
47
102
}
330
47
100
AcDbScale
 70
     0
300
1:4
140
1.0
141
4.0
290
     0
  0
SCALE
  5
4B
102
{ACAD_REACTORS
330
47
102
}
330
47
100
AcDbScale
 70
     0
300
1:5
140
1.0
141
5.0
290
     0
  0
SCALE
  5
4C
102
{ACAD_REACTORS
330
47
102
}
330
47
100
AcDbScale
 70
     0
300
1:8
140
1.0
141
8.0
290
     0
  0
SCALE
  5
4D
102
{ACAD_REACTORS
330
47
102
}
330
47
100
AcDbScale
 70
     0
300
1:10
140
1.0
141
10.0
290
     0
  0
SCALE
  5
4E
102
{ACAD_REACTORS
330
47
102
}
330
47
100
AcDbScale
 70
     0
300
1:16
140
1.0
141
16.0
290
     0
  0
SCALE
  5
4F
102
{ACAD_REACTORS
330
47
102
}
330
47
100
AcDbScale
 70
     0
300
1:20
140
1.0
141
20.0
290
     0
  0
SCALE
  5
50
102
{ACAD_REACTORS
330
47
102
}
330
47
100
AcDbScale
 70
     0
300
1:30
140
1.0
141
30.0
290
     0
  0
SCALE
  5
51
102
{ACAD_REACTORS
330
47
102
}
330
47
100
AcDbScale
 70
     0
300
1:40
140
1.0
141
40.0
290
     0
  0
SCALE
  5
52
102
{ACAD_REACTORS
330
47
102
}
330
47
100
AcDbScale
 70
     0
300
1:50
140
1.0
141
50.0
290
     0
  0
SCALE
  5
53
102
{ACAD_REACTORS
330
47
102
}
330
47
100
AcDbScale
 70
     0
300
1:100
140
1.0
141
100.0
290
     0
  0
SCALE
  5
54
102
{ACAD_REACTORS
330
47
102
}
330
47
100
AcDbScale
 70
     0
300
2:1
140
2.0
141
1.0
290
     0
  0
SCALE
  5
55
102
{ACAD_REACTORS
330
47
102
}
330
47
100
AcDbScale
 70
     0
300
4:1
140
4.0
141
1.0
290
     0
  0
SCALE
  5
56
102
{ACAD_REACTORS
330
47
102
}
330
47
100
AcDbScale
 70
     0
300
8:1
140
8.0
141
1.0
290
     0
  0
SCALE
  5
57
102
{ACAD_REACTORS
330
47
102
}
330
47
100
AcDbScale
 70
     0
300
10:1
140
10.0
141
1.0
290
     0
  0
SCALE
  5
58
102
{ACAD_REACTORS
330
47
102
}
330
47
100
AcDbScale
 70
     0
300
100:1
140
100.0
141
1.0
290
     0
  0
SCALE
  5
59
102
{ACAD_REACTORS
330
47
102
}
330
47
100
AcDbScale
 70
     0
300
1/128" = 1'-0"
140
0.0078125
141
12.0
290
     0
  0
SCALE
  5
5A
102
{ACAD_REACTORS
330
47
102
}
330
47
100
AcDbScale
 70
     0
300
1/64" = 1'-0"
140
0.015625
141
12.0
290
     0
  0
SCALE
  5
5B
102
{ACAD_REACTORS
330
47
102
}
330
47
100
AcDbScale
 70
     0
300
1/32" = 1'-0"
140
0.03125
141
12.0
290
     0
  0
SCALE
  5
5C
102
{ACAD_REACTORS
330
47
102
}
330
47
100
AcDbScale
 70
     0
300
1/16" = 1'-0"
140
0.0625
141
12.0
290
     0
  0
SCALE
  5
5D
102
{ACAD_REACTORS
330
47
102
}
330
47
100
AcDbScale
 70
     0
300
3/32" = 1'-0"
140
0.09375
141
12.0
290
     0
  0
SCALE
  5
5E
102
{ACAD_REACTORS
330
47
102
}
330
47
100
AcDbScale
 70
     0
300
1/8" = 1'-0"
140
0.125
141
12.0
290
     0
  0
SCALE
  5
5F
102
{ACAD_REACTORS
330
47
102
}
330
47
100
AcDbScale
 70
     0
300
3/16" = 1'-0"
140
0.1875
141
12.0
290
     0
  0
SCALE
  5
60
102
{ACAD_REACTORS
330
47
102
}
330
47
100
AcDbScale
 70
     0
300
1/4" = 1'-0"
140
0.25
141
12.0
290
     0
  0
SCALE
  5
61
102
{ACAD_REACTORS
330
47
102
}
330
47
100
AcDbScale
 70
     0
300
3/8" = 1'-0"
140
0.375
141
12.0
290
     0
  0
SCALE
  5
62
102
{ACAD_REACTORS
330
47
102
}
330
47
100
AcDbScale
 70
     0
300
1/2" = 1'-0"
140
0.5
141
12.0
290
     0
  0
SCALE
  5
63
102
{ACAD_REACTORS
330
47
102
}
330
47
100
AcDbScale
 70
     0
300
3/4" = 1'-0"
140
0.75
141
12.0
290
     0
  0
SCALE
  5
64
102
{ACAD_REACTORS
330
47
102
}
330
47
100
AcDbScale
 70
     0
300
1" = 1'-0"
140
1.0
141
12.0
290
     0
  0
SCALE
  5
65
102
{ACAD_REACTORS
330
47
102
}
330
47
100
AcDbScale
 70
     0
300
1-1/2" = 1'-0"
140
1.5
141
12.0
290
     0
  0
SCALE
  5
66
102
{ACAD_REACTORS
330
47
102
}
330
47
100
AcDbScale
 70
     0
300
3" = 1'-0"
140
3.0
141
12.0
290
     0
  0
SCALE
  5
67
102
{ACAD_REACTORS
330
47
102
}
330
47
100
AcDbScale
 70
     0
300
6" = 1'-0"
140
6.0
141
12.0
290
     0
  0
SCALE
  5
68
102
{ACAD_REACTORS
330
47
102
}
330
47
100
AcDbScale
 70
     0
300
1'-0" = 1'-0"
140
12.0
141
12.0
290
     0
  0
TABLESTYLE
  5
6A
102
{ACAD_REACTORS
330
69
102
}
102
{ACAD_XDICTIONARY
360
F5
102
}
330
69
100
AcDbTableStyle
  3
Standard
 70
     0
 71
     0
 40
0.06
 41
0.06
280
     0
281
     0
  7
Standard
140
0.18
170
     2
 62
     0
 63
   257
283
     0
 90
        4
 91
        0
  1

274
    -2
284
     1
 64
     0
275
    -2
285
     1
 65
     0
276
    -2
286
     1
 66
     0
277
    -2
287
     1
 67
     0
278
    -2
288
     1
 68
     0
279
    -2
289
     1
 69
     0
  7
Standard
140
0.25
170
     5
 62
     0
 63
   257
283
     0
 90
        4
 91
        0
  1

274
    -2
284
     1
 64
     0
275
    -2
285
     1
 65
     0
276
    -2
286
     1
 66
     0
277
    -2
287
     1
 67
     0
278
    -2
288
     1
 68
     0
279
    -2
289
     1
 69
     0
  7
Standard
140
0.18
170
     5
 62
     0
 63
   257
283
     0
 90
        4
 91
        0
  1

274
    -2
284
     1
 64
     0
275
    -2
285
     1
 65
     0
276
    -2
286
     1
 66
     0
277
    -2
287
     1
 67
     0
278
    -2
288
     1
 68
     0
279
    -2
289
     1
 69
     0
  0
VISUALSTYLE
  5
2F
102
{ACAD_REACTORS
330
2A
102
}
102
{ACAD_XDICTIONARY
360
CD
102
}
330
2A
100
AcDbVisualStyle
  2
2dWireframe
 70
     4
 71
     0
 72
     2
 73
     0
 90
        0
 40
0.6
 41
30.0
 62
     5
 63
     7
421
 16777215
 74
     1
 91
        4
 64
     7
 65
   257
 75
     1
175
     1
 42
1.0
 92
        0
 66
   257
 43
1.0
 76
     1
 77
     6
 78
     2
 67
     7
 79
     5
170
     0
171
     0
290
     0
174
     0
 93
        1
 44
0.0
173
     0
291
     0
 45
0.0
  0
VISUALSTYLE
  5
32
102
{ACAD_REACTORS
330
2A
102
}
102
{ACAD_XDICTIONARY
360
D3
102
}
330
2A
100
AcDbVisualStyle
  2
Basic
 70
     7
 71
     1
 72
     0
 73
     1
 90
        0
 40
0.6
 41
30.0
 62
     5
 63
     7
421
 16777215
 74
     0
 91
        4
 64
     7
 65
   257
 75
     1
175
     1
 42
1.0
 92
        8
 66
     7
 43
1.0
 76
     1
 77
     6
 78
     2
 67
     7
 79
     5
170
     0
171
     0
290
     0
174
     0
 93
        1
 44
0.0
173
     0
291
     1
 45
0.0
  0
VISUALSTYLE
  5
36
102
{ACAD_REACTORS
330
2A
102
}
102
{ACAD_XDICTIONARY
360
DB
102
}
330
2A
100
AcDbVisualStyle
  2
Brighten
 70
    12
 71
     2
 72
     2
 73
     0
 90
        0
 40
0.6
 41
30.0
 62
     5
 63
     7
421
 16777215
 74
     1
 91
        4
 64
     7
 65
   257
 75
     1
175
     1
 42
1.0
 92
        8
 66
     7
 43
1.0
 76
     1
 77
     6
 78
     2
 67
     7
 79
     5
170
     0
171
     0
290
     0
174
     0
 93
        1
 44
50.0
173
     0
291
     1
 45
0.0
  0
VISUALSTYLE
  5
3A
102
{ACAD_REACTORS
330
2A
102
}
102
{ACAD_XDICTIONARY
360
E3
102
}
330
2A
100
AcDbVisualStyle
  2
ColorChange
 70
    16
 71
     2
 72
     2
 73
     3
 90
        0
 40
0.6
 41
30.0
 62
     5
 63
     8
421
  8421504
 74
     1
 91
        4
 64
     7
 65
   257
 75
     1
175
     1
 42
1.0
 92
        8
 66
     8
424
  8421504
 43
1.0
 76
     1
 77
     6
 78
     2
 67
     7
 79
     5
170
     0
171
     0
290
     0
174
     0
 93
        1
 44
0.0
173
     0
291
     1
 45
0.0
  0
VISUALSTYLE
  5
34
102
{ACAD_REACTORS
330
2A
102
}
102
{ACAD_XDICTIONARY
360
D7
102
}
330
2A
100
AcDbVisualStyle
  2
Conceptual
 70
     9
 71
     3
 72
     2
 73
     0
 90
        0
 40
0.6
 41
30.0
 62
     5
 63
     7
421
 16777215
 74
     2
 91
        2
 64
     7
 65
   257
 75
     1
175
     1
 42
179.0
 92
        8
 66
     7
 43
1.0
 76
     1
 77
     6
 78
     2
 67
     7
 79
     3
170
     0
171
     0
290
     0
174
     0
 93
        1
 44
0.0
173
     0
291
     0
 45
0.0
  0
VISUALSTYLE
  5
35
102
{ACAD_REACTORS
330
2A
102
}
102
{ACAD_XDICTIONARY
360
D9
102
}
330
2A
100
AcDbVisualStyle
  2
Dim
 70
    11
 71
     2
 72
     2
 73
     0
 90
        0
 40
0.6
 41
30.0
 62
     5
 63
     7
421
 16777215
 74
     1
 91
        4
 64
     7
 65
   257
 75
     1
175
     1
 42
1.0
 92
        8
 66
     7
 43
1.0
 76
     1
 77
     6
 78
     2
 67
     7
 79
     5
170
     0
171
     0
290
     0
174
     0
 93
        1
 44
-50.0
173
     0
291
     1
 45
0.0
  0
VISUALSTYLE
  5
3D
102
{ACAD_REACTORS
330
2A
102
}
102
{ACAD_XDICTIONARY
360
E9
102
}
330
2A
100
AcDbVisualStyle
  2
EdgeColorOff
 70
    22
 71
     2
 72
     2
 73
     0
 90
        0
 40
0.6
 41
30.0
 62
     5
 63
     7
421
 16777215
 74
     1
 91
        4
 64
     7
 65
   257
 75
     1
175
     1
 42
1.0
 92
        8
 66
     7
 43
1.0
 76
     1
 77
     6
 78
     2
 67
     7
 79
     5
170
     0
171
     0
290
     0
174
     0
 93
        1
 44
0.0
173
     0
291
     1
 45
0.0
  0
VISUALSTYLE
  5
39
102
{ACAD_REACTORS
330
2A
102
}
102
{ACAD_XDICTIONARY
360
E1
102
}
330
2A
100
AcDbVisualStyle
  2
Facepattern
 70
    15
 71
     2
 72
     2
 73
     0
 90
        0
 40
0.6
 41
30.0
 62
     5
 63
     7
421
 16777215
 74
     1
 91
        4
 64
     7
 65
   257
 75
     1
175
     1
 42
1.0
 92
        8
 66
     7
 43
1.0
 76
     1
 77
     6
 78
     2
 67
     7
 79
     5
170
     0
171
     0
290
     0
174
     0
 93
        1
 44
0.0
173
     0
291
     1
 45
0.0
  0
VISUALSTYLE
  5
2B
102
{ACAD_REACTORS
330
2A
102
}
102
{ACAD_XDICTIONARY
360
C5
102
}
330
2A
100
AcDbVisualStyle
  2
Flat
 70
     0
 71
     2
 72
     1
 73
     1
 90
        2
 40
0.6
 41
30.0
 62
     5
 63
     7
421
 16777215
 74
     0
 91
        0
 64
     7
 65
   257
 75
     1
175
     1
 42
1.0
 92
        8
 66
     7
 43
1.0
 76
     1
 77
     6
 78
     2
 67
     7
 79
     5
170
     0
171
     0
290
     0
174
     0
 93
       13
 44
0.0
173
     0
291
     1
 45
0.0
  0
VISUALSTYLE
  5
2C
102
{ACAD_REACTORS
330
2A
102
}
102
{ACAD_XDICTIONARY
360
C7
102
}
330
2A
100
AcDbVisualStyle
  2
FlatWithEdges
 70
     1
 71
     2
 72
     1
 73
     1
 90
        2
 40
0.6
 41
30.0
 62
     5
 63
     7
421
 16777215
 74
     1
 91
        0
 64
     7
 65
   257
 75
     1
175
     1
 42
1.0
 92
        0
 66
   257
 43
1.0
 76
     1
 77
     6
 78
     2
 67
     7
 79
     5
170
     0
171
     0
290
     0
174
     0
 93
       13
 44
0.0
173
     0
291
     1
 45
0.0
  0
VISUALSTYLE
  5
2D
102
{ACAD_REACTORS
330
2A
102
}
102
{ACAD_XDICTIONARY
360
C9
102
}
330
2A
100
AcDbVisualStyle
  2
Gouraud
 70
     2
 71
     2
 72
     2
 73
     1
 90
        2
 40
0.6
 41
30.0
 62
     5
 63
     7
421
 16777215
 74
     0
 91
        0
 64
     7
 65
   257
 75
     1
175
     1
 42
1.0
 92
        0
 66
     7
 43
1.0
 76
     1
 77
     6
 78
     2
 67
     7
 79
     5
170
     0
171
     0
290
     0
174
     0
 93
       13
 44
0.0
173
     0
291
     1
 45
0.0
  0
VISUALSTYLE
  5
2E
102
{ACAD_REACTORS
330
2A
102
}
102
{ACAD_XDICTIONARY
360
CB
102
}
330
2A
100
AcDbVisualStyle
  2
GouraudWithEdges
 70
     3
 71
     2
 72
     2
 73
     1
 90
        2
 40
0.6
 41
30.0
 62
     5
 63
     7
421
 16777215
 74
     1
 91
        0
 64
     7
 65
   257
 75
     1
175
     1
 42
1.0
 92
        0
 66
   257
 43
1.0
 76
     1
 77
     6
 78
     2
 67
     7
 79
     5
170
     0
171
     0
290
     0
174
     0
 93
       13
 44
0.0
173
     0
291
     1
 45
0.0
  0
VISUALSTYLE
  5
31
102
{ACAD_REACTORS
330
2A
102
}
102
{ACAD_XDICTIONARY
360
D1
102
}
330
2A
100
AcDbVisualStyle
  2
Hidden
 70
     6
 71
     1
 72
     2
 73
     2
 90
        0
 40
0.6
 41
30.0
 62
     5
 63
     7
421
 16777215
 74
     2
 91
        2
 64
     7
 65
   257
 75
     2
175
     1
 42
40.0
 92
        0
 66
   257
 43
1.0
 76
     1
 77
     6
 78
     2
 67
     7
 79
     3
170
     0
171
     0
290
     0
174
     0
 93
        1
 44
0.0
173
     0
291
     0
 45
0.0
  0
VISUALSTYLE
  5
3B
102
{ACAD_REACTORS
330
2A
102
}
102
{ACAD_XDICTIONARY
360
E5
102
}
330
2A
100
AcDbVisualStyle
  2
JitterOff
 70
    20
 71
     2
 72
     2
 73
     0
 90
        0
 40
0.6
 41
30.0
 62
     5
 63
     7
421
 16777215
 74
     1
 91
        4
 64
     7
 65
   257
 75
     1
175
     1
 42
1.0
 92
       10
 66
     7
 43
1.0
 76
     1
 77
     6
 78
     2
 67
     7
 79
     5
170
     0
171
     0
290
     0
174
     0
 93
        1
 44
0.0
173
     0
291
     1
 45
0.0
  0
VISUALSTYLE
  5
38
102
{ACAD_REACTORS
330
2A
102
}
102
{ACAD_XDICTIONARY
360
DF
102
}
330
2A
100
AcDbVisualStyle
  2
Linepattern
 70
    14
 71
     2
 72
     2
 73
     0
 90
        0
 40
0.6
 41
30.0
 62
     5
 63
     7
421
 16777215
 74
     1
 91
        4
 64
     7
 65
   257
 75
     7
175
     7
 42
1.0
 92
        8
 66
     7
 43
1.0
 76
     1
 77
     6
 78
     2
 67
     7
 79
     5
170
     0
171
     0
290
     0
174
     0
 93
        1
 44
0.0
173
     0
291
     1
 45
0.0
  0
VISUALSTYLE
  5
3C
102
{ACAD_REACTORS
330
2A
102
}
102
{ACAD_XDICTIONARY
360
E7
102
}
330
2A
100
AcDbVisualStyle
  2
OverhangOff
 70
    21
 71
     2
 72
     2
 73
     0
 90
        0
 40
0.6
 41
30.0
 62
     5
 63
     7
421
 16777215
 74
     1
 91
        4
 64
     7
 65
   257
 75
     1
175
     1
 42
1.0
 92
        9
 66
     7
 43
1.0
 76
     1
 77
     6
 78
     2
 67
     7
 79
     5
170
     0
171
     0
290
     0
174
     0
 93
        1
 44
0.0
173
     0
291
     1
 45
0.0
  0
VISUALSTYLE
  5
33
102
{ACAD_REACTORS
330
2A
102
}
102
{ACAD_XDICTIONARY
360
D5
102
}
330
2A
100
AcDbVisualStyle
  2
Realistic
 70
     8
 71
     2
 72
     3
 73
     0
 90
        2
 40
0.6
 41
30.0
 62
     5
 63
     7
421
 16777215
 74
     0
 91
        0
 64
     7
 65
   257
 75
     1
175
     1
 42
1.0
 92
        8
 66
   257
 43
1.0
 76
     1
 77
     6
 78
     2
 67
     7
 79
     3
170
     0
171
     0
290
     0
174
     0
 93
       13
 44
0.0
173
     0
291
     0
 45
0.0
  0
VISUALSTYLE
  5
42
102
{ACAD_REACTORS
330
2A
102
}
102
{ACAD_XDICTIONARY
360
F3
102
}
330
2A
100
AcDbVisualStyle
  2
Shaded
 70
    27
 71
     2
 72
     2
 73
     1
 90
        2
 40
0.6
 41
30.0
 62
     5
 63
     7
421
 16777215
 74
     0
 91
        4
 64
     7
 65
   257
 75
     1
175
     1
 42
1.0
 92
        8
 66
   257
 43
1.0
 76
     1
 77
     6
 78
     2
 67
     8
425
  7895160
 79
     3
170
     0
171
     0
290
     0
174
     0
 93
        5
 44
0.0
173
     0
291
     0
 45
0.0
  0
VISUALSTYLE
  5
41
102
{ACAD_REACTORS
330
2A
102
}
102
{ACAD_XDICTIONARY
360
F1
102
}
330
2A
100
AcDbVisualStyle
  2
Shaded with edges
 70
    26
 71
     2
 72
     2
 73
     1
 90
        2
 40
0.6
 41
30.0
 62
     5
 63
     7
421
 16777215
 74
     1
 91
       10
 64
     7
 65
   257
 75
     2
175
     1
 42
1.0
 92
        8
 66
   257
 43
1.0
 76
     1
 77
     6
 78
     2
 67
     7
 79
     3
170
     0
171
     0
290
     0
174
     0
 93
        5
 44
0.0
173
     0
291
     0
 45
0.0
  0
VISUALSTYLE
  5
3E
102
{ACAD_REACTORS
330
2A
102
}
102
{ACAD_XDICTIONARY
360
EB
102
}
330
2A
100
AcDbVisualStyle
  2
Shades of Gray
 70
    23
 71
     2
 72
     2
 73
     3
 90
        0
 40
0.6
 41
30.0
 62
     5
 63
     7
421
 16777215
 74
     2
 91
        2
 64
     7
 65
     7
 75
     1
175
     1
 42
40.0
 92
        8
 66
     7
 43
1.0
 76
     1
 77
     6
 78
     2
 67
     7
 79
     3
170
     0
171
     0
290
     0
174
     0
 93
        1
 44
0.0
173
     0
291
     0
 45
0.0
  0
VISUALSTYLE
  5
3F
102
{ACAD_REACTORS
330
2A
102
}
102
{ACAD_XDICTIONARY
360
ED
102
}
330
2A
100
AcDbVisualStyle
  2
Sketchy
 70
    24
 71
     1
 72
     2
 73
     2
 90
        0
 40
0.6
 41
30.0
 62
     5
 63
     7
421
 16777215
 74
     2
 91
        2
 64
     7
 65
     7
 75
     1
175
     1
 42
40.0
 92
       11
 66
     7
 43
1.0
 76
     1
 77
     6
 78
     2
 67
     7
 79
     6
170
     0
171
     0
290
     0
174
     0
 93
        1
 44
0.0
173
     0
291
     0
 45
0.0
  0
VISUALSTYLE
  5
37
102
{ACAD_REACTORS
330
2A
102
}
102
{ACAD_XDICTIONARY
360
DD
102
}
330
2A
100
AcDbVisualStyle
  2
Thicken
 70
    13
 71
     2
 72
     2
 73
     0
 90
        0
 40
0.6
 41
30.0
 62
     5
 63
     7
421
 16777215
 74
     1
 91
        4
 64
     7
 65
   257
 75
     1
175
     1
 42
1.0
 92
       12
 66
     7
 43
1.0
 76
     1
 77
     6
 78
     2
 67
     7
 79
     5
170
     0
171
     0
290
     0
174
     0
 93
        1
 44
0.0
173
     0
291
     1
 45
0.0
  0
VISUALSTYLE
  5
30
102
{ACAD_REACTORS
330
2A
102
}
102
{ACAD_XDICTIONARY
360
CF
102
}
330
2A
100
AcDbVisualStyle
  2
Wireframe
 70
     5
 71
     0
 72
     2
 73
     0
 90
        0
 40
0.6
 41
30.0
 62
     5
 63
     7
421
 16777215
 74
     1
 91
        4
 64
     7
 65
   257
 75
     1
175
     1
 42
1.0
 92
        0
 66
   257
 43
1.0
 76
     1
 77
     6
 78
     2
 67
     7
 79
     3
170
     0
171
     0
290
     0
174
     0
 93
        1
 44
0.0
173
     0
291
     0
 45
0.0
  0
VISUALSTYLE
  5
40
102
{ACAD_REACTORS
330
2A
102
}
102
{ACAD_XDICTIONARY
360
EF
102
}
330
2A
100
AcDbVisualStyle
  2
X-Ray
 70
    25
 71
     2
 72
     2
 73
     1
 90
        1
 40
0.5
 41
30.0
 62
     5
 63
     7
421
 16777215
 74
     1
 91
        0
 64
     7
 65
   257
 75
     1
175
     1
 42
1.0
 92
        8
 66
     7
 43
1.0
 76
     1
 77
     6
 78
     2
 67
     7
 79
     3
170
     0
171
     0
290
     0
174
     0
 93
       13
 44
0.0
173
     0
291
     0
 45
0.0
  0
DICTIONARYVAR
  5
C3
102
{ACAD_REACTORS
330
C2
102
}
330
C2
100
DictionaryVariables
280
     0
  1
1:1
  0
DICTIONARYVAR
  5
FC
102
{ACAD_REACTORS
330
C2
102
}
330
C2
100
DictionaryVariables
280
     0
  1
Standard
  0
DICTIONARYVAR
  5
FB
102
{ACAD_REACTORS
330
C2
102
}
330
C2
100
DictionaryVariables
280
     0
  1
Standard
  0
DICTIONARYVAR
  5
C4
102
{ACAD_REACTORS
330
C2
102
}
330
C2
100
DictionaryVariables
280
     0
  1
2
  0
DICTIONARY
  5
F8
330
6C
100
AcDbDictionary
280
     1
281
     1
  3
ACAD_XREC_ROUNDTRIP
360
F9
  0
DICTIONARY
  5
F5
330
6A
100
AcDbDictionary
280
     1
281
     1
  3
ACAD_ROUNDTRIP_2008_TABLESTYLE_CELLSTYLEMAP
360
F6
  0
DICTIONARY
  5
CD
330
2F
100
AcDbDictionary
280
     1
281
     1
  3
ACAD_XREC_ROUNDTRIP
360
CE
  0
DICTIONARY
  5
D3
330
32
100
AcDbDictionary
280
     1
281
     1
  3
ACAD_XREC_ROUNDTRIP
360
D4
  0
DICTIONARY
  5
DB
330
36
100
AcDbDictionary
280
     1
281
     1
  3
ACAD_XREC_ROUNDTRIP
360
DC
  0
DICTIONARY
  5
E3
330
3A
100
AcDbDictionary
280
     1
281
     1
  3
ACAD_XREC_ROUNDTRIP
360
E4
  0
DICTIONARY
  5
D7
330
34
100
AcDbDictionary
280
     1
281
     1
  3
ACAD_XREC_ROUNDTRIP
360
D8
  0
DICTIONARY
  5
D9
330
35
100
AcDbDictionary
280
     1
281
     1
  3
ACAD_XREC_ROUNDTRIP
360
DA
  0
DICTIONARY
  5
E9
330
3D
100
AcDbDictionary
280
     1
281
     1
  3
ACAD_XREC_ROUNDTRIP
360
EA
  0
DICTIONARY
  5
E1
330
39
100
AcDbDictionary
280
     1
281
     1
  3
ACAD_XREC_ROUNDTRIP
360
E2
  0
DICTIONARY
  5
C5
330
2B
100
AcDbDictionary
280
     1
281
     1
  3
ACAD_XREC_ROUNDTRIP
360
C6
  0
DICTIONARY
  5
C7
330
2C
100
AcDbDictionary
280
     1
281
     1
  3
ACAD_XREC_ROUNDTRIP
360
C8
  0
DICTIONARY
  5
C9
330
2D
100
AcDbDictionary
280
     1
281
     1
  3
ACAD_XREC_ROUNDTRIP
360
CA
  0
DICTIONARY
  5
CB
330
2E
100
AcDbDictionary
280
     1
281
     1
  3
ACAD_XREC_ROUNDTRIP
360
CC
  0
DICTIONARY
  5
D1
330
31
100
AcDbDictionary
280
     1
281
     1
  3
ACAD_XREC_ROUNDTRIP
360
D2
  0
DICTIONARY
  5
E5
330
3B
100
AcDbDictionary
280
     1
281
     1
  3
ACAD_XREC_ROUNDTRIP
360
E6
  0
DICTIONARY
  5
DF
330
38
100
AcDbDictionary
280
     1
281
     1
  3
ACAD_XREC_ROUNDTRIP
360
E0
  0
DICTIONARY
  5
E7
330
3C
100
AcDbDictionary
280
     1
281
     1
  3
ACAD_XREC_ROUNDTRIP
360
E8
  0
DICTIONARY
  5
D5
330
33
100
AcDbDictionary
280
     1
281
     1
  3
ACAD_XREC_ROUNDTRIP
360
D6
  0
DICTIONARY
  5
F3
330
42
100
AcDbDictionary
280
     1
281
     1
  3
ACAD_XREC_ROUNDTRIP
360
F4
  0
DICTIONARY
  5
F1
330
41
100
AcDbDictionary
280
     1
281
     1
  3
ACAD_XREC_ROUNDTRIP
360
F2
  0
DICTIONARY
  5
EB
330
3E
100
AcDbDictionary
280
     1
281
     1
  3
ACAD_XREC_ROUNDTRIP
360
EC
  0
DICTIONARY
  5
ED
330
3F
100
AcDbDictionary
280
     1
281
     1
  3
ACAD_XREC_ROUNDTRIP
360
EE
  0
DICTIONARY
  5
DD
330
37
100
AcDbDictionary
280
     1
281
     1
  3
ACAD_XREC_ROUNDTRIP
360
DE
  0
DICTIONARY
  5
CF
330
30
100
AcDbDictionary
280
     1
281
     1
  3
ACAD_XREC_ROUNDTRIP
360
D0
  0
DICTIONARY
  5
EF
330
40
100
AcDbDictionary
280
     1
281
     1
  3
ACAD_XREC_ROUNDTRIP
360
F0
  0
XRECORD
  5
F9
102
{ACAD_REACTORS
330
F8
102
}
330
F8
100
AcDbXrecord
280
     1
102
ACAD_ROUNDTRIP_2010_MLEADER_STYLE
  0
CELLSTYLEMAP
  5
F6
102
{ACAD_REACTORS
330
F5
102
}
330
F5
100
AcDbCellStyleMap
 90
        3
300
CELLSTYLE
  1
TABLEFORMAT_BEGIN
 90
        5
170
     1
 91
        0
 92
    32768
 62
   257
 93
        1
300
CONTENTFORMAT
  1
CONTENTFORMAT_BEGIN
 90
        0
 91
        0
 92
        4
 93
        0
300

 40
0.0
140
1.0
 94
        5
 62
     0
340
11
144
0.25
309
CONTENTFORMAT_END
171
     1
301
MARGIN
  1
CELLMARGIN_BEGIN
 40
0.06
 40
0.06
 40
0.06
 40
0.06
 40
0.06
 40
0.06
309
CELLMARGIN_END
 94
        6
 95
        1
302
GRIDFORMAT
  1
GRIDFORMAT_BEGIN
 90
        0
 91
        1
 62
     0
 92
       -2
340
14
 93
        0
 40
0.045
309
GRIDFORMAT_END
 95
        2
302
GRIDFORMAT
  1
GRIDFORMAT_BEGIN
 90
        0
 91
        1
 62
     0
 92
       -2
340
14
 93
        0
 40
0.045
309
GRIDFORMAT_END
 95
        4
302
GRIDFORMAT
  1
GRIDFORMAT_BEGIN
 90
        0
 91
        1
 62
     0
 92
       -2
340
14
 93
        0
 40
0.045
309
GRIDFORMAT_END
 95
        8
302
GRIDFORMAT
  1
GRIDFORMAT_BEGIN
 90
        0
 91
        1
 62
     0
 92
       -2
340
14
 93
        0
 40
0.045
309
GRIDFORMAT_END
 95
       16
302
GRIDFORMAT
  1
GRIDFORMAT_BEGIN
 90
        0
 91
        1
 62
     0
 92
       -2
340
14
 93
        0
 40
0.045
309
GRIDFORMAT_END
 95
       32
302
GRIDFORMAT
  1
GRIDFORMAT_BEGIN
 90
        0
 91
        1
 62
     0
 92
       -2
340
14
 93
        0
 40
0.045
309
GRIDFORMAT_END
309
TABLEFORMAT_END
  1
CELLSTYLE_BEGIN
 90
        1
 91
        1
300
_TITLE
309
CELLSTYLE_END
300
CELLSTYLE
  1
TABLEFORMAT_BEGIN
 90
        5
170
     1
 91
        0
 92
        0
 62
   257
 93
        1
300
CONTENTFORMAT
  1
CONTENTFORMAT_BEGIN
 90
        0
 91
        0
 92
        4
 93
        0
300

 40
0.0
140
1.0
 94
        5
 62
     0
340
11
144
0.18
309
CONTENTFORMAT_END
171
     1
301
MARGIN
  1
CELLMARGIN_BEGIN
 40
0.06
 40
0.06
 40
0.06
 40
0.06
 40
0.06
 40
0.06
309
CELLMARGIN_END
 94
        6
 95
        1
302
GRIDFORMAT
  1
GRIDFORMAT_BEGIN
 90
        0
 91
        1
 62
     0
 92
       -2
340
14
 93
        0
 40
0.045
309
GRIDFORMAT_END
 95
        2
302
GRIDFORMAT
  1
GRIDFORMAT_BEGIN
 90
        0
 91
        1
 62
     0
 92
       -2
340
14
 93
        0
 40
0.045
309
GRIDFORMAT_END
 95
        4
302
GRIDFORMAT
  1
GRIDFORMAT_BEGIN
 90
        0
 91
        1
 62
     0
 92
       -2
340
14
 93
        0
 40
0.045
309
GRIDFORMAT_END
 95
        8
302
GRIDFORMAT
  1
GRIDFORMAT_BEGIN
 90
        0
 91
        1
 62
     0
 92
       -2
340
14
 93
        0
 40
0.045
309
GRIDFORMAT_END
 95
       16
302
GRIDFORMAT
  1
GRIDFORMAT_BEGIN
 90
        0
 91
        1
 62
     0
 92
       -2
340
14
 93
        0
 40
0.045
309
GRIDFORMAT_END
 95
       32
302
GRIDFORMAT
  1
GRIDFORMAT_BEGIN
 90
        0
 91
        1
 62
     0
 92
       -2
340
14
 93
        0
 40
0.045
309
GRIDFORMAT_END
309
TABLEFORMAT_END
  1
CELLSTYLE_BEGIN
 90
        2
 91
        1
300
_HEADER
309
CELLSTYLE_END
300
CELLSTYLE
  1
TABLEFORMAT_BEGIN
 90
        5
170
     1
 91
        0
 92
        0
 62
   257
 93
        1
300
CONTENTFORMAT
  1
CONTENTFORMAT_BEGIN
 90
        0
 91
        0
 92
        4
 93
        0
300

 40
0.0
140
1.0
 94
        2
 62
     0
340
11
144
0.18
309
CONTENTFORMAT_END
171
     1
301
MARGIN
  1
CELLMARGIN_BEGIN
 40
0.06
 40
0.06
 40
0.06
 40
0.06
 40
0.06
 40
0.06
309
CELLMARGIN_END
 94
        6
 95
        1
302
GRIDFORMAT
  1
GRIDFORMAT_BEGIN
 90
        0
 91
        1
 62
     0
 92
       -2
340
14
 93
        0
 40
0.045
309
GRIDFORMAT_END
 95
        2
302
GRIDFORMAT
  1
GRIDFORMAT_BEGIN
 90
        0
 91
        1
 62
     0
 92
       -2
340
14
 93
        0
 40
0.045
309
GRIDFORMAT_END
 95
        4
302
GRIDFORMAT
  1
GRIDFORMAT_BEGIN
 90
        0
 91
        1
 62
     0
 92
       -2
340
14
 93
        0
 40
0.045
309
GRIDFORMAT_END
 95
        8
302
GRIDFORMAT
  1
GRIDFORMAT_BEGIN
 90
        0
 91
        1
 62
     0
 92
       -2
340
14
 93
        0
 40
0.045
309
GRIDFORMAT_END
 95
       16
302
GRIDFORMAT
  1
GRIDFORMAT_BEGIN
 90
        0
 91
        1
 62
     0
 92
       -2
340
14
 93
        0
 40
0.045
309
GRIDFORMAT_END
 95
       32
302
GRIDFORMAT
  1
GRIDFORMAT_BEGIN
 90
        0
 91
        1
 62
     0
 92
       -2
340
14
 93
        0
 40
0.045
309
GRIDFORMAT_END
309
TABLEFORMAT_END
  1
CELLSTYLE_BEGIN
 90
        3
 91
        2
300
_DATA
309
CELLSTYLE_END
  0
XRECORD
  5
CE
102
{ACAD_REACTORS
330
CD
102
}
330
CD
100
AcDbXrecord
280
     1
102
RTVSPropertyOp0
 70
     1
102
RTVSPropertyOp1
 70
     1
102
RTVSPropertyOp2
 70
     1
102
RTVSPropertyOp3
 70
     1
102
RTVSPropertyOp4
 70
     1
102
RTVSPropertyOp5
 70
     1
102
RTVSPropertyOp6
 70
     1
102
RTVSPropertyOp7
 70
     1
102
RTVSPropertyOp8
 70
     1
102
RTVSPropertyOp9
 70
     1
102
RTVSPropertyOp10
 70
     1
102
RTVSPropertyOp11
 70
     1
102
RTVSPropertyOp12
 70
     1
102
RTVSPropertyOp13
 70
     1
102
RTVSPropertyOp14
 70
     1
102
RTVSPropertyOp15
 70
     1
102
RTVSPropertyOp16
 70
     1
102
RTVSPropertyOp17
 70
     1
102
RTVSPropertyOp18
 70
     1
102
RTVSPropertyOp19
 70
     1
102
RTVSPropertyOp20
 70
     1
102
RTVSPropertyOp21
 70
     1
102
RTVSPropertyOp22
 70
     1
102
RTVSPropertyOp23
 70
     1
102
RTVSPropertyOp24
 70
     1
102
RTVSPropertyOp25
 70
     1
102
RTVSPropertyOp26
 70
     1
102
RTVSPropertyOp27
 70
     1
102
RTVSPropertyOp28
 70
     1
102
RTVSPropertyOp29
 70
     1
102
RTVSPropertyOp30
 70
     1
102
RTVSPropertyOp31
 70
     1
102
RTVSPropertyOp32
 70
     1
102
RTVSPropertyOp33
 70
     1
102
RTVSPropertyOp34
 70
     1
102
RTVSPropertyOp35
 70
     1
102
RTVSPropertyOp36
 70
     1
102
RTVSPropertyOp37
 70
     1
102
RTVSPropertyOp38
 70
     1
102
RTVSPropertyOp39
 70
     1
102
RTVSPropertyOp40
 70
     1
102
RTVSPropertyOp41
 70
     1
102
RTVSPropertyOp42
 70
     1
102
RTVSPropertyOp43
 70
     1
102
RTVSPropertyOp44
 70
     1
102
RTVSPropertyOp45
 70
     1
102
RTVSPropertyOp46
 70
     1
102
RTVSPropertyOp47
 70
     1
102
RTVSPropertyOp48
 70
     1
102
RTVSPropertyOp49
 70
     1
102
RTVSPropertyOp50
 70
     1
102
RTVSPropertyOp51
 70
     0
102
RTVSPropertyOp52
 70
     0
102
RTVSPropertyOp53
 70
     1
102
RTVSPropertyOp54
 70
     1
102
RTVSPropertyOp55
 70
     1
102
RTVSPropertyOp56
 70
     1
102
RTVSPropertyOp57
 70
     1
102
RTVSPost2010Prop28
280
     1
102
RTVSPost2010PropOp28
 70
     1
102
RTVSPost2010Prop29
280
     1
102
RTVSPost2010PropOp29
 70
     1
102
RTVSPost2010Prop30
280
     0
102
RTVSPost2010PropOp30
 70
     1
102
RTVSPost2010Prop31
280
     0
102
RTVSPost2010PropOp31
 70
     1
102
RTVSPost2010Prop32
280
     0
102
RTVSPost2010PropOp32
 70
     1
102
RTVSPost2010Prop33
280
     0
102
RTVSPost2010PropOp33
 70
     1
102
RTVSPost2010Prop34
280
     0
102
RTVSPost2010PropOp34
 70
     1
102
RTVSPost2010Prop35
280
     0
102
RTVSPost2010PropOp35
 70
     1
102
RTVSPost2010Prop36
280
     0
102
RTVSPost2010PropOp36
 70
     1
102
RTVSPost2010Prop37
 90
       50
102
RTVSPost2010PropOp37
 70
     1
102
RTVSPost2010Prop38
140
0.0
102
RTVSPost2010PropOp38
 70
     1
102
RTVSPost2010Prop39
140
1.0
102
RTVSPost2010PropOp39
 70
     1
102
RTVSPost2010Prop40
 90
        0
102
RTVSPost2010PropOp40
 70
     1
102
RTVSPost2010Prop41ColorIndex
 90
       18
102
RTVSPost2010Prop41ColorRGB
 90
        0
102
RTVSPost2010PropOp41
 70
     1
102
RTVSPost2010Prop42
 90
       50
102
RTVSPost2010PropOp42
 70
     1
102
RTVSPost2010Prop43
 90
        3
102
RTVSPost2010PropOp43
 70
     1
102
RTVSPost2010Prop44ColorIndex
 90
        5
102
RTVSPost2010Prop44ColorRGB
 90
      255
102
RTVSPost2010PropOp44
 70
     1
102
RTVSPost2010Prop45
280
     0
102
RTVSPost2010PropOp45
 70
     1
102
RTVSPost2010Prop46
 90
       50
102
RTVSPost2010PropOp46
 70
     1
102
RTVSPost2010Prop47
 90
       50
102
RTVSPost2010PropOp47
 70
     1
102
RTVSPost2010Prop48
 90
       50
102
RTVSPost2010PropOp48
 70
     1
102
RTVSPost2010Prop49
280
     0
102
RTVSPost2010PropOp49
 70
     1
102
RTVSPost2010Prop50
 90
       50
102
RTVSPost2010PropOp50
 70
     1
102
RTVSPost2010Prop51ColorIndex
 90
      256
102
RTVSPost2010Prop51ColorRGB
 90
-16777216
102
RTVSPost2010PropOp51
 70
     0
102
RTVSPost2010Prop52
140
1.0
102
RTVSPost2010PropOp52
 70
     0
102
RTVSPost2010Prop53
 90
        2
102
RTVSPost2010PropOp53
 70
     1
102
RTVSPost2010Prop54
  1
strokes_ogs.tif
102
RTVSPost2010PropOp54
 70
     1
102
RTVSPost2010Prop55
280
     0
102
RTVSPost2010PropOp55
 70
     1
102
RTVSPost2010Prop56
140
1.0
102
RTVSPost2010PropOp56
 70
     1
102
RTVSPost2010Prop57
140
1.0
102
RTVSPost2010PropOp57
 70
     1
  0
XRECORD
  5
D4
102
{ACAD_REACTORS
330
D3
102
}
330
D3
100
AcDbXrecord
280
     1
102
RTVSPropertyOp0
 70
     1
102
RTVSPropertyOp1
 70
     1
102
RTVSPropertyOp2
 70
     1
102
RTVSPropertyOp3
 70
     1
102
RTVSPropertyOp4
 70
     1
102
RTVSPropertyOp5
 70
     1
102
RTVSPropertyOp6
 70
     1
102
RTVSPropertyOp7
 70
     1
102
RTVSPropertyOp8
 70
     1
102
RTVSPropertyOp9
 70
     1
102
RTVSPropertyOp10
 70
     1
102
RTVSPropertyOp11
 70
     1
102
RTVSPropertyOp12
 70
     1
102
RTVSPropertyOp13
 70
     1
102
RTVSPropertyOp14
 70
     1
102
RTVSPropertyOp15
 70
     1
102
RTVSPropertyOp16
 70
     1
102
RTVSPropertyOp17
 70
     1
102
RTVSPropertyOp18
 70
     1
102
RTVSPropertyOp19
 70
     1
102
RTVSPropertyOp20
 70
     1
102
RTVSPropertyOp21
 70
     1
102
RTVSPropertyOp22
 70
     1
102
RTVSPropertyOp23
 70
     1
102
RTVSPropertyOp24
 70
     1
102
RTVSPropertyOp25
 70
     1
102
RTVSPropertyOp26
 70
     1
102
RTVSPropertyOp27
 70
     1
102
RTVSPropertyOp28
 70
     1
102
RTVSPropertyOp29
 70
     1
102
RTVSPropertyOp30
 70
     1
102
RTVSPropertyOp31
 70
     1
102
RTVSPropertyOp32
 70
     1
102
RTVSPropertyOp33
 70
     1
102
RTVSPropertyOp34
 70
     1
102
RTVSPropertyOp35
 70
     1
102
RTVSPropertyOp36
 70
     1
102
RTVSPropertyOp37
 70
     1
102
RTVSPropertyOp38
 70
     1
102
RTVSPropertyOp39
 70
     1
102
RTVSPropertyOp40
 70
     1
102
RTVSPropertyOp41
 70
     1
102
RTVSPropertyOp42
 70
     1
102
RTVSPropertyOp43
 70
     1
102
RTVSPropertyOp44
 70
     1
102
RTVSPropertyOp45
 70
     1
102
RTVSPropertyOp46
 70
     1
102
RTVSPropertyOp47
 70
     1
102
RTVSPropertyOp48
 70
     1
102
RTVSPropertyOp49
 70
     1
102
RTVSPropertyOp50
 70
     1
102
RTVSPropertyOp51
 70
     0
102
RTVSPropertyOp52
 70
     0
102
RTVSPropertyOp53
 70
     1
102
RTVSPropertyOp54
 70
     1
102
RTVSPropertyOp55
 70
     1
102
RTVSPropertyOp56
 70
     1
102
RTVSPropertyOp57
 70
     1
102
RTVSPost2010Prop28
280
     0
102
RTVSPost2010PropOp28
 70
     1
102
RTVSPost2010Prop29
280
     1
102
RTVSPost2010PropOp29
 70
     1
102
RTVSPost2010Prop30
280
     1
102
RTVSPost2010PropOp30
 70
     1
102
RTVSPost2010Prop31
280
     0
102
RTVSPost2010PropOp31
 70
     1
102
RTVSPost2010Prop32
280
     0
102
RTVSPost2010PropOp32
 70
     1
102
RTVSPost2010Prop33
280
     0
102
RTVSPost2010PropOp33
 70
     1
102
RTVSPost2010Prop34
280
     0
102
RTVSPost2010PropOp34
 70
     1
102
RTVSPost2010Prop35
280
     0
102
RTVSPost2010PropOp35
 70
     1
102
RTVSPost2010Prop36
280
     0
102
RTVSPost2010PropOp36
 70
     1
102
RTVSPost2010Prop37
 90
       50
102
RTVSPost2010PropOp37
 70
     1
102
RTVSPost2010Prop38
140
0.0
102
RTVSPost2010PropOp38
 70
     1
102
RTVSPost2010Prop39
140
1.0
102
RTVSPost2010PropOp39
 70
     1
102
RTVSPost2010Prop40
 90
        0
102
RTVSPost2010PropOp40
 70
     1
102
RTVSPost2010Prop41ColorIndex
 90
       18
102
RTVSPost2010Prop41ColorRGB
 90
        0
102
RTVSPost2010PropOp41
 70
     1
102
RTVSPost2010Prop42
 90
       50
102
RTVSPost2010PropOp42
 70
     1
102
RTVSPost2010Prop43
 90
        3
102
RTVSPost2010PropOp43
 70
     1
102
RTVSPost2010Prop44ColorIndex
 90
        5
102
RTVSPost2010Prop44ColorRGB
 90
      255
102
RTVSPost2010PropOp44
 70
     1
102
RTVSPost2010Prop45
280
     0
102
RTVSPost2010PropOp45
 70
     1
102
RTVSPost2010Prop46
 90
       50
102
RTVSPost2010PropOp46
 70
     1
102
RTVSPost2010Prop47
 90
       50
102
RTVSPost2010PropOp47
 70
     1
102
RTVSPost2010Prop48
 90
       50
102
RTVSPost2010PropOp48
 70
     1
102
RTVSPost2010Prop49
280
     0
102
RTVSPost2010PropOp49
 70
     1
102
RTVSPost2010Prop50
 90
       50
102
RTVSPost2010PropOp50
 70
     1
102
RTVSPost2010Prop51ColorIndex
 90
      256
102
RTVSPost2010Prop51ColorRGB
 90
-16777216
102
RTVSPost2010PropOp51
 70
     0
102
RTVSPost2010Prop52
140
1.0
102
RTVSPost2010PropOp52
 70
     0
102
RTVSPost2010Prop53
 90
        2
102
RTVSPost2010PropOp53
 70
     1
102
RTVSPost2010Prop54
  1
strokes_ogs.tif
102
RTVSPost2010PropOp54
 70
     1
102
RTVSPost2010Prop55
280
     0
102
RTVSPost2010PropOp55
 70
     1
102
RTVSPost2010Prop56
140
1.0
102
RTVSPost2010PropOp56
 70
     1
102
RTVSPost2010Prop57
140
1.0
102
RTVSPost2010PropOp57
 70
     1
  0
XRECORD
  5
DC
102
{ACAD_REACTORS
330
DB
102
}
330
DB
100
AcDbXrecord
280
     1
102
RTVSPropertyOp0
 70
     1
102
RTVSPropertyOp1
 70
     1
102
RTVSPropertyOp2
 70
     1
102
RTVSPropertyOp3
 70
     1
102
RTVSPropertyOp4
 70
     1
102
RTVSPropertyOp5
 70
     1
102
RTVSPropertyOp6
 70
     1
102
RTVSPropertyOp7
 70
     1
102
RTVSPropertyOp8
 70
     1
102
RTVSPropertyOp9
 70
     1
102
RTVSPropertyOp10
 70
     1
102
RTVSPropertyOp11
 70
     1
102
RTVSPropertyOp12
 70
     1
102
RTVSPropertyOp13
 70
     1
102
RTVSPropertyOp14
 70
     1
102
RTVSPropertyOp15
 70
     1
102
RTVSPropertyOp16
 70
     1
102
RTVSPropertyOp17
 70
     1
102
RTVSPropertyOp18
 70
     1
102
RTVSPropertyOp19
 70
     1
102
RTVSPropertyOp20
 70
     1
102
RTVSPropertyOp21
 70
     1
102
RTVSPropertyOp22
 70
     1
102
RTVSPropertyOp23
 70
     1
102
RTVSPropertyOp24
 70
     1
102
RTVSPropertyOp25
 70
     1
102
RTVSPropertyOp26
 70
     1
102
RTVSPropertyOp27
 70
     1
102
RTVSPropertyOp28
 70
     1
102
RTVSPropertyOp29
 70
     1
102
RTVSPropertyOp30
 70
     1
102
RTVSPropertyOp31
 70
     1
102
RTVSPropertyOp32
 70
     1
102
RTVSPropertyOp33
 70
     1
102
RTVSPropertyOp34
 70
     1
102
RTVSPropertyOp35
 70
     1
102
RTVSPropertyOp36
 70
     1
102
RTVSPropertyOp37
 70
     1
102
RTVSPropertyOp38
 70
     1
102
RTVSPropertyOp39
 70
     1
102
RTVSPropertyOp40
 70
     1
102
RTVSPropertyOp41
 70
     1
102
RTVSPropertyOp42
 70
     1
102
RTVSPropertyOp43
 70
     1
102
RTVSPropertyOp44
 70
     1
102
RTVSPropertyOp45
 70
     1
102
RTVSPropertyOp46
 70
     1
102
RTVSPropertyOp47
 70
     1
102
RTVSPropertyOp48
 70
     1
102
RTVSPropertyOp49
 70
     1
102
RTVSPropertyOp50
 70
     1
102
RTVSPropertyOp51
 70
     0
102
RTVSPropertyOp52
 70
     0
102
RTVSPropertyOp53
 70
     1
102
RTVSPropertyOp54
 70
     1
102
RTVSPropertyOp55
 70
     1
102
RTVSPropertyOp56
 70
     1
102
RTVSPropertyOp57
 70
     1
102
RTVSPost2010Prop28
280
     0
102
RTVSPost2010PropOp28
 70
     1
102
RTVSPost2010Prop29
280
     1
102
RTVSPost2010PropOp29
 70
     1
102
RTVSPost2010Prop30
280
     1
102
RTVSPost2010PropOp30
 70
     1
102
RTVSPost2010Prop31
280
     0
102
RTVSPost2010PropOp31
 70
     1
102
RTVSPost2010Prop32
280
     0
102
RTVSPost2010PropOp32
 70
     1
102
RTVSPost2010Prop33
280
     0
102
RTVSPost2010PropOp33
 70
     1
102
RTVSPost2010Prop34
280
     0
102
RTVSPost2010PropOp34
 70
     1
102
RTVSPost2010Prop35
280
     0
102
RTVSPost2010PropOp35
 70
     1
102
RTVSPost2010Prop36
280
     0
102
RTVSPost2010PropOp36
 70
     1
102
RTVSPost2010Prop37
 90
       50
102
RTVSPost2010PropOp37
 70
     1
102
RTVSPost2010Prop38
140
0.0
102
RTVSPost2010PropOp38
 70
     1
102
RTVSPost2010Prop39
140
1.0
102
RTVSPost2010PropOp39
 70
     1
102
RTVSPost2010Prop40
 90
        0
102
RTVSPost2010PropOp40
 70
     1
102
RTVSPost2010Prop41ColorIndex
 90
       18
102
RTVSPost2010Prop41ColorRGB
 90
        0
102
RTVSPost2010PropOp41
 70
     1
102
RTVSPost2010Prop42
 90
       50
102
RTVSPost2010PropOp42
 70
     1
102
RTVSPost2010Prop43
 90
        3
102
RTVSPost2010PropOp43
 70
     1
102
RTVSPost2010Prop44ColorIndex
 90
        5
102
RTVSPost2010Prop44ColorRGB
 90
      255
102
RTVSPost2010PropOp44
 70
     1
102
RTVSPost2010Prop45
280
     0
102
RTVSPost2010PropOp45
 70
     1
102
RTVSPost2010Prop46
 90
       50
102
RTVSPost2010PropOp46
 70
     1
102
RTVSPost2010Prop47
 90
       50
102
RTVSPost2010PropOp47
 70
     1
102
RTVSPost2010Prop48
 90
       50
102
RTVSPost2010PropOp48
 70
     1
102
RTVSPost2010Prop49
280
     0
102
RTVSPost2010PropOp49
 70
     1
102
RTVSPost2010Prop50
 90
       50
102
RTVSPost2010PropOp50
 70
     1
102
RTVSPost2010Prop51ColorIndex
 90
      256
102
RTVSPost2010Prop51ColorRGB
 90
-16777216
102
RTVSPost2010PropOp51
 70
     0
102
RTVSPost2010Prop52
140
1.0
102
RTVSPost2010PropOp52
 70
     0
102
RTVSPost2010Prop53
 90
        2
102
RTVSPost2010PropOp53
 70
     1
102
RTVSPost2010Prop54
  1
strokes_ogs.tif
102
RTVSPost2010PropOp54
 70
     1
102
RTVSPost2010Prop55
280
     0
102
RTVSPost2010PropOp55
 70
     1
102
RTVSPost2010Prop56
140
1.0
102
RTVSPost2010PropOp56
 70
     1
102
RTVSPost2010Prop57
140
1.0
102
RTVSPost2010PropOp57
 70
     1
  0
XRECORD
  5
E4
102
{ACAD_REACTORS
330
E3
102
}
330
E3
100
AcDbXrecord
280
     1
102
RTVSPropertyOp0
 70
     1
102
RTVSPropertyOp1
 70
     1
102
RTVSPropertyOp2
 70
     1
102
RTVSPropertyOp3
 70
     1
102
RTVSPropertyOp4
 70
     1
102
RTVSPropertyOp5
 70
     1
102
RTVSPropertyOp6
 70
     1
102
RTVSPropertyOp7
 70
     1
102
RTVSPropertyOp8
 70
     1
102
RTVSPropertyOp9
 70
     1
102
RTVSPropertyOp10
 70
     1
102
RTVSPropertyOp11
 70
     1
102
RTVSPropertyOp12
 70
     1
102
RTVSPropertyOp13
 70
     1
102
RTVSPropertyOp14
 70
     1
102
RTVSPropertyOp15
 70
     1
102
RTVSPropertyOp16
 70
     1
102
RTVSPropertyOp17
 70
     1
102
RTVSPropertyOp18
 70
     1
102
RTVSPropertyOp19
 70
     1
102
RTVSPropertyOp20
 70
     1
102
RTVSPropertyOp21
 70
     1
102
RTVSPropertyOp22
 70
     1
102
RTVSPropertyOp23
 70
     1
102
RTVSPropertyOp24
 70
     1
102
RTVSPropertyOp25
 70
     1
102
RTVSPropertyOp26
 70
     1
102
RTVSPropertyOp27
 70
     1
102
RTVSPropertyOp28
 70
     1
102
RTVSPropertyOp29
 70
     1
102
RTVSPropertyOp30
 70
     1
102
RTVSPropertyOp31
 70
     1
102
RTVSPropertyOp32
 70
     1
102
RTVSPropertyOp33
 70
     1
102
RTVSPropertyOp34
 70
     1
102
RTVSPropertyOp35
 70
     1
102
RTVSPropertyOp36
 70
     1
102
RTVSPropertyOp37
 70
     1
102
RTVSPropertyOp38
 70
     1
102
RTVSPropertyOp39
 70
     1
102
RTVSPropertyOp40
 70
     1
102
RTVSPropertyOp41
 70
     1
102
RTVSPropertyOp42
 70
     1
102
RTVSPropertyOp43
 70
     1
102
RTVSPropertyOp44
 70
     1
102
RTVSPropertyOp45
 70
     1
102
RTVSPropertyOp46
 70
     1
102
RTVSPropertyOp47
 70
     1
102
RTVSPropertyOp48
 70
     1
102
RTVSPropertyOp49
 70
     1
102
RTVSPropertyOp50
 70
     1
102
RTVSPropertyOp51
 70
     0
102
RTVSPropertyOp52
 70
     0
102
RTVSPropertyOp53
 70
     1
102
RTVSPropertyOp54
 70
     1
102
RTVSPropertyOp55
 70
     1
102
RTVSPropertyOp56
 70
     1
102
RTVSPropertyOp57
 70
     1
102
RTVSPost2010Prop28
280
     0
102
RTVSPost2010PropOp28
 70
     1
102
RTVSPost2010Prop29
280
     1
102
RTVSPost2010PropOp29
 70
     1
102
RTVSPost2010Prop30
280
     1
102
RTVSPost2010PropOp30
 70
     1
102
RTVSPost2010Prop31
280
     0
102
RTVSPost2010PropOp31
 70
     1
102
RTVSPost2010Prop32
280
     0
102
RTVSPost2010PropOp32
 70
     1
102
RTVSPost2010Prop33
280
     0
102
RTVSPost2010PropOp33
 70
     1
102
RTVSPost2010Prop34
280
     0
102
RTVSPost2010PropOp34
 70
     1
102
RTVSPost2010Prop35
280
     0
102
RTVSPost2010PropOp35
 70
     1
102
RTVSPost2010Prop36
280
     0
102
RTVSPost2010PropOp36
 70
     1
102
RTVSPost2010Prop37
 90
       50
102
RTVSPost2010PropOp37
 70
     1
102
RTVSPost2010Prop38
140
0.0
102
RTVSPost2010PropOp38
 70
     1
102
RTVSPost2010Prop39
140
1.0
102
RTVSPost2010PropOp39
 70
     1
102
RTVSPost2010Prop40
 90
        0
102
RTVSPost2010PropOp40
 70
     1
102
RTVSPost2010Prop41ColorIndex
 90
       18
102
RTVSPost2010Prop41ColorRGB
 90
        0
102
RTVSPost2010PropOp41
 70
     1
102
RTVSPost2010Prop42
 90
       50
102
RTVSPost2010PropOp42
 70
     1
102
RTVSPost2010Prop43
 90
        3
102
RTVSPost2010PropOp43
 70
     1
102
RTVSPost2010Prop44ColorIndex
 90
        5
102
RTVSPost2010Prop44ColorRGB
 90
      255
102
RTVSPost2010PropOp44
 70
     1
102
RTVSPost2010Prop45
280
     0
102
RTVSPost2010PropOp45
 70
     1
102
RTVSPost2010Prop46
 90
       50
102
RTVSPost2010PropOp46
 70
     1
102
RTVSPost2010Prop47
 90
       50
102
RTVSPost2010PropOp47
 70
     1
102
RTVSPost2010Prop48
 90
       50
102
RTVSPost2010PropOp48
 70
     1
102
RTVSPost2010Prop49
280
     0
102
RTVSPost2010PropOp49
 70
     1
102
RTVSPost2010Prop50
 90
       50
102
RTVSPost2010PropOp50
 70
     1
102
RTVSPost2010Prop51ColorIndex
 90
      256
102
RTVSPost2010Prop51ColorRGB
 90
-16777216
102
RTVSPost2010PropOp51
 70
     0
102
RTVSPost2010Prop52
140
1.0
102
RTVSPost2010PropOp52
 70
     0
102
RTVSPost2010Prop53
 90
        2
102
RTVSPost2010PropOp53
 70
     1
102
RTVSPost2010Prop54
  1
strokes_ogs.tif
102
RTVSPost2010PropOp54
 70
     1
102
RTVSPost2010Prop55
280
     0
102
RTVSPost2010PropOp55
 70
     1
102
RTVSPost2010Prop56
140
1.0
102
RTVSPost2010PropOp56
 70
     1
102
RTVSPost2010Prop57
140
1.0
102
RTVSPost2010PropOp57
 70
     1
  0
XRECORD
  5
D8
102
{ACAD_REACTORS
330
D7
102
}
330
D7
100
AcDbXrecord
280
     1
102
RTVSPropertyOp0
 70
     1
102
RTVSPropertyOp1
 70
     1
102
RTVSPropertyOp2
 70
     1
102
RTVSPropertyOp3
 70
     1
102
RTVSPropertyOp4
 70
     1
102
RTVSPropertyOp5
 70
     1
102
RTVSPropertyOp6
 70
     1
102
RTVSPropertyOp7
 70
     1
102
RTVSPropertyOp8
 70
     1
102
RTVSPropertyOp9
 70
     1
102
RTVSPropertyOp10
 70
     1
102
RTVSPropertyOp11
 70
     1
102
RTVSPropertyOp12
 70
     1
102
RTVSPropertyOp13
 70
     1
102
RTVSPropertyOp14
 70
     1
102
RTVSPropertyOp15
 70
     1
102
RTVSPropertyOp16
 70
     1
102
RTVSPropertyOp17
 70
     1
102
RTVSPropertyOp18
 70
     1
102
RTVSPropertyOp19
 70
     1
102
RTVSPropertyOp20
 70
     1
102
RTVSPropertyOp21
 70
     1
102
RTVSPropertyOp22
 70
     1
102
RTVSPropertyOp23
 70
     1
102
RTVSPropertyOp24
 70
     1
102
RTVSPropertyOp25
 70
     1
102
RTVSPropertyOp26
 70
     1
102
RTVSPropertyOp27
 70
     1
102
RTVSPropertyOp28
 70
     1
102
RTVSPropertyOp29
 70
     1
102
RTVSPropertyOp30
 70
     1
102
RTVSPropertyOp31
 70
     1
102
RTVSPropertyOp32
 70
     1
102
RTVSPropertyOp33
 70
     1
102
RTVSPropertyOp34
 70
     1
102
RTVSPropertyOp35
 70
     1
102
RTVSPropertyOp36
 70
     1
102
RTVSPropertyOp37
 70
     1
102
RTVSPropertyOp38
 70
     1
102
RTVSPropertyOp39
 70
     1
102
RTVSPropertyOp40
 70
     1
102
RTVSPropertyOp41
 70
     1
102
RTVSPropertyOp42
 70
     1
102
RTVSPropertyOp43
 70
     1
102
RTVSPropertyOp44
 70
     1
102
RTVSPropertyOp45
 70
     1
102
RTVSPropertyOp46
 70
     1
102
RTVSPropertyOp47
 70
     1
102
RTVSPropertyOp48
 70
     1
102
RTVSPropertyOp49
 70
     1
102
RTVSPropertyOp50
 70
     1
102
RTVSPropertyOp51
 70
     0
102
RTVSPropertyOp52
 70
     0
102
RTVSPropertyOp53
 70
     1
102
RTVSPropertyOp54
 70
     1
102
RTVSPropertyOp55
 70
     1
102
RTVSPropertyOp56
 70
     1
102
RTVSPropertyOp57
 70
     1
102
RTVSPost2010Prop28
280
     0
102
RTVSPost2010PropOp28
 70
     1
102
RTVSPost2010Prop29
280
     1
102
RTVSPost2010PropOp29
 70
     1
102
RTVSPost2010Prop30
280
     1
102
RTVSPost2010PropOp30
 70
     1
102
RTVSPost2010Prop31
280
     0
102
RTVSPost2010PropOp31
 70
     1
102
RTVSPost2010Prop32
280
     0
102
RTVSPost2010PropOp32
 70
     1
102
RTVSPost2010Prop33
280
     0
102
RTVSPost2010PropOp33
 70
     1
102
RTVSPost2010Prop34
280
     0
102
RTVSPost2010PropOp34
 70
     1
102
RTVSPost2010Prop35
280
     0
102
RTVSPost2010PropOp35
 70
     1
102
RTVSPost2010Prop36
280
     0
102
RTVSPost2010PropOp36
 70
     1
102
RTVSPost2010Prop37
 90
       50
102
RTVSPost2010PropOp37
 70
     1
102
RTVSPost2010Prop38
140
0.0
102
RTVSPost2010PropOp38
 70
     1
102
RTVSPost2010Prop39
140
1.0
102
RTVSPost2010PropOp39
 70
     1
102
RTVSPost2010Prop40
 90
        0
102
RTVSPost2010PropOp40
 70
     1
102
RTVSPost2010Prop41ColorIndex
 90
       18
102
RTVSPost2010Prop41ColorRGB
 90
        0
102
RTVSPost2010PropOp41
 70
     1
102
RTVSPost2010Prop42
 90
       50
102
RTVSPost2010PropOp42
 70
     1
102
RTVSPost2010Prop43
 90
        3
102
RTVSPost2010PropOp43
 70
     1
102
RTVSPost2010Prop44ColorIndex
 90
        5
102
RTVSPost2010Prop44ColorRGB
 90
      255
102
RTVSPost2010PropOp44
 70
     1
102
RTVSPost2010Prop45
280
     0
102
RTVSPost2010PropOp45
 70
     1
102
RTVSPost2010Prop46
 90
       50
102
RTVSPost2010PropOp46
 70
     1
102
RTVSPost2010Prop47
 90
       50
102
RTVSPost2010PropOp47
 70
     1
102
RTVSPost2010Prop48
 90
       50
102
RTVSPost2010PropOp48
 70
     1
102
RTVSPost2010Prop49
280
     0
102
RTVSPost2010PropOp49
 70
     1
102
RTVSPost2010Prop50
 90
       50
102
RTVSPost2010PropOp50
 70
     1
102
RTVSPost2010Prop51ColorIndex
 90
      256
102
RTVSPost2010Prop51ColorRGB
 90
-16777216
102
RTVSPost2010PropOp51
 70
     0
102
RTVSPost2010Prop52
140
1.0
102
RTVSPost2010PropOp52
 70
     0
102
RTVSPost2010Prop53
 90
        2
102
RTVSPost2010PropOp53
 70
     1
102
RTVSPost2010Prop54
  1
strokes_ogs.tif
102
RTVSPost2010PropOp54
 70
     1
102
RTVSPost2010Prop55
280
     0
102
RTVSPost2010PropOp55
 70
     1
102
RTVSPost2010Prop56
140
1.0
102
RTVSPost2010PropOp56
 70
     1
102
RTVSPost2010Prop57
140
1.0
102
RTVSPost2010PropOp57
 70
     1
  0
XRECORD
  5
DA
102
{ACAD_REACTORS
330
D9
102
}
330
D9
100
AcDbXrecord
280
     1
102
RTVSPropertyOp0
 70
     1
102
RTVSPropertyOp1
 70
     1
102
RTVSPropertyOp2
 70
     1
102
RTVSPropertyOp3
 70
     1
102
RTVSPropertyOp4
 70
     1
102
RTVSPropertyOp5
 70
     1
102
RTVSPropertyOp6
 70
     1
102
RTVSPropertyOp7
 70
     1
102
RTVSPropertyOp8
 70
     1
102
RTVSPropertyOp9
 70
     1
102
RTVSPropertyOp10
 70
     1
102
RTVSPropertyOp11
 70
     1
102
RTVSPropertyOp12
 70
     1
102
RTVSPropertyOp13
 70
     1
102
RTVSPropertyOp14
 70
     1
102
RTVSPropertyOp15
 70
     1
102
RTVSPropertyOp16
 70
     1
102
RTVSPropertyOp17
 70
     1
102
RTVSPropertyOp18
 70
     1
102
RTVSPropertyOp19
 70
     1
102
RTVSPropertyOp20
 70
     1
102
RTVSPropertyOp21
 70
     1
102
RTVSPropertyOp22
 70
     1
102
RTVSPropertyOp23
 70
     1
102
RTVSPropertyOp24
 70
     1
102
RTVSPropertyOp25
 70
     1
102
RTVSPropertyOp26
 70
     1
102
RTVSPropertyOp27
 70
     1
102
RTVSPropertyOp28
 70
     1
102
RTVSPropertyOp29
 70
     1
102
RTVSPropertyOp30
 70
     1
102
RTVSPropertyOp31
 70
     1
102
RTVSPropertyOp32
 70
     1
102
RTVSPropertyOp33
 70
     1
102
RTVSPropertyOp34
 70
     1
102
RTVSPropertyOp35
 70
     1
102
RTVSPropertyOp36
 70
     1
102
RTVSPropertyOp37
 70
     1
102
RTVSPropertyOp38
 70
     1
102
RTVSPropertyOp39
 70
     1
102
RTVSPropertyOp40
 70
     1
102
RTVSPropertyOp41
 70
     1
102
RTVSPropertyOp42
 70
     1
102
RTVSPropertyOp43
 70
     1
102
RTVSPropertyOp44
 70
     1
102
RTVSPropertyOp45
 70
     1
102
RTVSPropertyOp46
 70
     1
102
RTVSPropertyOp47
 70
     1
102
RTVSPropertyOp48
 70
     1
102
RTVSPropertyOp49
 70
     1
102
RTVSPropertyOp50
 70
     1
102
RTVSPropertyOp51
 70
     0
102
RTVSPropertyOp52
 70
     0
102
RTVSPropertyOp53
 70
     1
102
RTVSPropertyOp54
 70
     1
102
RTVSPropertyOp55
 70
     1
102
RTVSPropertyOp56
 70
     1
102
RTVSPropertyOp57
 70
     1
102
RTVSPost2010Prop28
280
     0
102
RTVSPost2010PropOp28
 70
     1
102
RTVSPost2010Prop29
280
     1
102
RTVSPost2010PropOp29
 70
     1
102
RTVSPost2010Prop30
280
     1
102
RTVSPost2010PropOp30
 70
     1
102
RTVSPost2010Prop31
280
     0
102
RTVSPost2010PropOp31
 70
     1
102
RTVSPost2010Prop32
280
     0
102
RTVSPost2010PropOp32
 70
     1
102
RTVSPost2010Prop33
280
     0
102
RTVSPost2010PropOp33
 70
     1
102
RTVSPost2010Prop34
280
     0
102
RTVSPost2010PropOp34
 70
     1
102
RTVSPost2010Prop35
280
     0
102
RTVSPost2010PropOp35
 70
     1
102
RTVSPost2010Prop36
280
     0
102
RTVSPost2010PropOp36
 70
     1
102
RTVSPost2010Prop37
 90
       50
102
RTVSPost2010PropOp37
 70
     1
102
RTVSPost2010Prop38
140
0.0
102
RTVSPost2010PropOp38
 70
     1
102
RTVSPost2010Prop39
140
1.0
102
RTVSPost2010PropOp39
 70
     1
102
RTVSPost2010Prop40
 90
        0
102
RTVSPost2010PropOp40
 70
     1
102
RTVSPost2010Prop41ColorIndex
 90
       18
102
RTVSPost2010Prop41ColorRGB
 90
        0
102
RTVSPost2010PropOp41
 70
     1
102
RTVSPost2010Prop42
 90
       50
102
RTVSPost2010PropOp42
 70
     1
102
RTVSPost2010Prop43
 90
        3
102
RTVSPost2010PropOp43
 70
     1
102
RTVSPost2010Prop44ColorIndex
 90
        5
102
RTVSPost2010Prop44ColorRGB
 90
      255
102
RTVSPost2010PropOp44
 70
     1
102
RTVSPost2010Prop45
280
     0
102
RTVSPost2010PropOp45
 70
     1
102
RTVSPost2010Prop46
 90
       50
102
RTVSPost2010PropOp46
 70
     1
102
RTVSPost2010Prop47
 90
       50
102
RTVSPost2010PropOp47
 70
     1
102
RTVSPost2010Prop48
 90
       50
102
RTVSPost2010PropOp48
 70
     1
102
RTVSPost2010Prop49
280
     0
102
RTVSPost2010PropOp49
 70
     1
102
RTVSPost2010Prop50
 90
       50
102
RTVSPost2010PropOp50
 70
     1
102
RTVSPost2010Prop51ColorIndex
 90
      256
102
RTVSPost2010Prop51ColorRGB
 90
-16777216
102
RTVSPost2010PropOp51
 70
     0
102
RTVSPost2010Prop52
140
1.0
102
RTVSPost2010PropOp52
 70
     0
102
RTVSPost2010Prop53
 90
        2
102
RTVSPost2010PropOp53
 70
     1
102
RTVSPost2010Prop54
  1
strokes_ogs.tif
102
RTVSPost2010PropOp54
 70
     1
102
RTVSPost2010Prop55
280
     0
102
RTVSPost2010PropOp55
 70
     1
102
RTVSPost2010Prop56
140
1.0
102
RTVSPost2010PropOp56
 70
     1
102
RTVSPost2010Prop57
140
1.0
102
RTVSPost2010PropOp57
 70
     1
  0
XRECORD
  5
EA
102
{ACAD_REACTORS
330
E9
102
}
330
E9
100
AcDbXrecord
280
     1
102
RTVSPropertyOp0
 70
     0
102
RTVSPropertyOp1
 70
     0
102
RTVSPropertyOp2
 70
     0
102
RTVSPropertyOp3
 70
     0
102
RTVSPropertyOp4
 70
     0
102
RTVSPropertyOp5
 70
     0
102
RTVSPropertyOp6
 70
     0
102
RTVSPropertyOp7
 70
     0
102
RTVSPropertyOp8
 70
     0
102
RTVSPropertyOp9
 70
     0
102
RTVSPropertyOp10
 70
     0
102
RTVSPropertyOp11
 70
     0
102
RTVSPropertyOp12
 70
     0
102
RTVSPropertyOp13
 70
     0
102
RTVSPropertyOp14
 70
     2
102
RTVSPropertyOp15
 70
     0
102
RTVSPropertyOp16
 70
     0
102
RTVSPropertyOp17
 70
     0
102
RTVSPropertyOp18
 70
     0
102
RTVSPropertyOp19
 70
     0
102
RTVSPropertyOp20
 70
     0
102
RTVSPropertyOp21
 70
     0
102
RTVSPropertyOp22
 70
     0
102
RTVSPropertyOp23
 70
     0
102
RTVSPropertyOp24
 70
     0
102
RTVSPropertyOp25
 70
     0
102
RTVSPropertyOp26
 70
     0
102
RTVSPropertyOp27
 70
     0
102
RTVSPropertyOp28
 70
     0
102
RTVSPropertyOp29
 70
     0
102
RTVSPropertyOp30
 70
     0
102
RTVSPropertyOp31
 70
     0
102
RTVSPropertyOp32
 70
     0
102
RTVSPropertyOp33
 70
     0
102
RTVSPropertyOp34
 70
     0
102
RTVSPropertyOp35
 70
     0
102
RTVSPropertyOp36
 70
     0
102
RTVSPropertyOp37
 70
     0
102
RTVSPropertyOp38
 70
     0
102
RTVSPropertyOp39
 70
     0
102
RTVSPropertyOp40
 70
     0
102
RTVSPropertyOp41
 70
     0
102
RTVSPropertyOp42
 70
     0
102
RTVSPropertyOp43
 70
     0
102
RTVSPropertyOp44
 70
     0
102
RTVSPropertyOp45
 70
     0
102
RTVSPropertyOp46
 70
     0
102
RTVSPropertyOp47
 70
     0
102
RTVSPropertyOp48
 70
     0
102
RTVSPropertyOp49
 70
     0
102
RTVSPropertyOp50
 70
     0
102
RTVSPropertyOp51
 70
     0
102
RTVSPropertyOp52
 70
     0
102
RTVSPropertyOp53
 70
     0
102
RTVSPropertyOp54
 70
     0
102
RTVSPropertyOp55
 70
     0
102
RTVSPropertyOp56
 70
     0
102
RTVSPropertyOp57
 70
     0
102
RTVSPost2010Prop28
280
     0
102
RTVSPost2010PropOp28
 70
     0
102
RTVSPost2010Prop29
280
     1
102
RTVSPost2010PropOp29
 70
     0
102
RTVSPost2010Prop30
280
     1
102
RTVSPost2010PropOp30
 70
     0
102
RTVSPost2010Prop31
280
     0
102
RTVSPost2010PropOp31
 70
     0
102
RTVSPost2010Prop32
280
     0
102
RTVSPost2010PropOp32
 70
     0
102
RTVSPost2010Prop33
280
     0
102
RTVSPost2010PropOp33
 70
     0
102
RTVSPost2010Prop34
280
     0
102
RTVSPost2010PropOp34
 70
     0
102
RTVSPost2010Prop35
280
     0
102
RTVSPost2010PropOp35
 70
     0
102
RTVSPost2010Prop36
280
     0
102
RTVSPost2010PropOp36
 70
     0
102
RTVSPost2010Prop37
 90
       50
102
RTVSPost2010PropOp37
 70
     0
102
RTVSPost2010Prop38
140
0.0
102
RTVSPost2010PropOp38
 70
     0
102
RTVSPost2010Prop39
140
1.0
102
RTVSPost2010PropOp39
 70
     0
102
RTVSPost2010Prop40
 90
        0
102
RTVSPost2010PropOp40
 70
     0
102
RTVSPost2010Prop41ColorIndex
 90
       18
102
RTVSPost2010Prop41ColorRGB
 90
        0
102
RTVSPost2010PropOp41
 70
     0
102
RTVSPost2010Prop42
 90
       50
102
RTVSPost2010PropOp42
 70
     0
102
RTVSPost2010Prop43
 90
        3
102
RTVSPost2010PropOp43
 70
     0
102
RTVSPost2010Prop44ColorIndex
 90
        5
102
RTVSPost2010Prop44ColorRGB
 90
      255
102
RTVSPost2010PropOp44
 70
     0
102
RTVSPost2010Prop45
280
     0
102
RTVSPost2010PropOp45
 70
     0
102
RTVSPost2010Prop46
 90
       50
102
RTVSPost2010PropOp46
 70
     0
102
RTVSPost2010Prop47
 90
       50
102
RTVSPost2010PropOp47
 70
     0
102
RTVSPost2010Prop48
 90
       50
102
RTVSPost2010PropOp48
 70
     0
102
RTVSPost2010Prop49
280
     0
102
RTVSPost2010PropOp49
 70
     0
102
RTVSPost2010Prop50
 90
       50
102
RTVSPost2010PropOp50
 70
     0
102
RTVSPost2010Prop51ColorIndex
 90
      256
102
RTVSPost2010Prop51ColorRGB
 90
-16777216
102
RTVSPost2010PropOp51
 70
     0
102
RTVSPost2010Prop52
140
1.0
102
RTVSPost2010PropOp52
 70
     0
102
RTVSPost2010Prop53
 90
        2
102
RTVSPost2010PropOp53
 70
     0
102
RTVSPost2010Prop54
  1
strokes_ogs.tif
102
RTVSPost2010PropOp54
 70
     0
102
RTVSPost2010Prop55
280
     0
102
RTVSPost2010PropOp55
 70
     0
102
RTVSPost2010Prop56
140
1.0
102
RTVSPost2010PropOp56
 70
     0
102
RTVSPost2010Prop57
140
1.0
102
RTVSPost2010PropOp57
 70
     0
  0
XRECORD
  5
E2
102
{ACAD_REACTORS
330
E1
102
}
330
E1
100
AcDbXrecord
280
     1
102
RTVSPropertyOp0
 70
     1
102
RTVSPropertyOp1
 70
     1
102
RTVSPropertyOp2
 70
     1
102
RTVSPropertyOp3
 70
     1
102
RTVSPropertyOp4
 70
     1
102
RTVSPropertyOp5
 70
     1
102
RTVSPropertyOp6
 70
     1
102
RTVSPropertyOp7
 70
     1
102
RTVSPropertyOp8
 70
     1
102
RTVSPropertyOp9
 70
     1
102
RTVSPropertyOp10
 70
     1
102
RTVSPropertyOp11
 70
     1
102
RTVSPropertyOp12
 70
     1
102
RTVSPropertyOp13
 70
     1
102
RTVSPropertyOp14
 70
     1
102
RTVSPropertyOp15
 70
     1
102
RTVSPropertyOp16
 70
     1
102
RTVSPropertyOp17
 70
     1
102
RTVSPropertyOp18
 70
     1
102
RTVSPropertyOp19
 70
     1
102
RTVSPropertyOp20
 70
     1
102
RTVSPropertyOp21
 70
     1
102
RTVSPropertyOp22
 70
     1
102
RTVSPropertyOp23
 70
     1
102
RTVSPropertyOp24
 70
     1
102
RTVSPropertyOp25
 70
     1
102
RTVSPropertyOp26
 70
     1
102
RTVSPropertyOp27
 70
     1
102
RTVSPropertyOp28
 70
     1
102
RTVSPropertyOp29
 70
     1
102
RTVSPropertyOp30
 70
     1
102
RTVSPropertyOp31
 70
     1
102
RTVSPropertyOp32
 70
     1
102
RTVSPropertyOp33
 70
     1
102
RTVSPropertyOp34
 70
     1
102
RTVSPropertyOp35
 70
     1
102
RTVSPropertyOp36
 70
     1
102
RTVSPropertyOp37
 70
     1
102
RTVSPropertyOp38
 70
     1
102
RTVSPropertyOp39
 70
     1
102
RTVSPropertyOp40
 70
     1
102
RTVSPropertyOp41
 70
     1
102
RTVSPropertyOp42
 70
     1
102
RTVSPropertyOp43
 70
     1
102
RTVSPropertyOp44
 70
     1
102
RTVSPropertyOp45
 70
     1
102
RTVSPropertyOp46
 70
     1
102
RTVSPropertyOp47
 70
     1
102
RTVSPropertyOp48
 70
     1
102
RTVSPropertyOp49
 70
     1
102
RTVSPropertyOp50
 70
     1
102
RTVSPropertyOp51
 70
     0
102
RTVSPropertyOp52
 70
     0
102
RTVSPropertyOp53
 70
     1
102
RTVSPropertyOp54
 70
     1
102
RTVSPropertyOp55
 70
     1
102
RTVSPropertyOp56
 70
     1
102
RTVSPropertyOp57
 70
     1
102
RTVSPost2010Prop28
280
     0
102
RTVSPost2010PropOp28
 70
     1
102
RTVSPost2010Prop29
280
     1
102
RTVSPost2010PropOp29
 70
     1
102
RTVSPost2010Prop30
280
     1
102
RTVSPost2010PropOp30
 70
     1
102
RTVSPost2010Prop31
280
     0
102
RTVSPost2010PropOp31
 70
     1
102
RTVSPost2010Prop32
280
     0
102
RTVSPost2010PropOp32
 70
     1
102
RTVSPost2010Prop33
280
     0
102
RTVSPost2010PropOp33
 70
     1
102
RTVSPost2010Prop34
280
     0
102
RTVSPost2010PropOp34
 70
     1
102
RTVSPost2010Prop35
280
     0
102
RTVSPost2010PropOp35
 70
     1
102
RTVSPost2010Prop36
280
     0
102
RTVSPost2010PropOp36
 70
     1
102
RTVSPost2010Prop37
 90
       50
102
RTVSPost2010PropOp37
 70
     1
102
RTVSPost2010Prop38
140
0.0
102
RTVSPost2010PropOp38
 70
     1
102
RTVSPost2010Prop39
140
1.0
102
RTVSPost2010PropOp39
 70
     1
102
RTVSPost2010Prop40
 90
        0
102
RTVSPost2010PropOp40
 70
     1
102
RTVSPost2010Prop41ColorIndex
 90
       18
102
RTVSPost2010Prop41ColorRGB
 90
        0
102
RTVSPost2010PropOp41
 70
     1
102
RTVSPost2010Prop42
 90
       50
102
RTVSPost2010PropOp42
 70
     1
102
RTVSPost2010Prop43
 90
        3
102
RTVSPost2010PropOp43
 70
     1
102
RTVSPost2010Prop44ColorIndex
 90
        5
102
RTVSPost2010Prop44ColorRGB
 90
      255
102
RTVSPost2010PropOp44
 70
     1
102
RTVSPost2010Prop45
280
     0
102
RTVSPost2010PropOp45
 70
     1
102
RTVSPost2010Prop46
 90
       50
102
RTVSPost2010PropOp46
 70
     1
102
RTVSPost2010Prop47
 90
       50
102
RTVSPost2010PropOp47
 70
     1
102
RTVSPost2010Prop48
 90
       50
102
RTVSPost2010PropOp48
 70
     1
102
RTVSPost2010Prop49
280
     0
102
RTVSPost2010PropOp49
 70
     1
102
RTVSPost2010Prop50
 90
       50
102
RTVSPost2010PropOp50
 70
     1
102
RTVSPost2010Prop51ColorIndex
 90
      256
102
RTVSPost2010Prop51ColorRGB
 90
-16777216
102
RTVSPost2010PropOp51
 70
     0
102
RTVSPost2010Prop52
140
1.0
102
RTVSPost2010PropOp52
 70
     0
102
RTVSPost2010Prop53
 90
        2
102
RTVSPost2010PropOp53
 70
     1
102
RTVSPost2010Prop54
  1
strokes_ogs.tif
102
RTVSPost2010PropOp54
 70
     1
102
RTVSPost2010Prop55
280
     0
102
RTVSPost2010PropOp55
 70
     1
102
RTVSPost2010Prop56
140
1.0
102
RTVSPost2010PropOp56
 70
     1
102
RTVSPost2010Prop57
140
1.0
102
RTVSPost2010PropOp57
 70
     1
  0
XRECORD
  5
C6
102
{ACAD_REACTORS
330
C5
102
}
330
C5
100
AcDbXrecord
280
     1
102
RTVSPropertyOp0
 70
     1
102
RTVSPropertyOp1
 70
     1
102
RTVSPropertyOp2
 70
     1
102
RTVSPropertyOp3
 70
     1
102
RTVSPropertyOp4
 70
     1
102
RTVSPropertyOp5
 70
     1
102
RTVSPropertyOp6
 70
     1
102
RTVSPropertyOp7
 70
     1
102
RTVSPropertyOp8
 70
     1
102
RTVSPropertyOp9
 70
     1
102
RTVSPropertyOp10
 70
     1
102
RTVSPropertyOp11
 70
     1
102
RTVSPropertyOp12
 70
     1
102
RTVSPropertyOp13
 70
     1
102
RTVSPropertyOp14
 70
     1
102
RTVSPropertyOp15
 70
     1
102
RTVSPropertyOp16
 70
     1
102
RTVSPropertyOp17
 70
     1
102
RTVSPropertyOp18
 70
     1
102
RTVSPropertyOp19
 70
     1
102
RTVSPropertyOp20
 70
     1
102
RTVSPropertyOp21
 70
     1
102
RTVSPropertyOp22
 70
     1
102
RTVSPropertyOp23
 70
     1
102
RTVSPropertyOp24
 70
     1
102
RTVSPropertyOp25
 70
     1
102
RTVSPropertyOp26
 70
     1
102
RTVSPropertyOp27
 70
     1
102
RTVSPropertyOp28
 70
     1
102
RTVSPropertyOp29
 70
     1
102
RTVSPropertyOp30
 70
     1
102
RTVSPropertyOp31
 70
     1
102
RTVSPropertyOp32
 70
     1
102
RTVSPropertyOp33
 70
     1
102
RTVSPropertyOp34
 70
     1
102
RTVSPropertyOp35
 70
     1
102
RTVSPropertyOp36
 70
     1
102
RTVSPropertyOp37
 70
     1
102
RTVSPropertyOp38
 70
     1
102
RTVSPropertyOp39
 70
     1
102
RTVSPropertyOp40
 70
     1
102
RTVSPropertyOp41
 70
     1
102
RTVSPropertyOp42
 70
     1
102
RTVSPropertyOp43
 70
     1
102
RTVSPropertyOp44
 70
     1
102
RTVSPropertyOp45
 70
     1
102
RTVSPropertyOp46
 70
     1
102
RTVSPropertyOp47
 70
     1
102
RTVSPropertyOp48
 70
     1
102
RTVSPropertyOp49
 70
     1
102
RTVSPropertyOp50
 70
     1
102
RTVSPropertyOp51
 70
     0
102
RTVSPropertyOp52
 70
     0
102
RTVSPropertyOp53
 70
     1
102
RTVSPropertyOp54
 70
     1
102
RTVSPropertyOp55
 70
     1
102
RTVSPropertyOp56
 70
     1
102
RTVSPropertyOp57
 70
     1
102
RTVSPost2010Prop28
280
     0
102
RTVSPost2010PropOp28
 70
     1
102
RTVSPost2010Prop29
280
     1
102
RTVSPost2010PropOp29
 70
     1
102
RTVSPost2010Prop30
280
     1
102
RTVSPost2010PropOp30
 70
     1
102
RTVSPost2010Prop31
280
     0
102
RTVSPost2010PropOp31
 70
     1
102
RTVSPost2010Prop32
280
     0
102
RTVSPost2010PropOp32
 70
     1
102
RTVSPost2010Prop33
280
     0
102
RTVSPost2010PropOp33
 70
     1
102
RTVSPost2010Prop34
280
     0
102
RTVSPost2010PropOp34
 70
     1
102
RTVSPost2010Prop35
280
     0
102
RTVSPost2010PropOp35
 70
     1
102
RTVSPost2010Prop36
280
     0
102
RTVSPost2010PropOp36
 70
     1
102
RTVSPost2010Prop37
 90
       50
102
RTVSPost2010PropOp37
 70
     1
102
RTVSPost2010Prop38
140
0.0
102
RTVSPost2010PropOp38
 70
     1
102
RTVSPost2010Prop39
140
1.0
102
RTVSPost2010PropOp39
 70
     1
102
RTVSPost2010Prop40
 90
        0
102
RTVSPost2010PropOp40
 70
     1
102
RTVSPost2010Prop41ColorIndex
 90
       18
102
RTVSPost2010Prop41ColorRGB
 90
        0
102
RTVSPost2010PropOp41
 70
     1
102
RTVSPost2010Prop42
 90
       50
102
RTVSPost2010PropOp42
 70
     1
102
RTVSPost2010Prop43
 90
        3
102
RTVSPost2010PropOp43
 70
     1
102
RTVSPost2010Prop44ColorIndex
 90
        5
102
RTVSPost2010Prop44ColorRGB
 90
      255
102
RTVSPost2010PropOp44
 70
     1
102
RTVSPost2010Prop45
280
     0
102
RTVSPost2010PropOp45
 70
     1
102
RTVSPost2010Prop46
 90
       50
102
RTVSPost2010PropOp46
 70
     1
102
RTVSPost2010Prop47
 90
       50
102
RTVSPost2010PropOp47
 70
     1
102
RTVSPost2010Prop48
 90
       50
102
RTVSPost2010PropOp48
 70
     1
102
RTVSPost2010Prop49
280
     0
102
RTVSPost2010PropOp49
 70
     1
102
RTVSPost2010Prop50
 90
       50
102
RTVSPost2010PropOp50
 70
     1
102
RTVSPost2010Prop51ColorIndex
 90
      256
102
RTVSPost2010Prop51ColorRGB
 90
-16777216
102
RTVSPost2010PropOp51
 70
     0
102
RTVSPost2010Prop52
140
1.0
102
RTVSPost2010PropOp52
 70
     0
102
RTVSPost2010Prop53
 90
        2
102
RTVSPost2010PropOp53
 70
     1
102
RTVSPost2010Prop54
  1
strokes_ogs.tif
102
RTVSPost2010PropOp54
 70
     1
102
RTVSPost2010Prop55
280
     0
102
RTVSPost2010PropOp55
 70
     1
102
RTVSPost2010Prop56
140
1.0
102
RTVSPost2010PropOp56
 70
     1
102
RTVSPost2010Prop57
140
1.0
102
RTVSPost2010PropOp57
 70
     1
  0
XRECORD
  5
C8
102
{ACAD_REACTORS
330
C7
102
}
330
C7
100
AcDbXrecord
280
     1
102
RTVSPropertyOp0
 70
     1
102
RTVSPropertyOp1
 70
     1
102
RTVSPropertyOp2
 70
     1
102
RTVSPropertyOp3
 70
     1
102
RTVSPropertyOp4
 70
     1
102
RTVSPropertyOp5
 70
     1
102
RTVSPropertyOp6
 70
     1
102
RTVSPropertyOp7
 70
     1
102
RTVSPropertyOp8
 70
     1
102
RTVSPropertyOp9
 70
     1
102
RTVSPropertyOp10
 70
     1
102
RTVSPropertyOp11
 70
     1
102
RTVSPropertyOp12
 70
     1
102
RTVSPropertyOp13
 70
     1
102
RTVSPropertyOp14
 70
     1
102
RTVSPropertyOp15
 70
     1
102
RTVSPropertyOp16
 70
     1
102
RTVSPropertyOp17
 70
     1
102
RTVSPropertyOp18
 70
     1
102
RTVSPropertyOp19
 70
     1
102
RTVSPropertyOp20
 70
     1
102
RTVSPropertyOp21
 70
     1
102
RTVSPropertyOp22
 70
     1
102
RTVSPropertyOp23
 70
     1
102
RTVSPropertyOp24
 70
     1
102
RTVSPropertyOp25
 70
     1
102
RTVSPropertyOp26
 70
     1
102
RTVSPropertyOp27
 70
     1
102
RTVSPropertyOp28
 70
     1
102
RTVSPropertyOp29
 70
     1
102
RTVSPropertyOp30
 70
     1
102
RTVSPropertyOp31
 70
     1
102
RTVSPropertyOp32
 70
     1
102
RTVSPropertyOp33
 70
     1
102
RTVSPropertyOp34
 70
     1
102
RTVSPropertyOp35
 70
     1
102
RTVSPropertyOp36
 70
     1
102
RTVSPropertyOp37
 70
     1
102
RTVSPropertyOp38
 70
     1
102
RTVSPropertyOp39
 70
     1
102
RTVSPropertyOp40
 70
     1
102
RTVSPropertyOp41
 70
     1
102
RTVSPropertyOp42
 70
     1
102
RTVSPropertyOp43
 70
     1
102
RTVSPropertyOp44
 70
     1
102
RTVSPropertyOp45
 70
     1
102
RTVSPropertyOp46
 70
     1
102
RTVSPropertyOp47
 70
     1
102
RTVSPropertyOp48
 70
     1
102
RTVSPropertyOp49
 70
     1
102
RTVSPropertyOp50
 70
     1
102
RTVSPropertyOp51
 70
     0
102
RTVSPropertyOp52
 70
     0
102
RTVSPropertyOp53
 70
     1
102
RTVSPropertyOp54
 70
     1
102
RTVSPropertyOp55
 70
     1
102
RTVSPropertyOp56
 70
     1
102
RTVSPropertyOp57
 70
     1
102
RTVSPost2010Prop28
280
     0
102
RTVSPost2010PropOp28
 70
     1
102
RTVSPost2010Prop29
280
     1
102
RTVSPost2010PropOp29
 70
     1
102
RTVSPost2010Prop30
280
     1
102
RTVSPost2010PropOp30
 70
     1
102
RTVSPost2010Prop31
280
     0
102
RTVSPost2010PropOp31
 70
     1
102
RTVSPost2010Prop32
280
     0
102
RTVSPost2010PropOp32
 70
     1
102
RTVSPost2010Prop33
280
     0
102
RTVSPost2010PropOp33
 70
     1
102
RTVSPost2010Prop34
280
     0
102
RTVSPost2010PropOp34
 70
     1
102
RTVSPost2010Prop35
280
     0
102
RTVSPost2010PropOp35
 70
     1
102
RTVSPost2010Prop36
280
     0
102
RTVSPost2010PropOp36
 70
     1
102
RTVSPost2010Prop37
 90
       50
102
RTVSPost2010PropOp37
 70
     1
102
RTVSPost2010Prop38
140
0.0
102
RTVSPost2010PropOp38
 70
     1
102
RTVSPost2010Prop39
140
1.0
102
RTVSPost2010PropOp39
 70
     1
102
RTVSPost2010Prop40
 90
        0
102
RTVSPost2010PropOp40
 70
     1
102
RTVSPost2010Prop41ColorIndex
 90
       18
102
RTVSPost2010Prop41ColorRGB
 90
        0
102
RTVSPost2010PropOp41
 70
     1
102
RTVSPost2010Prop42
 90
       50
102
RTVSPost2010PropOp42
 70
     1
102
RTVSPost2010Prop43
 90
        3
102
RTVSPost2010PropOp43
 70
     1
102
RTVSPost2010Prop44ColorIndex
 90
        5
102
RTVSPost2010Prop44ColorRGB
 90
      255
102
RTVSPost2010PropOp44
 70
     1
102
RTVSPost2010Prop45
280
     0
102
RTVSPost2010PropOp45
 70
     1
102
RTVSPost2010Prop46
 90
       50
102
RTVSPost2010PropOp46
 70
     1
102
RTVSPost2010Prop47
 90
       50
102
RTVSPost2010PropOp47
 70
     1
102
RTVSPost2010Prop48
 90
       50
102
RTVSPost2010PropOp48
 70
     1
102
RTVSPost2010Prop49
280
     0
102
RTVSPost2010PropOp49
 70
     1
102
RTVSPost2010Prop50
 90
       50
102
RTVSPost2010PropOp50
 70
     1
102
RTVSPost2010Prop51ColorIndex
 90
      256
102
RTVSPost2010Prop51ColorRGB
 90
-16777216
102
RTVSPost2010PropOp51
 70
     0
102
RTVSPost2010Prop52
140
1.0
102
RTVSPost2010PropOp52
 70
     0
102
RTVSPost2010Prop53
 90
        2
102
RTVSPost2010PropOp53
 70
     1
102
RTVSPost2010Prop54
  1
strokes_ogs.tif
102
RTVSPost2010PropOp54
 70
     1
102
RTVSPost2010Prop55
280
     0
102
RTVSPost2010PropOp55
 70
     1
102
RTVSPost2010Prop56
140
1.0
102
RTVSPost2010PropOp56
 70
     1
102
RTVSPost2010Prop57
140
1.0
102
RTVSPost2010PropOp57
 70
     1
  0
XRECORD
  5
CA
102
{ACAD_REACTORS
330
C9
102
}
330
C9
100
AcDbXrecord
280
     1
102
RTVSPropertyOp0
 70
     1
102
RTVSPropertyOp1
 70
     1
102
RTVSPropertyOp2
 70
     1
102
RTVSPropertyOp3
 70
     1
102
RTVSPropertyOp4
 70
     1
102
RTVSPropertyOp5
 70
     1
102
RTVSPropertyOp6
 70
     1
102
RTVSPropertyOp7
 70
     1
102
RTVSPropertyOp8
 70
     1
102
RTVSPropertyOp9
 70
     1
102
RTVSPropertyOp10
 70
     1
102
RTVSPropertyOp11
 70
     1
102
RTVSPropertyOp12
 70
     1
102
RTVSPropertyOp13
 70
     1
102
RTVSPropertyOp14
 70
     1
102
RTVSPropertyOp15
 70
     1
102
RTVSPropertyOp16
 70
     1
102
RTVSPropertyOp17
 70
     1
102
RTVSPropertyOp18
 70
     1
102
RTVSPropertyOp19
 70
     1
102
RTVSPropertyOp20
 70
     1
102
RTVSPropertyOp21
 70
     1
102
RTVSPropertyOp22
 70
     1
102
RTVSPropertyOp23
 70
     1
102
RTVSPropertyOp24
 70
     1
102
RTVSPropertyOp25
 70
     1
102
RTVSPropertyOp26
 70
     1
102
RTVSPropertyOp27
 70
     1
102
RTVSPropertyOp28
 70
     1
102
RTVSPropertyOp29
 70
     1
102
RTVSPropertyOp30
 70
     1
102
RTVSPropertyOp31
 70
     1
102
RTVSPropertyOp32
 70
     1
102
RTVSPropertyOp33
 70
     1
102
RTVSPropertyOp34
 70
     1
102
RTVSPropertyOp35
 70
     1
102
RTVSPropertyOp36
 70
     1
102
RTVSPropertyOp37
 70
     1
102
RTVSPropertyOp38
 70
     1
102
RTVSPropertyOp39
 70
     1
102
RTVSPropertyOp40
 70
     1
102
RTVSPropertyOp41
 70
     1
102
RTVSPropertyOp42
 70
     1
102
RTVSPropertyOp43
 70
     1
102
RTVSPropertyOp44
 70
     1
102
RTVSPropertyOp45
 70
     1
102
RTVSPropertyOp46
 70
     1
102
RTVSPropertyOp47
 70
     1
102
RTVSPropertyOp48
 70
     1
102
RTVSPropertyOp49
 70
     1
102
RTVSPropertyOp50
 70
     1
102
RTVSPropertyOp51
 70
     0
102
RTVSPropertyOp52
 70
     0
102
RTVSPropertyOp53
 70
     1
102
RTVSPropertyOp54
 70
     1
102
RTVSPropertyOp55
 70
     1
102
RTVSPropertyOp56
 70
     1
102
RTVSPropertyOp57
 70
     1
102
RTVSPost2010Prop28
280
     0
102
RTVSPost2010PropOp28
 70
     1
102
RTVSPost2010Prop29
280
     1
102
RTVSPost2010PropOp29
 70
     1
102
RTVSPost2010Prop30
280
     1
102
RTVSPost2010PropOp30
 70
     1
102
RTVSPost2010Prop31
280
     0
102
RTVSPost2010PropOp31
 70
     1
102
RTVSPost2010Prop32
280
     0
102
RTVSPost2010PropOp32
 70
     1
102
RTVSPost2010Prop33
280
     0
102
RTVSPost2010PropOp33
 70
     1
102
RTVSPost2010Prop34
280
     0
102
RTVSPost2010PropOp34
 70
     1
102
RTVSPost2010Prop35
280
     0
102
RTVSPost2010PropOp35
 70
     1
102
RTVSPost2010Prop36
280
     0
102
RTVSPost2010PropOp36
 70
     1
102
RTVSPost2010Prop37
 90
       50
102
RTVSPost2010PropOp37
 70
     1
102
RTVSPost2010Prop38
140
0.0
102
RTVSPost2010PropOp38
 70
     1
102
RTVSPost2010Prop39
140
1.0
102
RTVSPost2010PropOp39
 70
     1
102
RTVSPost2010Prop40
 90
        0
102
RTVSPost2010PropOp40
 70
     1
102
RTVSPost2010Prop41ColorIndex
 90
       18
102
RTVSPost2010Prop41ColorRGB
 90
        0
102
RTVSPost2010PropOp41
 70
     1
102
RTVSPost2010Prop42
 90
       50
102
RTVSPost2010PropOp42
 70
     1
102
RTVSPost2010Prop43
 90
        3
102
RTVSPost2010PropOp43
 70
     1
102
RTVSPost2010Prop44ColorIndex
 90
        5
102
RTVSPost2010Prop44ColorRGB
 90
      255
102
RTVSPost2010PropOp44
 70
     1
102
RTVSPost2010Prop45
280
     0
102
RTVSPost2010PropOp45
 70
     1
102
RTVSPost2010Prop46
 90
       50
102
RTVSPost2010PropOp46
 70
     1
102
RTVSPost2010Prop47
 90
       50
102
RTVSPost2010PropOp47
 70
     1
102
RTVSPost2010Prop48
 90
       50
102
RTVSPost2010PropOp48
 70
     1
102
RTVSPost2010Prop49
280
     0
102
RTVSPost2010PropOp49
 70
     1
102
RTVSPost2010Prop50
 90
       50
102
RTVSPost2010PropOp50
 70
     1
102
RTVSPost2010Prop51ColorIndex
 90
      256
102
RTVSPost2010Prop51ColorRGB
 90
-16777216
102
RTVSPost2010PropOp51
 70
     0
102
RTVSPost2010Prop52
140
1.0
102
RTVSPost2010PropOp52
 70
     0
102
RTVSPost2010Prop53
 90
        2
102
RTVSPost2010PropOp53
 70
     1
102
RTVSPost2010Prop54
  1
strokes_ogs.tif
102
RTVSPost2010PropOp54
 70
     1
102
RTVSPost2010Prop55
280
     0
102
RTVSPost2010PropOp55
 70
     1
102
RTVSPost2010Prop56
140
1.0
102
RTVSPost2010PropOp56
 70
     1
102
RTVSPost2010Prop57
140
1.0
102
RTVSPost2010PropOp57
 70
     1
  0
XRECORD
  5
CC
102
{ACAD_REACTORS
330
CB
102
}
330
CB
100
AcDbXrecord
280
     1
102
RTVSPropertyOp0
 70
     1
102
RTVSPropertyOp1
 70
     1
102
RTVSPropertyOp2
 70
     1
102
RTVSPropertyOp3
 70
     1
102
RTVSPropertyOp4
 70
     1
102
RTVSPropertyOp5
 70
     1
102
RTVSPropertyOp6
 70
     1
102
RTVSPropertyOp7
 70
     1
102
RTVSPropertyOp8
 70
     1
102
RTVSPropertyOp9
 70
     1
102
RTVSPropertyOp10
 70
     1
102
RTVSPropertyOp11
 70
     1
102
RTVSPropertyOp12
 70
     1
102
RTVSPropertyOp13
 70
     1
102
RTVSPropertyOp14
 70
     1
102
RTVSPropertyOp15
 70
     1
102
RTVSPropertyOp16
 70
     1
102
RTVSPropertyOp17
 70
     1
102
RTVSPropertyOp18
 70
     1
102
RTVSPropertyOp19
 70
     1
102
RTVSPropertyOp20
 70
     1
102
RTVSPropertyOp21
 70
     1
102
RTVSPropertyOp22
 70
     1
102
RTVSPropertyOp23
 70
     1
102
RTVSPropertyOp24
 70
     1
102
RTVSPropertyOp25
 70
     1
102
RTVSPropertyOp26
 70
     1
102
RTVSPropertyOp27
 70
     1
102
RTVSPropertyOp28
 70
     1
102
RTVSPropertyOp29
 70
     1
102
RTVSPropertyOp30
 70
     1
102
RTVSPropertyOp31
 70
     1
102
RTVSPropertyOp32
 70
     1
102
RTVSPropertyOp33
 70
     1
102
RTVSPropertyOp34
 70
     1
102
RTVSPropertyOp35
 70
     1
102
RTVSPropertyOp36
 70
     1
102
RTVSPropertyOp37
 70
     1
102
RTVSPropertyOp38
 70
     1
102
RTVSPropertyOp39
 70
     1
102
RTVSPropertyOp40
 70
     1
102
RTVSPropertyOp41
 70
     1
102
RTVSPropertyOp42
 70
     1
102
RTVSPropertyOp43
 70
     1
102
RTVSPropertyOp44
 70
     1
102
RTVSPropertyOp45
 70
     1
102
RTVSPropertyOp46
 70
     1
102
RTVSPropertyOp47
 70
     1
102
RTVSPropertyOp48
 70
     1
102
RTVSPropertyOp49
 70
     1
102
RTVSPropertyOp50
 70
     1
102
RTVSPropertyOp51
 70
     0
102
RTVSPropertyOp52
 70
     0
102
RTVSPropertyOp53
 70
     1
102
RTVSPropertyOp54
 70
     1
102
RTVSPropertyOp55
 70
     1
102
RTVSPropertyOp56
 70
     1
102
RTVSPropertyOp57
 70
     1
102
RTVSPost2010Prop28
280
     0
102
RTVSPost2010PropOp28
 70
     1
102
RTVSPost2010Prop29
280
     1
102
RTVSPost2010PropOp29
 70
     1
102
RTVSPost2010Prop30
280
     1
102
RTVSPost2010PropOp30
 70
     1
102
RTVSPost2010Prop31
280
     0
102
RTVSPost2010PropOp31
 70
     1
102
RTVSPost2010Prop32
280
     0
102
RTVSPost2010PropOp32
 70
     1
102
RTVSPost2010Prop33
280
     0
102
RTVSPost2010PropOp33
 70
     1
102
RTVSPost2010Prop34
280
     0
102
RTVSPost2010PropOp34
 70
     1
102
RTVSPost2010Prop35
280
     0
102
RTVSPost2010PropOp35
 70
     1
102
RTVSPost2010Prop36
280
     0
102
RTVSPost2010PropOp36
 70
     1
102
RTVSPost2010Prop37
 90
       50
102
RTVSPost2010PropOp37
 70
     1
102
RTVSPost2010Prop38
140
0.0
102
RTVSPost2010PropOp38
 70
     1
102
RTVSPost2010Prop39
140
1.0
102
RTVSPost2010PropOp39
 70
     1
102
RTVSPost2010Prop40
 90
        0
102
RTVSPost2010PropOp40
 70
     1
102
RTVSPost2010Prop41ColorIndex
 90
       18
102
RTVSPost2010Prop41ColorRGB
 90
        0
102
RTVSPost2010PropOp41
 70
     1
102
RTVSPost2010Prop42
 90
       50
102
RTVSPost2010PropOp42
 70
     1
102
RTVSPost2010Prop43
 90
        3
102
RTVSPost2010PropOp43
 70
     1
102
RTVSPost2010Prop44ColorIndex
 90
        5
102
RTVSPost2010Prop44ColorRGB
 90
      255
102
RTVSPost2010PropOp44
 70
     1
102
RTVSPost2010Prop45
280
     0
102
RTVSPost2010PropOp45
 70
     1
102
RTVSPost2010Prop46
 90
       50
102
RTVSPost2010PropOp46
 70
     1
102
RTVSPost2010Prop47
 90
       50
102
RTVSPost2010PropOp47
 70
     1
102
RTVSPost2010Prop48
 90
       50
102
RTVSPost2010PropOp48
 70
     1
102
RTVSPost2010Prop49
280
     0
102
RTVSPost2010PropOp49
 70
     1
102
RTVSPost2010Prop50
 90
       50
102
RTVSPost2010PropOp50
 70
     1
102
RTVSPost2010Prop51ColorIndex
 90
      256
102
RTVSPost2010Prop51ColorRGB
 90
-16777216
102
RTVSPost2010PropOp51
 70
     0
102
RTVSPost2010Prop52
140
1.0
102
RTVSPost2010PropOp52
 70
     0
102
RTVSPost2010Prop53
 90
        2
102
RTVSPost2010PropOp53
 70
     1
102
RTVSPost2010Prop54
  1
strokes_ogs.tif
102
RTVSPost2010PropOp54
 70
     1
102
RTVSPost2010Prop55
280
     0
102
RTVSPost2010PropOp55
 70
     1
102
RTVSPost2010Prop56
140
1.0
102
RTVSPost2010PropOp56
 70
     1
102
RTVSPost2010Prop57
140
1.0
102
RTVSPost2010PropOp57
 70
     1
  0
XRECORD
  5
D2
102
{ACAD_REACTORS
330
D1
102
}
330
D1
100
AcDbXrecord
280
     1
102
RTVSPropertyOp0
 70
     1
102
RTVSPropertyOp1
 70
     1
102
RTVSPropertyOp2
 70
     1
102
RTVSPropertyOp3
 70
     1
102
RTVSPropertyOp4
 70
     1
102
RTVSPropertyOp5
 70
     1
102
RTVSPropertyOp6
 70
     1
102
RTVSPropertyOp7
 70
     1
102
RTVSPropertyOp8
 70
     1
102
RTVSPropertyOp9
 70
     1
102
RTVSPropertyOp10
 70
     1
102
RTVSPropertyOp11
 70
     1
102
RTVSPropertyOp12
 70
     1
102
RTVSPropertyOp13
 70
     1
102
RTVSPropertyOp14
 70
     1
102
RTVSPropertyOp15
 70
     1
102
RTVSPropertyOp16
 70
     1
102
RTVSPropertyOp17
 70
     1
102
RTVSPropertyOp18
 70
     1
102
RTVSPropertyOp19
 70
     1
102
RTVSPropertyOp20
 70
     1
102
RTVSPropertyOp21
 70
     1
102
RTVSPropertyOp22
 70
     1
102
RTVSPropertyOp23
 70
     1
102
RTVSPropertyOp24
 70
     1
102
RTVSPropertyOp25
 70
     1
102
RTVSPropertyOp26
 70
     1
102
RTVSPropertyOp27
 70
     1
102
RTVSPropertyOp28
 70
     1
102
RTVSPropertyOp29
 70
     1
102
RTVSPropertyOp30
 70
     1
102
RTVSPropertyOp31
 70
     1
102
RTVSPropertyOp32
 70
     1
102
RTVSPropertyOp33
 70
     1
102
RTVSPropertyOp34
 70
     1
102
RTVSPropertyOp35
 70
     1
102
RTVSPropertyOp36
 70
     1
102
RTVSPropertyOp37
 70
     1
102
RTVSPropertyOp38
 70
     1
102
RTVSPropertyOp39
 70
     1
102
RTVSPropertyOp40
 70
     1
102
RTVSPropertyOp41
 70
     1
102
RTVSPropertyOp42
 70
     1
102
RTVSPropertyOp43
 70
     1
102
RTVSPropertyOp44
 70
     1
102
RTVSPropertyOp45
 70
     1
102
RTVSPropertyOp46
 70
     1
102
RTVSPropertyOp47
 70
     1
102
RTVSPropertyOp48
 70
     1
102
RTVSPropertyOp49
 70
     1
102
RTVSPropertyOp50
 70
     1
102
RTVSPropertyOp51
 70
     0
102
RTVSPropertyOp52
 70
     0
102
RTVSPropertyOp53
 70
     1
102
RTVSPropertyOp54
 70
     1
102
RTVSPropertyOp55
 70
     1
102
RTVSPropertyOp56
 70
     1
102
RTVSPropertyOp57
 70
     1
102
RTVSPost2010Prop28
280
     0
102
RTVSPost2010PropOp28
 70
     1
102
RTVSPost2010Prop29
280
     1
102
RTVSPost2010PropOp29
 70
     1
102
RTVSPost2010Prop30
280
     1
102
RTVSPost2010PropOp30
 70
     1
102
RTVSPost2010Prop31
280
     0
102
RTVSPost2010PropOp31
 70
     1
102
RTVSPost2010Prop32
280
     0
102
RTVSPost2010PropOp32
 70
     1
102
RTVSPost2010Prop33
280
     0
102
RTVSPost2010PropOp33
 70
     1
102
RTVSPost2010Prop34
280
     0
102
RTVSPost2010PropOp34
 70
     1
102
RTVSPost2010Prop35
280
     0
102
RTVSPost2010PropOp35
 70
     1
102
RTVSPost2010Prop36
280
     0
102
RTVSPost2010PropOp36
 70
     1
102
RTVSPost2010Prop37
 90
       50
102
RTVSPost2010PropOp37
 70
     1
102
RTVSPost2010Prop38
140
0.0
102
RTVSPost2010PropOp38
 70
     1
102
RTVSPost2010Prop39
140
1.0
102
RTVSPost2010PropOp39
 70
     1
102
RTVSPost2010Prop40
 90
        0
102
RTVSPost2010PropOp40
 70
     1
102
RTVSPost2010Prop41ColorIndex
 90
       18
102
RTVSPost2010Prop41ColorRGB
 90
        0
102
RTVSPost2010PropOp41
 70
     1
102
RTVSPost2010Prop42
 90
       50
102
RTVSPost2010PropOp42
 70
     1
102
RTVSPost2010Prop43
 90
        3
102
RTVSPost2010PropOp43
 70
     1
102
RTVSPost2010Prop44ColorIndex
 90
        5
102
RTVSPost2010Prop44ColorRGB
 90
      255
102
RTVSPost2010PropOp44
 70
     1
102
RTVSPost2010Prop45
280
     0
102
RTVSPost2010PropOp45
 70
     1
102
RTVSPost2010Prop46
 90
       50
102
RTVSPost2010PropOp46
 70
     1
102
RTVSPost2010Prop47
 90
       50
102
RTVSPost2010PropOp47
 70
     1
102
RTVSPost2010Prop48
 90
       50
102
RTVSPost2010PropOp48
 70
     1
102
RTVSPost2010Prop49
280
     0
102
RTVSPost2010PropOp49
 70
     1
102
RTVSPost2010Prop50
 90
       50
102
RTVSPost2010PropOp50
 70
     1
102
RTVSPost2010Prop51ColorIndex
 90
      256
102
RTVSPost2010Prop51ColorRGB
 90
-16777216
102
RTVSPost2010PropOp51
 70
     0
102
RTVSPost2010Prop52
140
1.0
102
RTVSPost2010PropOp52
 70
     0
102
RTVSPost2010Prop53
 90
        2
102
RTVSPost2010PropOp53
 70
     1
102
RTVSPost2010Prop54
  1
strokes_ogs.tif
102
RTVSPost2010PropOp54
 70
     1
102
RTVSPost2010Prop55
280
     0
102
RTVSPost2010PropOp55
 70
     1
102
RTVSPost2010Prop56
140
1.0
102
RTVSPost2010PropOp56
 70
     1
102
RTVSPost2010Prop57
140
1.0
102
RTVSPost2010PropOp57
 70
     1
  0
XRECORD
  5
E6
102
{ACAD_REACTORS
330
E5
102
}
330
E5
100
AcDbXrecord
280
     1
102
RTVSPropertyOp0
 70
     0
102
RTVSPropertyOp1
 70
     0
102
RTVSPropertyOp2
 70
     0
102
RTVSPropertyOp3
 70
     0
102
RTVSPropertyOp4
 70
     0
102
RTVSPropertyOp5
 70
     0
102
RTVSPropertyOp6
 70
     0
102
RTVSPropertyOp7
 70
     0
102
RTVSPropertyOp8
 70
     0
102
RTVSPropertyOp9
 70
     0
102
RTVSPropertyOp10
 70
     0
102
RTVSPropertyOp11
 70
     0
102
RTVSPropertyOp12
 70
     0
102
RTVSPropertyOp13
 70
     0
102
RTVSPropertyOp14
 70
     2
102
RTVSPropertyOp15
 70
     0
102
RTVSPropertyOp16
 70
     0
102
RTVSPropertyOp17
 70
     0
102
RTVSPropertyOp18
 70
     0
102
RTVSPropertyOp19
 70
     0
102
RTVSPropertyOp20
 70
     0
102
RTVSPropertyOp21
 70
     0
102
RTVSPropertyOp22
 70
     0
102
RTVSPropertyOp23
 70
     0
102
RTVSPropertyOp24
 70
     0
102
RTVSPropertyOp25
 70
     0
102
RTVSPropertyOp26
 70
     0
102
RTVSPropertyOp27
 70
     0
102
RTVSPropertyOp28
 70
     0
102
RTVSPropertyOp29
 70
     0
102
RTVSPropertyOp30
 70
     0
102
RTVSPropertyOp31
 70
     0
102
RTVSPropertyOp32
 70
     0
102
RTVSPropertyOp33
 70
     0
102
RTVSPropertyOp34
 70
     0
102
RTVSPropertyOp35
 70
     0
102
RTVSPropertyOp36
 70
     0
102
RTVSPropertyOp37
 70
     0
102
RTVSPropertyOp38
 70
     0
102
RTVSPropertyOp39
 70
     0
102
RTVSPropertyOp40
 70
     0
102
RTVSPropertyOp41
 70
     0
102
RTVSPropertyOp42
 70
     0
102
RTVSPropertyOp43
 70
     0
102
RTVSPropertyOp44
 70
     0
102
RTVSPropertyOp45
 70
     0
102
RTVSPropertyOp46
 70
     0
102
RTVSPropertyOp47
 70
     0
102
RTVSPropertyOp48
 70
     0
102
RTVSPropertyOp49
 70
     0
102
RTVSPropertyOp50
 70
     0
102
RTVSPropertyOp51
 70
     0
102
RTVSPropertyOp52
 70
     0
102
RTVSPropertyOp53
 70
     0
102
RTVSPropertyOp54
 70
     0
102
RTVSPropertyOp55
 70
     0
102
RTVSPropertyOp56
 70
     0
102
RTVSPropertyOp57
 70
     0
102
RTVSPost2010Prop28
280
     0
102
RTVSPost2010PropOp28
 70
     0
102
RTVSPost2010Prop29
280
     1
102
RTVSPost2010PropOp29
 70
     0
102
RTVSPost2010Prop30
280
     1
102
RTVSPost2010PropOp30
 70
     0
102
RTVSPost2010Prop31
280
     0
102
RTVSPost2010PropOp31
 70
     0
102
RTVSPost2010Prop32
280
     0
102
RTVSPost2010PropOp32
 70
     0
102
RTVSPost2010Prop33
280
     0
102
RTVSPost2010PropOp33
 70
     0
102
RTVSPost2010Prop34
280
     0
102
RTVSPost2010PropOp34
 70
     0
102
RTVSPost2010Prop35
280
     0
102
RTVSPost2010PropOp35
 70
     0
102
RTVSPost2010Prop36
280
     0
102
RTVSPost2010PropOp36
 70
     0
102
RTVSPost2010Prop37
 90
       50
102
RTVSPost2010PropOp37
 70
     0
102
RTVSPost2010Prop38
140
0.0
102
RTVSPost2010PropOp38
 70
     0
102
RTVSPost2010Prop39
140
1.0
102
RTVSPost2010PropOp39
 70
     0
102
RTVSPost2010Prop40
 90
        0
102
RTVSPost2010PropOp40
 70
     0
102
RTVSPost2010Prop41ColorIndex
 90
       18
102
RTVSPost2010Prop41ColorRGB
 90
        0
102
RTVSPost2010PropOp41
 70
     0
102
RTVSPost2010Prop42
 90
       50
102
RTVSPost2010PropOp42
 70
     0
102
RTVSPost2010Prop43
 90
        3
102
RTVSPost2010PropOp43
 70
     0
102
RTVSPost2010Prop44ColorIndex
 90
        5
102
RTVSPost2010Prop44ColorRGB
 90
      255
102
RTVSPost2010PropOp44
 70
     0
102
RTVSPost2010Prop45
280
     0
102
RTVSPost2010PropOp45
 70
     0
102
RTVSPost2010Prop46
 90
       50
102
RTVSPost2010PropOp46
 70
     0
102
RTVSPost2010Prop47
 90
       50
102
RTVSPost2010PropOp47
 70
     0
102
RTVSPost2010Prop48
 90
       50
102
RTVSPost2010PropOp48
 70
     0
102
RTVSPost2010Prop49
280
     0
102
RTVSPost2010PropOp49
 70
     0
102
RTVSPost2010Prop50
 90
       50
102
RTVSPost2010PropOp50
 70
     0
102
RTVSPost2010Prop51ColorIndex
 90
      256
102
RTVSPost2010Prop51ColorRGB
 90
-16777216
102
RTVSPost2010PropOp51
 70
     0
102
RTVSPost2010Prop52
140
1.0
102
RTVSPost2010PropOp52
 70
     0
102
RTVSPost2010Prop53
 90
        2
102
RTVSPost2010PropOp53
 70
     0
102
RTVSPost2010Prop54
  1
strokes_ogs.tif
102
RTVSPost2010PropOp54
 70
     0
102
RTVSPost2010Prop55
280
     0
102
RTVSPost2010PropOp55
 70
     0
102
RTVSPost2010Prop56
140
1.0
102
RTVSPost2010PropOp56
 70
     0
102
RTVSPost2010Prop57
140
1.0
102
RTVSPost2010PropOp57
 70
     0
  0
XRECORD
  5
E0
102
{ACAD_REACTORS
330
DF
102
}
330
DF
100
AcDbXrecord
280
     1
102
RTVSPropertyOp0
 70
     1
102
RTVSPropertyOp1
 70
     1
102
RTVSPropertyOp2
 70
     1
102
RTVSPropertyOp3
 70
     1
102
RTVSPropertyOp4
 70
     1
102
RTVSPropertyOp5
 70
     1
102
RTVSPropertyOp6
 70
     1
102
RTVSPropertyOp7
 70
     1
102
RTVSPropertyOp8
 70
     1
102
RTVSPropertyOp9
 70
     1
102
RTVSPropertyOp10
 70
     1
102
RTVSPropertyOp11
 70
     1
102
RTVSPropertyOp12
 70
     1
102
RTVSPropertyOp13
 70
     1
102
RTVSPropertyOp14
 70
     1
102
RTVSPropertyOp15
 70
     1
102
RTVSPropertyOp16
 70
     1
102
RTVSPropertyOp17
 70
     1
102
RTVSPropertyOp18
 70
     1
102
RTVSPropertyOp19
 70
     1
102
RTVSPropertyOp20
 70
     1
102
RTVSPropertyOp21
 70
     1
102
RTVSPropertyOp22
 70
     1
102
RTVSPropertyOp23
 70
     1
102
RTVSPropertyOp24
 70
     1
102
RTVSPropertyOp25
 70
     1
102
RTVSPropertyOp26
 70
     1
102
RTVSPropertyOp27
 70
     1
102
RTVSPropertyOp28
 70
     1
102
RTVSPropertyOp29
 70
     1
102
RTVSPropertyOp30
 70
     1
102
RTVSPropertyOp31
 70
     1
102
RTVSPropertyOp32
 70
     1
102
RTVSPropertyOp33
 70
     1
102
RTVSPropertyOp34
 70
     1
102
RTVSPropertyOp35
 70
     1
102
RTVSPropertyOp36
 70
     1
102
RTVSPropertyOp37
 70
     1
102
RTVSPropertyOp38
 70
     1
102
RTVSPropertyOp39
 70
     1
102
RTVSPropertyOp40
 70
     1
102
RTVSPropertyOp41
 70
     1
102
RTVSPropertyOp42
 70
     1
102
RTVSPropertyOp43
 70
     1
102
RTVSPropertyOp44
 70
     1
102
RTVSPropertyOp45
 70
     1
102
RTVSPropertyOp46
 70
     1
102
RTVSPropertyOp47
 70
     1
102
RTVSPropertyOp48
 70
     1
102
RTVSPropertyOp49
 70
     1
102
RTVSPropertyOp50
 70
     1
102
RTVSPropertyOp51
 70
     0
102
RTVSPropertyOp52
 70
     0
102
RTVSPropertyOp53
 70
     1
102
RTVSPropertyOp54
 70
     1
102
RTVSPropertyOp55
 70
     1
102
RTVSPropertyOp56
 70
     1
102
RTVSPropertyOp57
 70
     1
102
RTVSPost2010Prop28
280
     0
102
RTVSPost2010PropOp28
 70
     1
102
RTVSPost2010Prop29
280
     1
102
RTVSPost2010PropOp29
 70
     1
102
RTVSPost2010Prop30
280
     1
102
RTVSPost2010PropOp30
 70
     1
102
RTVSPost2010Prop31
280
     0
102
RTVSPost2010PropOp31
 70
     1
102
RTVSPost2010Prop32
280
     0
102
RTVSPost2010PropOp32
 70
     1
102
RTVSPost2010Prop33
280
     0
102
RTVSPost2010PropOp33
 70
     1
102
RTVSPost2010Prop34
280
     0
102
RTVSPost2010PropOp34
 70
     1
102
RTVSPost2010Prop35
280
     0
102
RTVSPost2010PropOp35
 70
     1
102
RTVSPost2010Prop36
280
     0
102
RTVSPost2010PropOp36
 70
     1
102
RTVSPost2010Prop37
 90
       50
102
RTVSPost2010PropOp37
 70
     1
102
RTVSPost2010Prop38
140
0.0
102
RTVSPost2010PropOp38
 70
     1
102
RTVSPost2010Prop39
140
1.0
102
RTVSPost2010PropOp39
 70
     1
102
RTVSPost2010Prop40
 90
        0
102
RTVSPost2010PropOp40
 70
     1
102
RTVSPost2010Prop41ColorIndex
 90
       18
102
RTVSPost2010Prop41ColorRGB
 90
        0
102
RTVSPost2010PropOp41
 70
     1
102
RTVSPost2010Prop42
 90
       50
102
RTVSPost2010PropOp42
 70
     1
102
RTVSPost2010Prop43
 90
        3
102
RTVSPost2010PropOp43
 70
     1
102
RTVSPost2010Prop44ColorIndex
 90
        5
102
RTVSPost2010Prop44ColorRGB
 90
      255
102
RTVSPost2010PropOp44
 70
     1
102
RTVSPost2010Prop45
280
     0
102
RTVSPost2010PropOp45
 70
     1
102
RTVSPost2010Prop46
 90
       50
102
RTVSPost2010PropOp46
 70
     1
102
RTVSPost2010Prop47
 90
       50
102
RTVSPost2010PropOp47
 70
     1
102
RTVSPost2010Prop48
 90
       50
102
RTVSPost2010PropOp48
 70
     1
102
RTVSPost2010Prop49
280
     0
102
RTVSPost2010PropOp49
 70
     1
102
RTVSPost2010Prop50
 90
       50
102
RTVSPost2010PropOp50
 70
     1
102
RTVSPost2010Prop51ColorIndex
 90
      256
102
RTVSPost2010Prop51ColorRGB
 90
-16777216
102
RTVSPost2010PropOp51
 70
     0
102
RTVSPost2010Prop52
140
1.0
102
RTVSPost2010PropOp52
 70
     0
102
RTVSPost2010Prop53
 90
        2
102
RTVSPost2010PropOp53
 70
     1
102
RTVSPost2010Prop54
  1
strokes_ogs.tif
102
RTVSPost2010PropOp54
 70
     1
102
RTVSPost2010Prop55
280
     0
102
RTVSPost2010PropOp55
 70
     1
102
RTVSPost2010Prop56
140
1.0
102
RTVSPost2010PropOp56
 70
     1
102
RTVSPost2010Prop57
140
1.0
102
RTVSPost2010PropOp57
 70
     1
  0
XRECORD
  5
E8
102
{ACAD_REACTORS
330
E7
102
}
330
E7
100
AcDbXrecord
280
     1
102
RTVSPropertyOp0
 70
     0
102
RTVSPropertyOp1
 70
     0
102
RTVSPropertyOp2
 70
     0
102
RTVSPropertyOp3
 70
     0
102
RTVSPropertyOp4
 70
     0
102
RTVSPropertyOp5
 70
     0
102
RTVSPropertyOp6
 70
     0
102
RTVSPropertyOp7
 70
     0
102
RTVSPropertyOp8
 70
     0
102
RTVSPropertyOp9
 70
     0
102
RTVSPropertyOp10
 70
     0
102
RTVSPropertyOp11
 70
     0
102
RTVSPropertyOp12
 70
     0
102
RTVSPropertyOp13
 70
     0
102
RTVSPropertyOp14
 70
     2
102
RTVSPropertyOp15
 70
     0
102
RTVSPropertyOp16
 70
     0
102
RTVSPropertyOp17
 70
     0
102
RTVSPropertyOp18
 70
     0
102
RTVSPropertyOp19
 70
     0
102
RTVSPropertyOp20
 70
     0
102
RTVSPropertyOp21
 70
     0
102
RTVSPropertyOp22
 70
     0
102
RTVSPropertyOp23
 70
     0
102
RTVSPropertyOp24
 70
     0
102
RTVSPropertyOp25
 70
     0
102
RTVSPropertyOp26
 70
     0
102
RTVSPropertyOp27
 70
     0
102
RTVSPropertyOp28
 70
     0
102
RTVSPropertyOp29
 70
     0
102
RTVSPropertyOp30
 70
     0
102
RTVSPropertyOp31
 70
     0
102
RTVSPropertyOp32
 70
     0
102
RTVSPropertyOp33
 70
     0
102
RTVSPropertyOp34
 70
     0
102
RTVSPropertyOp35
 70
     0
102
RTVSPropertyOp36
 70
     0
102
RTVSPropertyOp37
 70
     0
102
RTVSPropertyOp38
 70
     0
102
RTVSPropertyOp39
 70
     0
102
RTVSPropertyOp40
 70
     0
102
RTVSPropertyOp41
 70
     0
102
RTVSPropertyOp42
 70
     0
102
RTVSPropertyOp43
 70
     0
102
RTVSPropertyOp44
 70
     0
102
RTVSPropertyOp45
 70
     0
102
RTVSPropertyOp46
 70
     0
102
RTVSPropertyOp47
 70
     0
102
RTVSPropertyOp48
 70
     0
102
RTVSPropertyOp49
 70
     0
102
RTVSPropertyOp50
 70
     0
102
RTVSPropertyOp51
 70
     0
102
RTVSPropertyOp52
 70
     0
102
RTVSPropertyOp53
 70
     0
102
RTVSPropertyOp54
 70
     0
102
RTVSPropertyOp55
 70
     0
102
RTVSPropertyOp56
 70
     0
102
RTVSPropertyOp57
 70
     0
102
RTVSPost2010Prop28
280
     0
102
RTVSPost2010PropOp28
 70
     0
102
RTVSPost2010Prop29
280
     1
102
RTVSPost2010PropOp29
 70
     0
102
RTVSPost2010Prop30
280
     1
102
RTVSPost2010PropOp30
 70
     0
102
RTVSPost2010Prop31
280
     0
102
RTVSPost2010PropOp31
 70
     0
102
RTVSPost2010Prop32
280
     0
102
RTVSPost2010PropOp32
 70
     0
102
RTVSPost2010Prop33
280
     0
102
RTVSPost2010PropOp33
 70
     0
102
RTVSPost2010Prop34
280
     0
102
RTVSPost2010PropOp34
 70
     0
102
RTVSPost2010Prop35
280
     0
102
RTVSPost2010PropOp35
 70
     0
102
RTVSPost2010Prop36
280
     0
102
RTVSPost2010PropOp36
 70
     0
102
RTVSPost2010Prop37
 90
       50
102
RTVSPost2010PropOp37
 70
     0
102
RTVSPost2010Prop38
140
0.0
102
RTVSPost2010PropOp38
 70
     0
102
RTVSPost2010Prop39
140
1.0
102
RTVSPost2010PropOp39
 70
     0
102
RTVSPost2010Prop40
 90
        0
102
RTVSPost2010PropOp40
 70
     0
102
RTVSPost2010Prop41ColorIndex
 90
       18
102
RTVSPost2010Prop41ColorRGB
 90
        0
102
RTVSPost2010PropOp41
 70
     0
102
RTVSPost2010Prop42
 90
       50
102
RTVSPost2010PropOp42
 70
     0
102
RTVSPost2010Prop43
 90
        3
102
RTVSPost2010PropOp43
 70
     0
102
RTVSPost2010Prop44ColorIndex
 90
        5
102
RTVSPost2010Prop44ColorRGB
 90
      255
102
RTVSPost2010PropOp44
 70
     0
102
RTVSPost2010Prop45
280
     0
102
RTVSPost2010PropOp45
 70
     0
102
RTVSPost2010Prop46
 90
       50
102
RTVSPost2010PropOp46
 70
     0
102
RTVSPost2010Prop47
 90
       50
102
RTVSPost2010PropOp47
 70
     0
102
RTVSPost2010Prop48
 90
       50
102
RTVSPost2010PropOp48
 70
     0
102
RTVSPost2010Prop49
280
     0
102
RTVSPost2010PropOp49
 70
     0
102
RTVSPost2010Prop50
 90
       50
102
RTVSPost2010PropOp50
 70
     0
102
RTVSPost2010Prop51ColorIndex
 90
      256
102
RTVSPost2010Prop51ColorRGB
 90
-16777216
102
RTVSPost2010PropOp51
 70
     0
102
RTVSPost2010Prop52
140
1.0
102
RTVSPost2010PropOp52
 70
     0
102
RTVSPost2010Prop53
 90
        2
102
RTVSPost2010PropOp53
 70
     0
102
RTVSPost2010Prop54
  1
strokes_ogs.tif
102
RTVSPost2010PropOp54
 70
     0
102
RTVSPost2010Prop55
280
     0
102
RTVSPost2010PropOp55
 70
     0
102
RTVSPost2010Prop56
140
1.0
102
RTVSPost2010PropOp56
 70
     0
102
RTVSPost2010Prop57
140
1.0
102
RTVSPost2010PropOp57
 70
     0
  0
XRECORD
  5
D6
102
{ACAD_REACTORS
330
D5
102
}
330
D5
100
AcDbXrecord
280
     1
102
RTVSPropertyOp0
 70
     1
102
RTVSPropertyOp1
 70
     1
102
RTVSPropertyOp2
 70
     1
102
RTVSPropertyOp3
 70
     1
102
RTVSPropertyOp4
 70
     1
102
RTVSPropertyOp5
 70
     1
102
RTVSPropertyOp6
 70
     1
102
RTVSPropertyOp7
 70
     1
102
RTVSPropertyOp8
 70
     1
102
RTVSPropertyOp9
 70
     1
102
RTVSPropertyOp10
 70
     1
102
RTVSPropertyOp11
 70
     1
102
RTVSPropertyOp12
 70
     1
102
RTVSPropertyOp13
 70
     1
102
RTVSPropertyOp14
 70
     1
102
RTVSPropertyOp15
 70
     1
102
RTVSPropertyOp16
 70
     1
102
RTVSPropertyOp17
 70
     1
102
RTVSPropertyOp18
 70
     1
102
RTVSPropertyOp19
 70
     1
102
RTVSPropertyOp20
 70
     1
102
RTVSPropertyOp21
 70
     1
102
RTVSPropertyOp22
 70
     1
102
RTVSPropertyOp23
 70
     1
102
RTVSPropertyOp24
 70
     1
102
RTVSPropertyOp25
 70
     1
102
RTVSPropertyOp26
 70
     1
102
RTVSPropertyOp27
 70
     1
102
RTVSPropertyOp28
 70
     1
102
RTVSPropertyOp29
 70
     1
102
RTVSPropertyOp30
 70
     1
102
RTVSPropertyOp31
 70
     1
102
RTVSPropertyOp32
 70
     1
102
RTVSPropertyOp33
 70
     1
102
RTVSPropertyOp34
 70
     1
102
RTVSPropertyOp35
 70
     1
102
RTVSPropertyOp36
 70
     1
102
RTVSPropertyOp37
 70
     1
102
RTVSPropertyOp38
 70
     1
102
RTVSPropertyOp39
 70
     1
102
RTVSPropertyOp40
 70
     1
102
RTVSPropertyOp41
 70
     1
102
RTVSPropertyOp42
 70
     1
102
RTVSPropertyOp43
 70
     1
102
RTVSPropertyOp44
 70
     1
102
RTVSPropertyOp45
 70
     1
102
RTVSPropertyOp46
 70
     1
102
RTVSPropertyOp47
 70
     1
102
RTVSPropertyOp48
 70
     1
102
RTVSPropertyOp49
 70
     1
102
RTVSPropertyOp50
 70
     1
102
RTVSPropertyOp51
 70
     0
102
RTVSPropertyOp52
 70
     0
102
RTVSPropertyOp53
 70
     1
102
RTVSPropertyOp54
 70
     1
102
RTVSPropertyOp55
 70
     1
102
RTVSPropertyOp56
 70
     1
102
RTVSPropertyOp57
 70
     1
102
RTVSPost2010Prop28
280
     0
102
RTVSPost2010PropOp28
 70
     1
102
RTVSPost2010Prop29
280
     1
102
RTVSPost2010PropOp29
 70
     1
102
RTVSPost2010Prop30
280
     1
102
RTVSPost2010PropOp30
 70
     1
102
RTVSPost2010Prop31
280
     0
102
RTVSPost2010PropOp31
 70
     1
102
RTVSPost2010Prop32
280
     0
102
RTVSPost2010PropOp32
 70
     1
102
RTVSPost2010Prop33
280
     0
102
RTVSPost2010PropOp33
 70
     1
102
RTVSPost2010Prop34
280
     0
102
RTVSPost2010PropOp34
 70
     1
102
RTVSPost2010Prop35
280
     0
102
RTVSPost2010PropOp35
 70
     1
102
RTVSPost2010Prop36
280
     0
102
RTVSPost2010PropOp36
 70
     1
102
RTVSPost2010Prop37
 90
       50
102
RTVSPost2010PropOp37
 70
     1
102
RTVSPost2010Prop38
140
0.0
102
RTVSPost2010PropOp38
 70
     1
102
RTVSPost2010Prop39
140
1.0
102
RTVSPost2010PropOp39
 70
     1
102
RTVSPost2010Prop40
 90
        0
102
RTVSPost2010PropOp40
 70
     1
102
RTVSPost2010Prop41ColorIndex
 90
       18
102
RTVSPost2010Prop41ColorRGB
 90
        0
102
RTVSPost2010PropOp41
 70
     1
102
RTVSPost2010Prop42
 90
       50
102
RTVSPost2010PropOp42
 70
     1
102
RTVSPost2010Prop43
 90
        3
102
RTVSPost2010PropOp43
 70
     1
102
RTVSPost2010Prop44ColorIndex
 90
        5
102
RTVSPost2010Prop44ColorRGB
 90
      255
102
RTVSPost2010PropOp44
 70
     1
102
RTVSPost2010Prop45
280
     0
102
RTVSPost2010PropOp45
 70
     1
102
RTVSPost2010Prop46
 90
       50
102
RTVSPost2010PropOp46
 70
     1
102
RTVSPost2010Prop47
 90
       50
102
RTVSPost2010PropOp47
 70
     1
102
RTVSPost2010Prop48
 90
       50
102
RTVSPost2010PropOp48
 70
     1
102
RTVSPost2010Prop49
280
     0
102
RTVSPost2010PropOp49
 70
     1
102
RTVSPost2010Prop50
 90
       50
102
RTVSPost2010PropOp50
 70
     1
102
RTVSPost2010Prop51ColorIndex
 90
      256
102
RTVSPost2010Prop51ColorRGB
 90
-16777216
102
RTVSPost2010PropOp51
 70
     0
102
RTVSPost2010Prop52
140
1.0
102
RTVSPost2010PropOp52
 70
     0
102
RTVSPost2010Prop53
 90
        2
102
RTVSPost2010PropOp53
 70
     1
102
RTVSPost2010Prop54
  1
strokes_ogs.tif
102
RTVSPost2010PropOp54
 70
     1
102
RTVSPost2010Prop55
280
     0
102
RTVSPost2010PropOp55
 70
     1
102
RTVSPost2010Prop56
140
1.0
102
RTVSPost2010PropOp56
 70
     1
102
RTVSPost2010Prop57
140
1.0
102
RTVSPost2010PropOp57
 70
     1
  0
XRECORD
  5
F4
102
{ACAD_REACTORS
330
F3
102
}
330
F3
100
AcDbXrecord
280
     1
102
RTVSPropertyOp0
 70
     1
102
RTVSPropertyOp1
 70
     1
102
RTVSPropertyOp2
 70
     1
102
RTVSPropertyOp3
 70
     1
102
RTVSPropertyOp4
 70
     1
102
RTVSPropertyOp5
 70
     1
102
RTVSPropertyOp6
 70
     1
102
RTVSPropertyOp7
 70
     1
102
RTVSPropertyOp8
 70
     1
102
RTVSPropertyOp9
 70
     1
102
RTVSPropertyOp10
 70
     1
102
RTVSPropertyOp11
 70
     1
102
RTVSPropertyOp12
 70
     1
102
RTVSPropertyOp13
 70
     1
102
RTVSPropertyOp14
 70
     1
102
RTVSPropertyOp15
 70
     1
102
RTVSPropertyOp16
 70
     1
102
RTVSPropertyOp17
 70
     1
102
RTVSPropertyOp18
 70
     1
102
RTVSPropertyOp19
 70
     1
102
RTVSPropertyOp20
 70
     1
102
RTVSPropertyOp21
 70
     1
102
RTVSPropertyOp22
 70
     1
102
RTVSPropertyOp23
 70
     1
102
RTVSPropertyOp24
 70
     1
102
RTVSPropertyOp25
 70
     1
102
RTVSPropertyOp26
 70
     1
102
RTVSPropertyOp27
 70
     1
102
RTVSPropertyOp28
 70
     1
102
RTVSPropertyOp29
 70
     1
102
RTVSPropertyOp30
 70
     1
102
RTVSPropertyOp31
 70
     1
102
RTVSPropertyOp32
 70
     1
102
RTVSPropertyOp33
 70
     1
102
RTVSPropertyOp34
 70
     1
102
RTVSPropertyOp35
 70
     1
102
RTVSPropertyOp36
 70
     1
102
RTVSPropertyOp37
 70
     1
102
RTVSPropertyOp38
 70
     1
102
RTVSPropertyOp39
 70
     1
102
RTVSPropertyOp40
 70
     1
102
RTVSPropertyOp41
 70
     1
102
RTVSPropertyOp42
 70
     1
102
RTVSPropertyOp43
 70
     1
102
RTVSPropertyOp44
 70
     1
102
RTVSPropertyOp45
 70
     1
102
RTVSPropertyOp46
 70
     1
102
RTVSPropertyOp47
 70
     1
102
RTVSPropertyOp48
 70
     1
102
RTVSPropertyOp49
 70
     1
102
RTVSPropertyOp50
 70
     1
102
RTVSPropertyOp51
 70
     0
102
RTVSPropertyOp52
 70
     0
102
RTVSPropertyOp53
 70
     1
102
RTVSPropertyOp54
 70
     1
102
RTVSPropertyOp55
 70
     1
102
RTVSPropertyOp56
 70
     1
102
RTVSPropertyOp57
 70
     1
102
RTVSPost2010Prop28
280
     0
102
RTVSPost2010PropOp28
 70
     1
102
RTVSPost2010Prop29
280
     1
102
RTVSPost2010PropOp29
 70
     1
102
RTVSPost2010Prop30
280
     1
102
RTVSPost2010PropOp30
 70
     1
102
RTVSPost2010Prop31
280
     0
102
RTVSPost2010PropOp31
 70
     1
102
RTVSPost2010Prop32
280
     0
102
RTVSPost2010PropOp32
 70
     1
102
RTVSPost2010Prop33
280
     0
102
RTVSPost2010PropOp33
 70
     1
102
RTVSPost2010Prop34
280
     0
102
RTVSPost2010PropOp34
 70
     1
102
RTVSPost2010Prop35
280
     0
102
RTVSPost2010PropOp35
 70
     1
102
RTVSPost2010Prop36
280
     0
102
RTVSPost2010PropOp36
 70
     1
102
RTVSPost2010Prop37
 90
       50
102
RTVSPost2010PropOp37
 70
     1
102
RTVSPost2010Prop38
140
0.0
102
RTVSPost2010PropOp38
 70
     1
102
RTVSPost2010Prop39
140
1.0
102
RTVSPost2010PropOp39
 70
     1
102
RTVSPost2010Prop40
 90
        0
102
RTVSPost2010PropOp40
 70
     1
102
RTVSPost2010Prop41ColorIndex
 90
       18
102
RTVSPost2010Prop41ColorRGB
 90
        0
102
RTVSPost2010PropOp41
 70
     1
102
RTVSPost2010Prop42
 90
       50
102
RTVSPost2010PropOp42
 70
     1
102
RTVSPost2010Prop43
 90
        3
102
RTVSPost2010PropOp43
 70
     1
102
RTVSPost2010Prop44ColorIndex
 90
        5
102
RTVSPost2010Prop44ColorRGB
 90
      255
102
RTVSPost2010PropOp44
 70
     1
102
RTVSPost2010Prop45
280
     0
102
RTVSPost2010PropOp45
 70
     1
102
RTVSPost2010Prop46
 90
       50
102
RTVSPost2010PropOp46
 70
     1
102
RTVSPost2010Prop47
 90
       50
102
RTVSPost2010PropOp47
 70
     1
102
RTVSPost2010Prop48
 90
       50
102
RTVSPost2010PropOp48
 70
     1
102
RTVSPost2010Prop49
280
     0
102
RTVSPost2010PropOp49
 70
     1
102
RTVSPost2010Prop50
 90
       50
102
RTVSPost2010PropOp50
 70
     1
102
RTVSPost2010Prop51ColorIndex
 90
      256
102
RTVSPost2010Prop51ColorRGB
 90
-16777216
102
RTVSPost2010PropOp51
 70
     0
102
RTVSPost2010Prop52
140
1.0
102
RTVSPost2010PropOp52
 70
     0
102
RTVSPost2010Prop53
 90
        2
102
RTVSPost2010PropOp53
 70
     1
102
RTVSPost2010Prop54
  1
strokes_ogs.tif
102
RTVSPost2010PropOp54
 70
     1
102
RTVSPost2010Prop55
280
     0
102
RTVSPost2010PropOp55
 70
     1
102
RTVSPost2010Prop56
140
1.0
102
RTVSPost2010PropOp56
 70
     1
102
RTVSPost2010Prop57
140
1.0
102
RTVSPost2010PropOp57
 70
     1
  0
XRECORD
  5
F2
102
{ACAD_REACTORS
330
F1
102
}
330
F1
100
AcDbXrecord
280
     1
102
RTVSPropertyOp0
 70
     1
102
RTVSPropertyOp1
 70
     1
102
RTVSPropertyOp2
 70
     1
102
RTVSPropertyOp3
 70
     1
102
RTVSPropertyOp4
 70
     1
102
RTVSPropertyOp5
 70
     1
102
RTVSPropertyOp6
 70
     1
102
RTVSPropertyOp7
 70
     1
102
RTVSPropertyOp8
 70
     1
102
RTVSPropertyOp9
 70
     1
102
RTVSPropertyOp10
 70
     1
102
RTVSPropertyOp11
 70
     1
102
RTVSPropertyOp12
 70
     1
102
RTVSPropertyOp13
 70
     1
102
RTVSPropertyOp14
 70
     1
102
RTVSPropertyOp15
 70
     1
102
RTVSPropertyOp16
 70
     1
102
RTVSPropertyOp17
 70
     1
102
RTVSPropertyOp18
 70
     1
102
RTVSPropertyOp19
 70
     1
102
RTVSPropertyOp20
 70
     1
102
RTVSPropertyOp21
 70
     1
102
RTVSPropertyOp22
 70
     1
102
RTVSPropertyOp23
 70
     1
102
RTVSPropertyOp24
 70
     1
102
RTVSPropertyOp25
 70
     1
102
RTVSPropertyOp26
 70
     1
102
RTVSPropertyOp27
 70
     1
102
RTVSPropertyOp28
 70
     1
102
RTVSPropertyOp29
 70
     1
102
RTVSPropertyOp30
 70
     1
102
RTVSPropertyOp31
 70
     1
102
RTVSPropertyOp32
 70
     1
102
RTVSPropertyOp33
 70
     1
102
RTVSPropertyOp34
 70
     1
102
RTVSPropertyOp35
 70
     1
102
RTVSPropertyOp36
 70
     1
102
RTVSPropertyOp37
 70
     1
102
RTVSPropertyOp38
 70
     1
102
RTVSPropertyOp39
 70
     1
102
RTVSPropertyOp40
 70
     1
102
RTVSPropertyOp41
 70
     1
102
RTVSPropertyOp42
 70
     1
102
RTVSPropertyOp43
 70
     1
102
RTVSPropertyOp44
 70
     1
102
RTVSPropertyOp45
 70
     1
102
RTVSPropertyOp46
 70
     1
102
RTVSPropertyOp47
 70
     1
102
RTVSPropertyOp48
 70
     1
102
RTVSPropertyOp49
 70
     1
102
RTVSPropertyOp50
 70
     1
102
RTVSPropertyOp51
 70
     0
102
RTVSPropertyOp52
 70
     0
102
RTVSPropertyOp53
 70
     1
102
RTVSPropertyOp54
 70
     1
102
RTVSPropertyOp55
 70
     1
102
RTVSPropertyOp56
 70
     1
102
RTVSPropertyOp57
 70
     1
102
RTVSPost2010Prop28
280
     0
102
RTVSPost2010PropOp28
 70
     1
102
RTVSPost2010Prop29
280
     1
102
RTVSPost2010PropOp29
 70
     1
102
RTVSPost2010Prop30
280
     1
102
RTVSPost2010PropOp30
 70
     1
102
RTVSPost2010Prop31
280
     0
102
RTVSPost2010PropOp31
 70
     1
102
RTVSPost2010Prop32
280
     0
102
RTVSPost2010PropOp32
 70
     1
102
RTVSPost2010Prop33
280
     0
102
RTVSPost2010PropOp33
 70
     1
102
RTVSPost2010Prop34
280
     0
102
RTVSPost2010PropOp34
 70
     1
102
RTVSPost2010Prop35
280
     0
102
RTVSPost2010PropOp35
 70
     1
102
RTVSPost2010Prop36
280
     0
102
RTVSPost2010PropOp36
 70
     1
102
RTVSPost2010Prop37
 90
       50
102
RTVSPost2010PropOp37
 70
     1
102
RTVSPost2010Prop38
140
0.0
102
RTVSPost2010PropOp38
 70
     1
102
RTVSPost2010Prop39
140
1.0
102
RTVSPost2010PropOp39
 70
     1
102
RTVSPost2010Prop40
 90
        0
102
RTVSPost2010PropOp40
 70
     1
102
RTVSPost2010Prop41ColorIndex
 90
       18
102
RTVSPost2010Prop41ColorRGB
 90
        0
102
RTVSPost2010PropOp41
 70
     1
102
RTVSPost2010Prop42
 90
       50
102
RTVSPost2010PropOp42
 70
     1
102
RTVSPost2010Prop43
 90
        3
102
RTVSPost2010PropOp43
 70
     1
102
RTVSPost2010Prop44ColorIndex
 90
        5
102
RTVSPost2010Prop44ColorRGB
 90
      255
102
RTVSPost2010PropOp44
 70
     1
102
RTVSPost2010Prop45
280
     0
102
RTVSPost2010PropOp45
 70
     1
102
RTVSPost2010Prop46
 90
       50
102
RTVSPost2010PropOp46
 70
     1
102
RTVSPost2010Prop47
 90
       50
102
RTVSPost2010PropOp47
 70
     1
102
RTVSPost2010Prop48
 90
       50
102
RTVSPost2010PropOp48
 70
     1
102
RTVSPost2010Prop49
280
     0
102
RTVSPost2010PropOp49
 70
     1
102
RTVSPost2010Prop50
 90
       50
102
RTVSPost2010PropOp50
 70
     1
102
RTVSPost2010Prop51ColorIndex
 90
      256
102
RTVSPost2010Prop51ColorRGB
 90
-16777216
102
RTVSPost2010PropOp51
 70
     0
102
RTVSPost2010Prop52
140
1.0
102
RTVSPost2010PropOp52
 70
     0
102
RTVSPost2010Prop53
 90
        2
102
RTVSPost2010PropOp53
 70
     1
102
RTVSPost2010Prop54
  1
strokes_ogs.tif
102
RTVSPost2010PropOp54
 70
     1
102
RTVSPost2010Prop55
280
     0
102
RTVSPost2010PropOp55
 70
     1
102
RTVSPost2010Prop56
140
1.0
102
RTVSPost2010PropOp56
 70
     1
102
RTVSPost2010Prop57
140
1.0
102
RTVSPost2010PropOp57
 70
     1
  0
XRECORD
  5
EC
102
{ACAD_REACTORS
330
EB
102
}
330
EB
100
AcDbXrecord
280
     1
102
RTVSPropertyOp0
 70
     1
102
RTVSPropertyOp1
 70
     1
102
RTVSPropertyOp2
 70
     1
102
RTVSPropertyOp3
 70
     1
102
RTVSPropertyOp4
 70
     1
102
RTVSPropertyOp5
 70
     1
102
RTVSPropertyOp6
 70
     1
102
RTVSPropertyOp7
 70
     1
102
RTVSPropertyOp8
 70
     1
102
RTVSPropertyOp9
 70
     1
102
RTVSPropertyOp10
 70
     1
102
RTVSPropertyOp11
 70
     1
102
RTVSPropertyOp12
 70
     1
102
RTVSPropertyOp13
 70
     1
102
RTVSPropertyOp14
 70
     1
102
RTVSPropertyOp15
 70
     1
102
RTVSPropertyOp16
 70
     1
102
RTVSPropertyOp17
 70
     1
102
RTVSPropertyOp18
 70
     1
102
RTVSPropertyOp19
 70
     1
102
RTVSPropertyOp20
 70
     1
102
RTVSPropertyOp21
 70
     1
102
RTVSPropertyOp22
 70
     1
102
RTVSPropertyOp23
 70
     1
102
RTVSPropertyOp24
 70
     1
102
RTVSPropertyOp25
 70
     1
102
RTVSPropertyOp26
 70
     1
102
RTVSPropertyOp27
 70
     1
102
RTVSPropertyOp28
 70
     1
102
RTVSPropertyOp29
 70
     1
102
RTVSPropertyOp30
 70
     1
102
RTVSPropertyOp31
 70
     1
102
RTVSPropertyOp32
 70
     1
102
RTVSPropertyOp33
 70
     1
102
RTVSPropertyOp34
 70
     1
102
RTVSPropertyOp35
 70
     1
102
RTVSPropertyOp36
 70
     1
102
RTVSPropertyOp37
 70
     1
102
RTVSPropertyOp38
 70
     1
102
RTVSPropertyOp39
 70
     1
102
RTVSPropertyOp40
 70
     1
102
RTVSPropertyOp41
 70
     1
102
RTVSPropertyOp42
 70
     1
102
RTVSPropertyOp43
 70
     1
102
RTVSPropertyOp44
 70
     1
102
RTVSPropertyOp45
 70
     1
102
RTVSPropertyOp46
 70
     1
102
RTVSPropertyOp47
 70
     1
102
RTVSPropertyOp48
 70
     1
102
RTVSPropertyOp49
 70
     1
102
RTVSPropertyOp50
 70
     1
102
RTVSPropertyOp51
 70
     0
102
RTVSPropertyOp52
 70
     0
102
RTVSPropertyOp53
 70
     1
102
RTVSPropertyOp54
 70
     1
102
RTVSPropertyOp55
 70
     1
102
RTVSPropertyOp56
 70
     1
102
RTVSPropertyOp57
 70
     1
102
RTVSPost2010Prop28
280
     0
102
RTVSPost2010PropOp28
 70
     1
102
RTVSPost2010Prop29
280
     1
102
RTVSPost2010PropOp29
 70
     1
102
RTVSPost2010Prop30
280
     1
102
RTVSPost2010PropOp30
 70
     1
102
RTVSPost2010Prop31
280
     0
102
RTVSPost2010PropOp31
 70
     1
102
RTVSPost2010Prop32
280
     0
102
RTVSPost2010PropOp32
 70
     1
102
RTVSPost2010Prop33
280
     0
102
RTVSPost2010PropOp33
 70
     1
102
RTVSPost2010Prop34
280
     0
102
RTVSPost2010PropOp34
 70
     1
102
RTVSPost2010Prop35
280
     0
102
RTVSPost2010PropOp35
 70
     1
102
RTVSPost2010Prop36
280
     0
102
RTVSPost2010PropOp36
 70
     1
102
RTVSPost2010Prop37
 90
       50
102
RTVSPost2010PropOp37
 70
     1
102
RTVSPost2010Prop38
140
0.0
102
RTVSPost2010PropOp38
 70
     1
102
RTVSPost2010Prop39
140
1.0
102
RTVSPost2010PropOp39
 70
     1
102
RTVSPost2010Prop40
 90
        0
102
RTVSPost2010PropOp40
 70
     1
102
RTVSPost2010Prop41ColorIndex
 90
       18
102
RTVSPost2010Prop41ColorRGB
 90
        0
102
RTVSPost2010PropOp41
 70
     1
102
RTVSPost2010Prop42
 90
       50
102
RTVSPost2010PropOp42
 70
     1
102
RTVSPost2010Prop43
 90
        3
102
RTVSPost2010PropOp43
 70
     1
102
RTVSPost2010Prop44ColorIndex
 90
        5
102
RTVSPost2010Prop44ColorRGB
 90
      255
102
RTVSPost2010PropOp44
 70
     1
102
RTVSPost2010Prop45
280
     0
102
RTVSPost2010PropOp45
 70
     1
102
RTVSPost2010Prop46
 90
       50
102
RTVSPost2010PropOp46
 70
     1
102
RTVSPost2010Prop47
 90
       50
102
RTVSPost2010PropOp47
 70
     1
102
RTVSPost2010Prop48
 90
       50
102
RTVSPost2010PropOp48
 70
     1
102
RTVSPost2010Prop49
280
     0
102
RTVSPost2010PropOp49
 70
     1
102
RTVSPost2010Prop50
 90
       50
102
RTVSPost2010PropOp50
 70
     1
102
RTVSPost2010Prop51ColorIndex
 90
      256
102
RTVSPost2010Prop51ColorRGB
 90
-16777216
102
RTVSPost2010PropOp51
 70
     0
102
RTVSPost2010Prop52
140
1.0
102
RTVSPost2010PropOp52
 70
     0
102
RTVSPost2010Prop53
 90
        2
102
RTVSPost2010PropOp53
 70
     1
102
RTVSPost2010Prop54
  1
strokes_ogs.tif
102
RTVSPost2010PropOp54
 70
     1
102
RTVSPost2010Prop55
280
     0
102
RTVSPost2010PropOp55
 70
     1
102
RTVSPost2010Prop56
140
1.0
102
RTVSPost2010PropOp56
 70
     1
102
RTVSPost2010Prop57
140
1.0
102
RTVSPost2010PropOp57
 70
     1
  0
XRECORD
  5
EE
102
{ACAD_REACTORS
330
ED
102
}
330
ED
100
AcDbXrecord
280
     1
102
RTVSPropertyOp0
 70
     1
102
RTVSPropertyOp1
 70
     1
102
RTVSPropertyOp2
 70
     1
102
RTVSPropertyOp3
 70
     1
102
RTVSPropertyOp4
 70
     1
102
RTVSPropertyOp5
 70
     1
102
RTVSPropertyOp6
 70
     1
102
RTVSPropertyOp7
 70
     1
102
RTVSPropertyOp8
 70
     1
102
RTVSPropertyOp9
 70
     1
102
RTVSPropertyOp10
 70
     1
102
RTVSPropertyOp11
 70
     1
102
RTVSPropertyOp12
 70
     1
102
RTVSPropertyOp13
 70
     1
102
RTVSPropertyOp14
 70
     1
102
RTVSPropertyOp15
 70
     1
102
RTVSPropertyOp16
 70
     1
102
RTVSPropertyOp17
 70
     1
102
RTVSPropertyOp18
 70
     1
102
RTVSPropertyOp19
 70
     1
102
RTVSPropertyOp20
 70
     1
102
RTVSPropertyOp21
 70
     1
102
RTVSPropertyOp22
 70
     1
102
RTVSPropertyOp23
 70
     1
102
RTVSPropertyOp24
 70
     1
102
RTVSPropertyOp25
 70
     1
102
RTVSPropertyOp26
 70
     1
102
RTVSPropertyOp27
 70
     1
102
RTVSPropertyOp28
 70
     1
102
RTVSPropertyOp29
 70
     1
102
RTVSPropertyOp30
 70
     1
102
RTVSPropertyOp31
 70
     1
102
RTVSPropertyOp32
 70
     1
102
RTVSPropertyOp33
 70
     1
102
RTVSPropertyOp34
 70
     1
102
RTVSPropertyOp35
 70
     1
102
RTVSPropertyOp36
 70
     1
102
RTVSPropertyOp37
 70
     1
102
RTVSPropertyOp38
 70
     1
102
RTVSPropertyOp39
 70
     1
102
RTVSPropertyOp40
 70
     1
102
RTVSPropertyOp41
 70
     1
102
RTVSPropertyOp42
 70
     1
102
RTVSPropertyOp43
 70
     1
102
RTVSPropertyOp44
 70
     1
102
RTVSPropertyOp45
 70
     1
102
RTVSPropertyOp46
 70
     1
102
RTVSPropertyOp47
 70
     1
102
RTVSPropertyOp48
 70
     1
102
RTVSPropertyOp49
 70
     1
102
RTVSPropertyOp50
 70
     1
102
RTVSPropertyOp51
 70
     0
102
RTVSPropertyOp52
 70
     0
102
RTVSPropertyOp53
 70
     1
102
RTVSPropertyOp54
 70
     1
102
RTVSPropertyOp55
 70
     1
102
RTVSPropertyOp56
 70
     1
102
RTVSPropertyOp57
 70
     1
102
RTVSPost2010Prop28
280
     0
102
RTVSPost2010PropOp28
 70
     1
102
RTVSPost2010Prop29
280
     1
102
RTVSPost2010PropOp29
 70
     1
102
RTVSPost2010Prop30
280
     1
102
RTVSPost2010PropOp30
 70
     1
102
RTVSPost2010Prop31
280
     0
102
RTVSPost2010PropOp31
 70
     1
102
RTVSPost2010Prop32
280
     0
102
RTVSPost2010PropOp32
 70
     1
102
RTVSPost2010Prop33
280
     0
102
RTVSPost2010PropOp33
 70
     1
102
RTVSPost2010Prop34
280
     0
102
RTVSPost2010PropOp34
 70
     1
102
RTVSPost2010Prop35
280
     0
102
RTVSPost2010PropOp35
 70
     1
102
RTVSPost2010Prop36
280
     0
102
RTVSPost2010PropOp36
 70
     1
102
RTVSPost2010Prop37
 90
       50
102
RTVSPost2010PropOp37
 70
     1
102
RTVSPost2010Prop38
140
0.0
102
RTVSPost2010PropOp38
 70
     1
102
RTVSPost2010Prop39
140
1.0
102
RTVSPost2010PropOp39
 70
     1
102
RTVSPost2010Prop40
 90
        0
102
RTVSPost2010PropOp40
 70
     1
102
RTVSPost2010Prop41ColorIndex
 90
       18
102
RTVSPost2010Prop41ColorRGB
 90
        0
102
RTVSPost2010PropOp41
 70
     1
102
RTVSPost2010Prop42
 90
       50
102
RTVSPost2010PropOp42
 70
     1
102
RTVSPost2010Prop43
 90
        3
102
RTVSPost2010PropOp43
 70
     1
102
RTVSPost2010Prop44ColorIndex
 90
        5
102
RTVSPost2010Prop44ColorRGB
 90
      255
102
RTVSPost2010PropOp44
 70
     1
102
RTVSPost2010Prop45
280
     0
102
RTVSPost2010PropOp45
 70
     1
102
RTVSPost2010Prop46
 90
       50
102
RTVSPost2010PropOp46
 70
     1
102
RTVSPost2010Prop47
 90
       50
102
RTVSPost2010PropOp47
 70
     1
102
RTVSPost2010Prop48
 90
       50
102
RTVSPost2010PropOp48
 70
     1
102
RTVSPost2010Prop49
280
     0
102
RTVSPost2010PropOp49
 70
     1
102
RTVSPost2010Prop50
 90
       50
102
RTVSPost2010PropOp50
 70
     1
102
RTVSPost2010Prop51ColorIndex
 90
      256
102
RTVSPost2010Prop51ColorRGB
 90
-16777216
102
RTVSPost2010PropOp51
 70
     0
102
RTVSPost2010Prop52
140
1.0
102
RTVSPost2010PropOp52
 70
     0
102
RTVSPost2010Prop53
 90
        2
102
RTVSPost2010PropOp53
 70
     1
102
RTVSPost2010Prop54
  1
strokes_ogs.tif
102
RTVSPost2010PropOp54
 70
     1
102
RTVSPost2010Prop55
280
     0
102
RTVSPost2010PropOp55
 70
     1
102
RTVSPost2010Prop56
140
1.0
102
RTVSPost2010PropOp56
 70
     1
102
RTVSPost2010Prop57
140
1.0
102
RTVSPost2010PropOp57
 70
     1
  0
XRECORD
  5
DE
102
{ACAD_REACTORS
330
DD
102
}
330
DD
100
AcDbXrecord
280
     1
102
RTVSPropertyOp0
 70
     1
102
RTVSPropertyOp1
 70
     1
102
RTVSPropertyOp2
 70
     1
102
RTVSPropertyOp3
 70
     1
102
RTVSPropertyOp4
 70
     1
102
RTVSPropertyOp5
 70
     1
102
RTVSPropertyOp6
 70
     1
102
RTVSPropertyOp7
 70
     1
102
RTVSPropertyOp8
 70
     1
102
RTVSPropertyOp9
 70
     1
102
RTVSPropertyOp10
 70
     1
102
RTVSPropertyOp11
 70
     1
102
RTVSPropertyOp12
 70
     1
102
RTVSPropertyOp13
 70
     1
102
RTVSPropertyOp14
 70
     1
102
RTVSPropertyOp15
 70
     1
102
RTVSPropertyOp16
 70
     1
102
RTVSPropertyOp17
 70
     1
102
RTVSPropertyOp18
 70
     1
102
RTVSPropertyOp19
 70
     1
102
RTVSPropertyOp20
 70
     1
102
RTVSPropertyOp21
 70
     1
102
RTVSPropertyOp22
 70
     1
102
RTVSPropertyOp23
 70
     1
102
RTVSPropertyOp24
 70
     1
102
RTVSPropertyOp25
 70
     1
102
RTVSPropertyOp26
 70
     1
102
RTVSPropertyOp27
 70
     1
102
RTVSPropertyOp28
 70
     1
102
RTVSPropertyOp29
 70
     1
102
RTVSPropertyOp30
 70
     1
102
RTVSPropertyOp31
 70
     1
102
RTVSPropertyOp32
 70
     1
102
RTVSPropertyOp33
 70
     1
102
RTVSPropertyOp34
 70
     1
102
RTVSPropertyOp35
 70
     1
102
RTVSPropertyOp36
 70
     1
102
RTVSPropertyOp37
 70
     1
102
RTVSPropertyOp38
 70
     1
102
RTVSPropertyOp39
 70
     1
102
RTVSPropertyOp40
 70
     1
102
RTVSPropertyOp41
 70
     1
102
RTVSPropertyOp42
 70
     1
102
RTVSPropertyOp43
 70
     1
102
RTVSPropertyOp44
 70
     1
102
RTVSPropertyOp45
 70
     1
102
RTVSPropertyOp46
 70
     1
102
RTVSPropertyOp47
 70
     1
102
RTVSPropertyOp48
 70
     1
102
RTVSPropertyOp49
 70
     1
102
RTVSPropertyOp50
 70
     1
102
RTVSPropertyOp51
 70
     0
102
RTVSPropertyOp52
 70
     0
102
RTVSPropertyOp53
 70
     1
102
RTVSPropertyOp54
 70
     1
102
RTVSPropertyOp55
 70
     1
102
RTVSPropertyOp56
 70
     1
102
RTVSPropertyOp57
 70
     1
102
RTVSPost2010Prop28
280
     0
102
RTVSPost2010PropOp28
 70
     1
102
RTVSPost2010Prop29
280
     1
102
RTVSPost2010PropOp29
 70
     1
102
RTVSPost2010Prop30
280
     1
102
RTVSPost2010PropOp30
 70
     1
102
RTVSPost2010Prop31
280
     0
102
RTVSPost2010PropOp31
 70
     1
102
RTVSPost2010Prop32
280
     0
102
RTVSPost2010PropOp32
 70
     1
102
RTVSPost2010Prop33
280
     0
102
RTVSPost2010PropOp33
 70
     1
102
RTVSPost2010Prop34
280
     0
102
RTVSPost2010PropOp34
 70
     1
102
RTVSPost2010Prop35
280
     0
102
RTVSPost2010PropOp35
 70
     1
102
RTVSPost2010Prop36
280
     0
102
RTVSPost2010PropOp36
 70
     1
102
RTVSPost2010Prop37
 90
       50
102
RTVSPost2010PropOp37
 70
     1
102
RTVSPost2010Prop38
140
0.0
102
RTVSPost2010PropOp38
 70
     1
102
RTVSPost2010Prop39
140
1.0
102
RTVSPost2010PropOp39
 70
     1
102
RTVSPost2010Prop40
 90
        0
102
RTVSPost2010PropOp40
 70
     1
102
RTVSPost2010Prop41ColorIndex
 90
       18
102
RTVSPost2010Prop41ColorRGB
 90
        0
102
RTVSPost2010PropOp41
 70
     1
102
RTVSPost2010Prop42
 90
       50
102
RTVSPost2010PropOp42
 70
     1
102
RTVSPost2010Prop43
 90
        3
102
RTVSPost2010PropOp43
 70
     1
102
RTVSPost2010Prop44ColorIndex
 90
        5
102
RTVSPost2010Prop44ColorRGB
 90
      255
102
RTVSPost2010PropOp44
 70
     1
102
RTVSPost2010Prop45
280
     0
102
RTVSPost2010PropOp45
 70
     1
102
RTVSPost2010Prop46
 90
       50
102
RTVSPost2010PropOp46
 70
     1
102
RTVSPost2010Prop47
 90
       50
102
RTVSPost2010PropOp47
 70
     1
102
RTVSPost2010Prop48
 90
       50
102
RTVSPost2010PropOp48
 70
     1
102
RTVSPost2010Prop49
280
     0
102
RTVSPost2010PropOp49
 70
     1
102
RTVSPost2010Prop50
 90
       50
102
RTVSPost2010PropOp50
 70
     1
102
RTVSPost2010Prop51ColorIndex
 90
      256
102
RTVSPost2010Prop51ColorRGB
 90
-16777216
102
RTVSPost2010PropOp51
 70
     0
102
RTVSPost2010Prop52
140
1.0
102
RTVSPost2010PropOp52
 70
     0
102
RTVSPost2010Prop53
 90
        2
102
RTVSPost2010PropOp53
 70
     1
102
RTVSPost2010Prop54
  1
strokes_ogs.tif
102
RTVSPost2010PropOp54
 70
     1
102
RTVSPost2010Prop55
280
     0
102
RTVSPost2010PropOp55
 70
     1
102
RTVSPost2010Prop56
140
1.0
102
RTVSPost2010PropOp56
 70
     1
102
RTVSPost2010Prop57
140
1.0
102
RTVSPost2010PropOp57
 70
     1
  0
XRECORD
  5
D0
102
{ACAD_REACTORS
330
CF
102
}
330
CF
100
AcDbXrecord
280
     1
102
RTVSPropertyOp0
 70
     1
102
RTVSPropertyOp1
 70
     1
102
RTVSPropertyOp2
 70
     1
102
RTVSPropertyOp3
 70
     1
102
RTVSPropertyOp4
 70
     1
102
RTVSPropertyOp5
 70
     1
102
RTVSPropertyOp6
 70
     1
102
RTVSPropertyOp7
 70
     1
102
RTVSPropertyOp8
 70
     1
102
RTVSPropertyOp9
 70
     1
102
RTVSPropertyOp10
 70
     1
102
RTVSPropertyOp11
 70
     1
102
RTVSPropertyOp12
 70
     1
102
RTVSPropertyOp13
 70
     1
102
RTVSPropertyOp14
 70
     1
102
RTVSPropertyOp15
 70
     1
102
RTVSPropertyOp16
 70
     1
102
RTVSPropertyOp17
 70
     1
102
RTVSPropertyOp18
 70
     1
102
RTVSPropertyOp19
 70
     1
102
RTVSPropertyOp20
 70
     1
102
RTVSPropertyOp21
 70
     1
102
RTVSPropertyOp22
 70
     1
102
RTVSPropertyOp23
 70
     1
102
RTVSPropertyOp24
 70
     1
102
RTVSPropertyOp25
 70
     1
102
RTVSPropertyOp26
 70
     1
102
RTVSPropertyOp27
 70
     1
102
RTVSPropertyOp28
 70
     1
102
RTVSPropertyOp29
 70
     1
102
RTVSPropertyOp30
 70
     1
102
RTVSPropertyOp31
 70
     1
102
RTVSPropertyOp32
 70
     1
102
RTVSPropertyOp33
 70
     1
102
RTVSPropertyOp34
 70
     1
102
RTVSPropertyOp35
 70
     1
102
RTVSPropertyOp36
 70
     1
102
RTVSPropertyOp37
 70
     1
102
RTVSPropertyOp38
 70
     1
102
RTVSPropertyOp39
 70
     1
102
RTVSPropertyOp40
 70
     1
102
RTVSPropertyOp41
 70
     1
102
RTVSPropertyOp42
 70
     1
102
RTVSPropertyOp43
 70
     1
102
RTVSPropertyOp44
 70
     1
102
RTVSPropertyOp45
 70
     1
102
RTVSPropertyOp46
 70
     1
102
RTVSPropertyOp47
 70
     1
102
RTVSPropertyOp48
 70
     1
102
RTVSPropertyOp49
 70
     1
102
RTVSPropertyOp50
 70
     1
102
RTVSPropertyOp51
 70
     0
102
RTVSPropertyOp52
 70
     0
102
RTVSPropertyOp53
 70
     1
102
RTVSPropertyOp54
 70
     1
102
RTVSPropertyOp55
 70
     1
102
RTVSPropertyOp56
 70
     1
102
RTVSPropertyOp57
 70
     1
102
RTVSPost2010Prop28
280
     0
102
RTVSPost2010PropOp28
 70
     1
102
RTVSPost2010Prop29
280
     1
102
RTVSPost2010PropOp29
 70
     1
102
RTVSPost2010Prop30
280
     1
102
RTVSPost2010PropOp30
 70
     1
102
RTVSPost2010Prop31
280
     0
102
RTVSPost2010PropOp31
 70
     1
102
RTVSPost2010Prop32
280
     0
102
RTVSPost2010PropOp32
 70
     1
102
RTVSPost2010Prop33
280
     0
102
RTVSPost2010PropOp33
 70
     1
102
RTVSPost2010Prop34
280
     0
102
RTVSPost2010PropOp34
 70
     1
102
RTVSPost2010Prop35
280
     0
102
RTVSPost2010PropOp35
 70
     1
102
RTVSPost2010Prop36
280
     0
102
RTVSPost2010PropOp36
 70
     1
102
RTVSPost2010Prop37
 90
       50
102
RTVSPost2010PropOp37
 70
     1
102
RTVSPost2010Prop38
140
0.0
102
RTVSPost2010PropOp38
 70
     1
102
RTVSPost2010Prop39
140
1.0
102
RTVSPost2010PropOp39
 70
     1
102
RTVSPost2010Prop40
 90
        0
102
RTVSPost2010PropOp40
 70
     1
102
RTVSPost2010Prop41ColorIndex
 90
       18
102
RTVSPost2010Prop41ColorRGB
 90
        0
102
RTVSPost2010PropOp41
 70
     1
102
RTVSPost2010Prop42
 90
       50
102
RTVSPost2010PropOp42
 70
     1
102
RTVSPost2010Prop43
 90
        3
102
RTVSPost2010PropOp43
 70
     1
102
RTVSPost2010Prop44ColorIndex
 90
        5
102
RTVSPost2010Prop44ColorRGB
 90
      255
102
RTVSPost2010PropOp44
 70
     1
102
RTVSPost2010Prop45
280
     0
102
RTVSPost2010PropOp45
 70
     1
102
RTVSPost2010Prop46
 90
       50
102
RTVSPost2010PropOp46
 70
     1
102
RTVSPost2010Prop47
 90
       50
102
RTVSPost2010PropOp47
 70
     1
102
RTVSPost2010Prop48
 90
       50
102
RTVSPost2010PropOp48
 70
     1
102
RTVSPost2010Prop49
280
     0
102
RTVSPost2010PropOp49
 70
     1
102
RTVSPost2010Prop50
 90
       50
102
RTVSPost2010PropOp50
 70
     1
102
RTVSPost2010Prop51ColorIndex
 90
      256
102
RTVSPost2010Prop51ColorRGB
 90
-16777216
102
RTVSPost2010PropOp51
 70
     0
102
RTVSPost2010Prop52
140
1.0
102
RTVSPost2010PropOp52
 70
     0
102
RTVSPost2010Prop53
 90
        2
102
RTVSPost2010PropOp53
 70
     1
102
RTVSPost2010Prop54
  1
strokes_ogs.tif
102
RTVSPost2010PropOp54
 70
     1
102
RTVSPost2010Prop55
280
     0
102
RTVSPost2010PropOp55
 70
     1
102
RTVSPost2010Prop56
140
1.0
102
RTVSPost2010PropOp56
 70
     1
102
RTVSPost2010Prop57
140
1.0
102
RTVSPost2010PropOp57
 70
     1
  0
XRECORD
  5
F0
102
{ACAD_REACTORS
330
EF
102
}
330
EF
100
AcDbXrecord
280
     1
102
RTVSPropertyOp0
 70
     1
102
RTVSPropertyOp1
 70
     1
102
RTVSPropertyOp2
 70
     1
102
RTVSPropertyOp3
 70
     1
102
RTVSPropertyOp4
 70
     1
102
RTVSPropertyOp5
 70
     1
102
RTVSPropertyOp6
 70
     1
102
RTVSPropertyOp7
 70
     1
102
RTVSPropertyOp8
 70
     1
102
RTVSPropertyOp9
 70
     1
102
RTVSPropertyOp10
 70
     1
102
RTVSPropertyOp11
 70
     1
102
RTVSPropertyOp12
 70
     1
102
RTVSPropertyOp13
 70
     1
102
RTVSPropertyOp14
 70
     1
102
RTVSPropertyOp15
 70
     1
102
RTVSPropertyOp16
 70
     1
102
RTVSPropertyOp17
 70
     1
102
RTVSPropertyOp18
 70
     1
102
RTVSPropertyOp19
 70
     1
102
RTVSPropertyOp20
 70
     1
102
RTVSPropertyOp21
 70
     1
102
RTVSPropertyOp22
 70
     1
102
RTVSPropertyOp23
 70
     1
102
RTVSPropertyOp24
 70
     1
102
RTVSPropertyOp25
 70
     1
102
RTVSPropertyOp26
 70
     1
102
RTVSPropertyOp27
 70
     1
102
RTVSPropertyOp28
 70
     1
102
RTVSPropertyOp29
 70
     1
102
RTVSPropertyOp30
 70
     1
102
RTVSPropertyOp31
 70
     1
102
RTVSPropertyOp32
 70
     1
102
RTVSPropertyOp33
 70
     1
102
RTVSPropertyOp34
 70
     1
102
RTVSPropertyOp35
 70
     1
102
RTVSPropertyOp36
 70
     1
102
RTVSPropertyOp37
 70
     1
102
RTVSPropertyOp38
 70
     1
102
RTVSPropertyOp39
 70
     1
102
RTVSPropertyOp40
 70
     1
102
RTVSPropertyOp41
 70
     1
102
RTVSPropertyOp42
 70
     1
102
RTVSPropertyOp43
 70
     1
102
RTVSPropertyOp44
 70
     1
102
RTVSPropertyOp45
 70
     1
102
RTVSPropertyOp46
 70
     1
102
RTVSPropertyOp47
 70
     1
102
RTVSPropertyOp48
 70
     1
102
RTVSPropertyOp49
 70
     1
102
RTVSPropertyOp50
 70
     1
102
RTVSPropertyOp51
 70
     0
102
RTVSPropertyOp52
 70
     0
102
RTVSPropertyOp53
 70
     1
102
RTVSPropertyOp54
 70
     1
102
RTVSPropertyOp55
 70
     1
102
RTVSPropertyOp56
 70
     1
102
RTVSPropertyOp57
 70
     1
102
RTVSPost2010Prop28
280
     0
102
RTVSPost2010PropOp28
 70
     1
102
RTVSPost2010Prop29
280
     1
102
RTVSPost2010PropOp29
 70
     1
102
RTVSPost2010Prop30
280
     1
102
RTVSPost2010PropOp30
 70
     1
102
RTVSPost2010Prop31
280
     0
102
RTVSPost2010PropOp31
 70
     1
102
RTVSPost2010Prop32
280
     0
102
RTVSPost2010PropOp32
 70
     1
102
RTVSPost2010Prop33
280
     0
102
RTVSPost2010PropOp33
 70
     1
102
RTVSPost2010Prop34
280
     0
102
RTVSPost2010PropOp34
 70
     1
102
RTVSPost2010Prop35
280
     0
102
RTVSPost2010PropOp35
 70
     1
102
RTVSPost2010Prop36
280
     0
102
RTVSPost2010PropOp36
 70
     1
102
RTVSPost2010Prop37
 90
       50
102
RTVSPost2010PropOp37
 70
     1
102
RTVSPost2010Prop38
140
0.0
102
RTVSPost2010PropOp38
 70
     1
102
RTVSPost2010Prop39
140
1.0
102
RTVSPost2010PropOp39
 70
     1
102
RTVSPost2010Prop40
 90
        0
102
RTVSPost2010PropOp40
 70
     1
102
RTVSPost2010Prop41ColorIndex
 90
       18
102
RTVSPost2010Prop41ColorRGB
 90
        0
102
RTVSPost2010PropOp41
 70
     1
102
RTVSPost2010Prop42
 90
       50
102
RTVSPost2010PropOp42
 70
     1
102
RTVSPost2010Prop43
 90
        3
102
RTVSPost2010PropOp43
 70
     1
102
RTVSPost2010Prop44ColorIndex
 90
        5
102
RTVSPost2010Prop44ColorRGB
 90
      255
102
RTVSPost2010PropOp44
 70
     1
102
RTVSPost2010Prop45
280
     0
102
RTVSPost2010PropOp45
 70
     1
102
RTVSPost2010Prop46
 90
       50
102
RTVSPost2010PropOp46
 70
     1
102
RTVSPost2010Prop47
 90
       50
102
RTVSPost2010PropOp47
 70
     1
102
RTVSPost2010Prop48
 90
       50
102
RTVSPost2010PropOp48
 70
     1
102
RTVSPost2010Prop49
280
     0
102
RTVSPost2010PropOp49
 70
     1
102
RTVSPost2010Prop50
 90
       50
102
RTVSPost2010PropOp50
 70
     1
102
RTVSPost2010Prop51ColorIndex
 90
      256
102
RTVSPost2010Prop51ColorRGB
 90
-16777216
102
RTVSPost2010PropOp51
 70
     0
102
RTVSPost2010Prop52
140
1.0
102
RTVSPost2010PropOp52
 70
     0
102
RTVSPost2010Prop53
 90
        2
102
RTVSPost2010PropOp53
 70
     1
102
RTVSPost2010Prop54
  1
strokes_ogs.tif
102
RTVSPost2010PropOp54
 70
     1
102
RTVSPost2010Prop55
280
     0
102
RTVSPost2010PropOp55
 70
     1
102
RTVSPost2010Prop56
140
1.0
102
RTVSPost2010PropOp56
 70
     1
102
RTVSPost2010Prop57
140
1.0
102
RTVSPost2010PropOp57
 70
     1
  0
ENDSEC
  0
EOF
