  0
SECTION
  2
HEADER
  9
$ACADVER
  1
AC1018
  9
$ACADMAINTVER
 70
     0
  9
$DWGCODEPAGE
  3
ANSI_1252
  9
$INSBASE
 10
0.0
 20
0.0
 30
0.0
  9
$EXTMIN
 10
-1.279528004244434
 20
-1.279528000000001
 30
0.0
  9
$EXTMAX
 10
20.90854714567449
 20
51.50872610150886
 30
0.0
  9
$LIMMIN
 10
0.0
 20
0.0
  9
$LIMMAX
 10
12.0
 20
9.0
  9
$ORTHOMODE
 70
     0
  9
$REGENMODE
 70
     1
  9
$FILLMODE
 70
     1
  9
$QTEXTMODE
 70
     0
  9
$MIRRTEXT
 70
     1
  9
$LTSCALE
 40
1.0
  9
$ATTMODE
 70
     1
  9
$TEXTSIZE
 40
0.2
  9
$TRACEWID
 40
0.05
  9
$TEXTSTYLE
  7
Standard
  9
$CLAYER
  8
DEFAULT
  9
$CELTYPE
  6
ByLayer
  9
$CECOLOR
 62
   256
  9
$CELTSCALE
 40
1.0
  9
$DISPSILH
 70
     0
  9
$DIMSCALE
 40
1.0
  9
$DIMASZ
 40
0.18
  9
$DIMEXO
 40
0.0625
  9
$DIMDLI
 40
0.38
  9
$DIMRND
 40
0.0
  9
$DIMDLE
 40
0.0
  9
$DIMEXE
 40
0.18
  9
$DIMTP
 40
0.0
  9
$DIMTM
 40
0.0
  9
$DIMTXT
 40
0.18
  9
$DIMCEN
 40
0.09
  9
$DIMTSZ
 40
0.0
  9
$DIMTOL
 70
     0
  9
$DIMLIM
 70
     0
  9
$DIMTIH
 70
     1
  9
$DIMTOH
 70
     1
  9
$DIMSE1
 70
     0
  9
$DIMSE2
 70
     0
  9
$DIMTAD
 70
     0
  9
$DIMZIN
 70
     0
  9
$DIMBLK
  1

  9
$DIMASO
 70
     1
  9
$DIMSHO
 70
     1
  9
$DIMPOST
  1

  9
$DIMAPOST
  1

  9
$DIMALT
 70
     0
  9
$DIMALTD
 70
     2
  9
$DIMALTF
 40
25.4
  9
$DIMLFAC
 40
1.0
  9
$DIMTOFL
 70
     0
  9
$DIMTVP
 40
0.0
  9
$DIMTIX
 70
     0
  9
$DIMSOXD
 70
     0
  9
$DIMSAH
 70
     0
  9
$DIMBLK1
  1

  9
$DIMBLK2
  1

  9
$DIMSTYLE
  2
Standard
  9
$DIMCLRD
 70
     0
  9
$DIMCLRE
 70
     0
  9
$DIMCLRT
 70
     0
  9
$DIMTFAC
 40
1.0
  9
$DIMGAP
 40
0.09
  9
$DIMJUST
 70
     0
  9
$DIMSD1
 70
     0
  9
$DIMSD2
 70
     0
  9
$DIMTOLJ
 70
     1
  9
$DIMTZIN
 70
     0
  9
$DIMALTZ
 70
     0
  9
$DIMALTTZ
 70
     0
  9
$DIMUPT
 70
     0
  9
$DIMDEC
 70
     4
  9
$DIMTDEC
 70
     4
  9
$DIMALTU
 70
     2
  9
$DIMALTTD
 70
     2
  9
$DIMTXSTY
  7
Standard
  9
$DIMAUNIT
 70
     0
  9
$DIMADEC
 70
     0
  9
$DIMALTRND
 40
0.0
  9
$DIMAZIN
 70
     0
  9
$DIMDSEP
 70
    46
  9
$DIMATFIT
 70
     3
  9
$DIMFRAC
 70
     0
  9
$DIMLDRBLK
  1

  9
$DIMLUNIT
 70
     2
  9
$DIMLWD
 70
    -2
  9
$DIMLWE
 70
    -2
  9
$DIMTMOVE
 70
     0
  9
$LUNITS
 70
     2
  9
$LUPREC
 70
     3
  9
$SKETCHINC
 40
0.1
  9
$FILLETRAD
 40
0.5
  9
$AUNITS
 70
     0
  9
$AUPREC
 70
     0
  9
$MENU
  1
.
  9
$ELEVATION
 40
0.0
  9
$PELEVATION
 40
0.0
  9
$THICKNESS
 40
0.0
  9
$LIMCHECK
 70
     0
  9
$CHAMFERA
 40
0.5
  9
$CHAMFERB
 40
0.5
  9
$CHAMFERC
 40
1.0
  9
$CHAMFERD
 40
0.0
  9
$SKPOLY
 70
     0
  9
$TDCREATE
 40
2454651.639819676
  9
$TDUCREATE
 40
2454651.806486343
  9
$TDUPDATE
 40
2454651.639819688
  9
$TDUUPDATE
 40
2454651.806486354
  9
$TDINDWG
 40
0.0000000116
  9
$TDUSRTIMER
 40
0.0000000116
  9
$USRTIMER
 70
     1
  9
$ANGBASE
 50
0.0
  9
$ANGDIR
 70
     0
  9
$PDMODE
 70
     0
  9
$PDSIZE
 40
0.0
  9
$PLINEWID
 40
0.0
  9
$SPLFRAME
 70
     0
  9
$SPLINETYPE
 70
     6
  9
$SPLINESEGS
 70
     8
  9
$HANDSEED
  5
1AC
  9
$SURFTAB1
 70
     6
  9
$SURFTAB2
 70
     6
  9
$SURFTYPE
 70
     6
  9
$SURFU
 70
     6
  9
$SURFV
 70
     6
  9
$UCSBASE
  2

  9
$UCSNAME
  2

  9
$UCSORG
 10
0.0
 20
0.0
 30
0.0
  9
$UCSXDIR
 10
1.0
 20
0.0
 30
0.0
  9
$UCSYDIR
 10
0.0
 20
1.0
 30
0.0
  9
$UCSORTHOREF
  2

  9
$UCSORTHOVIEW
 70
     0
  9
$UCSORGTOP
 10
0.0
 20
0.0
 30
0.0
  9
$UCSORGBOTTOM
 10
0.0
 20
0.0
 30
0.0
  9
$UCSORGLEFT
 10
0.0
 20
0.0
 30
0.0
  9
$UCSORGRIGHT
 10
0.0
 20
0.0
 30
0.0
  9
$UCSORGFRONT
 10
0.0
 20
0.0
 30
0.0
  9
$UCSORGBACK
 10
0.0
 20
0.0
 30
0.0
  9
$PUCSBASE
  2

  9
$PUCSNAME
  2

  9
$PUCSORG
 10
0.0
 20
0.0
 30
0.0
  9
$PUCSXDIR
 10
1.0
 20
0.0
 30
0.0
  9
$PUCSYDIR
 10
0.0
 20
1.0
 30
0.0
  9
$PUCSORTHOREF
  2

  9
$PUCSORTHOVIEW
 70
     0
  9
$PUCSORGTOP
 10
0.0
 20
0.0
 30
0.0
  9
$PUCSORGBOTTOM
 10
0.0
 20
0.0
 30
0.0
  9
$PUCSORGLEFT
 10
0.0
 20
0.0
 30
0.0
  9
$PUCSORGRIGHT
 10
0.0
 20
0.0
 30
0.0
  9
$PUCSORGFRONT
 10
0.0
 20
0.0
 30
0.0
  9
$PUCSORGBACK
 10
0.0
 20
0.0
 30
0.0
  9
$USERI1
 70
     0
  9
$USERI2
 70
     0
  9
$USERI3
 70
     0
  9
$USERI4
 70
     0
  9
$USERI5
 70
     0
  9
$USERR1
 40
0.0
  9
$USERR2
 40
0.0
  9
$USERR3
 40
0.0
  9
$USERR4
 40
0.0
  9
$USERR5
 40
0.0
  9
$WORLDVIEW
 70
     1
  9
$SHADEDGE
 70
     3
  9
$SHADEDIF
 70
    70
  9
$TILEMODE
 70
     1
  9
$MAXACTVP
 70
    64
  9
$PINSBASE
 10
0.0
 20
0.0
 30
0.0
  9
$PLIMCHECK
 70
     0
  9
$PEXTMIN
 10
1.000000000000000E+20
 20
1.000000000000000E+20
 30
1.000000000000000E+20
  9
$PEXTMAX
 10
-1.000000000000000E+20
 20
-1.000000000000000E+20
 30
-1.000000000000000E+20
  9
$PLIMMIN
 10
0.0
 20
0.0
  9
$PLIMMAX
 10
12.0
 20
9.0
  9
$UNITMODE
 70
     0
  9
$VISRETAIN
 70
     1
  9
$PLINEGEN
 70
     0
  9
$PSLTSCALE
 70
     1
  9
$TREEDEPTH
 70
  3020
  9
$CMLSTYLE
  2
Standard
  9
$CMLJUST
 70
     0
  9
$CMLSCALE
 40
1.0
  9
$PROXYGRAPHICS
 70
     1
  9
$MEASUREMENT
 70
     0
  9
$CELWEIGHT
370
    -1
  9
$ENDCAPS
280
     0
  9
$JOINSTYLE
280
     0
  9
$LWDISPLAY
290
     0
  9
$INSUNITS
 70
     1
  9
$HYPERLINKBASE
  1

  9
$STYLESHEET
  1

  9
$XEDIT
290
     1
  9
$CEPSNTYPE
380
     0
  9
$PSTYLEMODE
290
     1
  9
$FINGERPRINTGUID
  2
{6C2A78E4-87A4-425F-8510-6A334A93665A}
  9
$VERSIONGUID
  2
{FAEB1C32-E019-11D5-929B-00C0DF256EC4}
  9
$EXTNAMES
290
     1
  9
$PSVPSCALE
 40
0.0
  9
$OLESTARTUP
290
     0
  9
$SORTENTS
280
   127
  9
$INDEXCTL
280
     0
  9
$HIDETEXT
280
     1
  9
$XCLIPFRAME
290
     0
  9
$HALOGAP
280
     0
  9
$OBSCOLOR
 70
   257
  9
$OBSLTYPE
280
     0
  9
$INTERSECTIONDISPLAY
280
     0
  9
$INTERSECTIONCOLOR
 70
   257
  9
$DIMASSOC
280
     2
  9
$PROJECTNAME
  1

  0
ENDSEC
  0
SECTION
  2
CLASSES
  0
CLASS
  1
ACDBDICTIONARYWDFLT
  2
AcDbDictionaryWithDefault
  3
ObjectDBX Classes
 90
        0
 91
        3
280
     0
281
     0
  0
CLASS
  1
VISUALSTYLE
  2
AcDbVisualStyle
  3
ObjectDBX Classes
 90
     4095
 91
        3
280
     0
281
     0
  0
CLASS
  1
SCALE
  2
AcDbScale
  3
ObjectDBX Classes
 90
     1153
 91
        3
280
     0
281
     0
  0
ENDSEC
  0
SECTION
  2
TABLES
  0
TABLE
  2
VPORT
  5
8
330
0
100
AcDbSymbolTable
 70
     1
  0
VPORT
  5
29
330
8
100
AcDbSymbolTableRecord
100
AcDbViewportTableRecord
  2
*Active
 70
     0
 10
0.0
 20
0.0
 11
1.0
 21
1.0
 12
0.0
 22
0.0
 13
0.0
 23
0.0
 14
0.5
 24
0.5
 15
0.5
 25
0.5
 16
0.0
 26
0.0
 36
1.0
 17
9.814509570715028
 27
25.11459905075443
 37
0.0
 40
53.84401918353903
 41
0.4203222009815384
 42
50.0
 43
0.0
 44
0.0
 50
0.0
 51
0.0
 71
     0
 72
   100
 73
     1
 74
     3
 75
     0
 76
     0
 77
     0
 78
     0
281
     0
 65
     1
110
0.0
120
0.0
130
0.0
111
1.0
121
0.0
131
0.0
112
0.0
122
1.0
132
0.0
 79
     0
146
0.0
  0
ENDTAB
  0
TABLE
  2
LTYPE
  5
5
330
0
100
AcDbSymbolTable
 70
     1
  0
LTYPE
  5
14
330
5
100
AcDbSymbolTableRecord
100
AcDbLinetypeTableRecord
  2
ByBlock
 70
     0
  3

 72
    65
 73
     0
 40
0.0
  0
LTYPE
  5
15
330
5
100
AcDbSymbolTableRecord
100
AcDbLinetypeTableRecord
  2
ByLayer
 70
     0
  3

 72
    65
 73
     0
 40
0.0
  0
LTYPE
  5
16
330
5
100
AcDbSymbolTableRecord
100
AcDbLinetypeTableRecord
  2
Continuous
 70
     0
  3
Solid line
 72
    65
 73
     0
 40
0.0
  0
ENDTAB
  0
TABLE
  2
LAYER
  5
2
330
0
100
AcDbSymbolTable
 70
     2
  0
LAYER
  5
10
330
2
100
AcDbSymbolTableRecord
100
AcDbLayerTableRecord
  2
0
 70
     0
 62
     7
  6
Continuous
370
    -3
390
F
  0
LAYER
  5
5D
330
2
100
AcDbSymbolTableRecord
100
AcDbLayerTableRecord
  2
DEFAULT
 70
     0
 62
     7
  6
Continuous
370
    -3
390
F
  0
ENDTAB
  0
TABLE
  2
STYLE
  5
3
330
0
100
AcDbSymbolTable
 70
     1
  0
STYLE
  5
11
330
3
100
AcDbSymbolTableRecord
100
AcDbTextStyleTableRecord
  2
Standard
 70
     0
 40
0.0
 41
1.0
 50
0.0
 71
     0
 42
0.2
  3
txt
  4

  0
ENDTAB
  0
TABLE
  2
VIEW
  5
6
330
0
100
AcDbSymbolTable
 70
     0
  0
ENDTAB
  0
TABLE
  2
UCS
  5
7
330
0
100
AcDbSymbolTable
 70
     0
  0
ENDTAB
  0
TABLE
  2
APPID
  5
9
330
0
100
AcDbSymbolTable
 70
     1
  0
APPID
  5
12
330
9
100
AcDbSymbolTableRecord
100
AcDbRegAppTableRecord
  2
ACAD
 70
     0
  0
ENDTAB
  0
TABLE
  2
DIMSTYLE
  5
A
330
0
100
AcDbSymbolTable
 70
     1
100
AcDbDimStyleTable
  0
DIMSTYLE
105
27
330
A
100
AcDbSymbolTableRecord
100
AcDbDimStyleTableRecord
  2
Standard
 70
     0
340
11
  0
ENDTAB
  0
TABLE
  2
BLOCK_RECORD
  5
1
330
0
100
AcDbSymbolTable
 70
     1
  0
BLOCK_RECORD
  5
1F
330
1
100
AcDbSymbolTableRecord
100
AcDbBlockTableRecord
  2
*Model_Space
340
22
  0
BLOCK_RECORD
  5
1B
330
1
100
AcDbSymbolTableRecord
100
AcDbBlockTableRecord
  2
*Paper_Space
340
1E
  0
BLOCK_RECORD
  5
23
330
1
100
AcDbSymbolTableRecord
100
AcDbBlockTableRecord
  2
*Paper_Space0
340
26
  0
ENDTAB
  0
ENDSEC
  0
SECTION
  2
BLOCKS
  0
BLOCK
  5
20
330
1F
100
AcDbEntity
  8
0
100
AcDbBlockBegin
  2
*Model_Space
 70
     0
 10
0.0
 20
0.0
 30
0.0
  3
*Model_Space
  1

  0
ENDBLK
  5
21
330
1F
100
AcDbEntity
  8
0
100
AcDbBlockEnd
  0
BLOCK
  5
1C
330
1B
100
AcDbEntity
 67
     1
  8
0
100
AcDbBlockBegin
  2
*Paper_Space
 70
     0
 10
0.0
 20
0.0
 30
0.0
  3
*Paper_Space
  1

  0
ENDBLK
  5
1D
330
1B
100
AcDbEntity
 67
     1
  8
0
100
AcDbBlockEnd
  0
BLOCK
  5
24
330
23
100
AcDbEntity
  8
0
100
AcDbBlockBegin
  2
*Paper_Space0
 70
     0
 10
0.0
 20
0.0
 30
0.0
  3
*Paper_Space0
  1

  0
ENDBLK
  5
25
330
23
100
AcDbEntity
  8
0
100
AcDbBlockEnd
  0
ENDSEC
  0
SECTION
  2
ENTITIES
  0
ARC
  5
5E
330
1F
100
AcDbEntity
  8
DEFAULT
100
AcDbCircle
 10
0.9251969999974108
 20
46.62008010150885
 30
0.0
 40
0.5207924728214128
100
AcDbArc
 50
204.5899815201698
 51
258.9297129242994
  0
ARC
  5
5F
330
1F
100
AcDbEntity
  8
DEFAULT
100
AcDbCircle
 10
13.23933799999736
 20
50.07249010150885
 30
0.0
 40
0.0590548848528778
100
AcDbArc
 50
0.0
 51
3.17713922966685
  0
ARC
  5
60
330
1F
100
AcDbEntity
  8
DEFAULT
100
AcDbCircle
 10
13.23933799999736
 20
50.97800210150884
 30
0.0
 40
0.0590549041019507
100
AcDbArc
 50
319.6771567869501
 51
0.0
  0
SPLINE
  5
61
330
1F
100
AcDbEntity
  8
DEFAULT
100
AcDbSpline
210
0.0
220
0.0
230
1.0
 70
     8
 71
     3
 72
     8
 73
     4
 74
     0
 42
0.0000000001
 43
0.0000000001
 40
0.0
 40
0.0
 40
0.0
 40
0.0
 40
1.0
 40
1.0
 40
1.0
 40
1.0
 10
0.4672303987424016
 20
46.38987737759885
 30
0.0
 10
0.4628518762283989
 20
46.39329303728884
 30
0.0
 10
0.4586192733853522
 20
46.39691157823884
 30
0.0
 10
0.4545504093513841
 20
46.40071422434885
 30
0.0
  0
SPLINE
  5
62
330
1F
100
AcDbEntity
  8
DEFAULT
100
AcDbSpline
210
0.0
220
0.0
230
1.0
 70
    24
 71
     2
 72
     6
 73
     3
 74
     0
 42
0.0000000001
 43
0.0000000001
 40
0.0
 40
0.0
 40
0.0
 40
1.0
 40
1.0
 40
1.0
 10
-1.062500000002615
 20
32.99921610150885
 30
0.0
 10
-0.0000000000026148
 20
32.99921610150885
 30
0.0
 10
1.062499999997385
 20
32.99921610150885
 30
0.0
  0
SPLINE
  5
63
330
1F
100
AcDbEntity
  8
DEFAULT
100
AcDbSpline
210
0.0
220
0.0
230
1.0
 70
    24
 71
     2
 72
     6
 73
     3
 74
     0
 42
0.0000000001
 43
0.0000000001
 40
0.0
 40
0.0
 40
0.0
 40
1.0
 40
1.0
 40
1.0
 10
13.29839299999742
 20
30.82557110150886
 30
0.0
 10
13.29839299999742
 20
30.67792860150885
 30
0.0
 10
13.29839299999742
 20
30.53028610150885
 30
0.0
  0
ARC
  5
64
330
1F
100
AcDbEntity
  8
DEFAULT
100
AcDbCircle
 10
10.97555799999736
 20
49.77720510150884
 30
0.0
 40
0.2362205042417886
100
AcDbArc
 50
180.0
 51
265.3395701367957
  0
SPLINE
  5
65
330
1F
100
AcDbEntity
  8
DEFAULT
100
AcDbSpline
210
0.0
220
0.0
230
1.0
 70
    24
 71
     2
 72
     6
 73
     3
 74
     0
 42
0.0000000001
 43
0.0000000001
 40
0.0
 40
0.0
 40
0.0
 40
1.0
 40
1.0
 40
1.0
 10
10.95636499999739
 20
29.09405010150884
 30
0.0
 10
12.01886499999739
 20
29.09405010150884
 30
0.0
 10
13.08136499999739
 20
29.09405010150884
 30
0.0
  0
ARC
  5
66
330
1F
100
AcDbEntity
  8
DEFAULT
100
AcDbCircle
 10
10.97555799999736
 20
30.82557110150886
 30
0.0
 40
0.2362205042417886
100
AcDbArc
 50
94.66042986320427
 51
180.0
  0
ARC
  5
67
330
1F
100
AcDbEntity
  8
DEFAULT
100
AcDbCircle
 10
13.06217199999742
 20
29.32949010150885
 30
0.0
 40
0.236221004241791
100
AcDbArc
 50
274.6604298632046
 51
0.0
  0
SPLINE
  5
68
330
1F
100
AcDbEntity
  8
DEFAULT
100
AcDbSpline
210
0.0
220
0.0
230
1.0
 70
     8
 71
     3
 72
    10
 73
     6
 74
     0
 42
0.0000000001
 43
0.0000000001
 40
0.0
 40
0.0
 40
0.0
 40
0.0
 40
0.4283511036586
 40
0.8571038310804
 40
1.0
 40
1.0
 40
1.0
 40
1.0
 10
1.002612774599356
 20
33.47600836709886
 30
0.0
 10
0.9880323702674332
 20
33.46615804788884
 30
0.0
 10
0.9558874572144305
 20
33.45049563938885
 30
0.0
 10
0.9149207479014194
 20
33.44332714451885
 30
0.0
 10
0.8913400571893817
 20
33.44362214137884
 30
0.0
 10
0.8854610831804166
 20
33.44396728568886
 30
0.0
  0
ARC
  5
69
330
1F
100
AcDbEntity
  8
DEFAULT
100
AcDbCircle
 10
-1.043307000002642
 20
33.23465610150885
 30
0.0
 40
0.2362210042417907
100
AcDbArc
 50
180.0
 51
265.3395701367955
  0
SPLINE
  5
6A
330
1F
100
AcDbEntity
  8
DEFAULT
100
AcDbSpline
210
0.0
220
0.0
230
1.0
 70
    24
 71
     2
 72
     6
 73
     3
 74
     0
 42
0.0000000001
 43
0.0000000001
 40
0.0
 40
0.0
 40
0.0
 40
1.0
 40
1.0
 40
1.0
 10
20.72645999999997
 20
0.3149609999999967
 30
0.0
 10
20.72645999999997
 20
0.1574804999999984
 30
0.0
 10
20.72645999999997
 20
0.0
 30
0.0
  0
SPLINE
  5
6B
330
1F
100
AcDbEntity
  8
DEFAULT
100
AcDbSpline
210
0.0
220
0.0
230
1.0
 70
    24
 71
     2
 72
     6
 73
     3
 74
     0
 42
0.0000000001
 43
0.0000000001
 40
0.0
 40
0.0
 40
0.0
 40
1.0
 40
1.0
 40
1.0
 10
19.97388699999999
 20
1.279527999999999
 30
0.0
 10
19.97388699999999
 20
1.222747499999997
 30
0.0
 10
19.97388699999999
 20
1.165966999999995
 30
0.0
  0
SPLINE
  5
6C
330
1F
100
AcDbEntity
  8
DEFAULT
100
AcDbSpline
210
0.0
220
0.0
230
1.0
 70
    24
 71
     2
 72
     6
 73
     3
 74
     0
 42
0.0000000001
 43
0.0000000001
 40
0.0
 40
0.0
 40
0.0
 40
1.0
 40
1.0
 40
1.0
 10
0.5269549999999867
 20
1.279527999999999
 30
0.0
 10
0.5269549999999867
 20
1.222747499999997
 30
0.0
 10
0.5269549999999867
 20
1.165966999999995
 30
0.0
  0
SPLINE
  5
6D
330
1F
100
AcDbEntity
  8
DEFAULT
100
AcDbSpline
210
0.0
220
0.0
230
1.0
 70
    24
 71
     2
 72
     6
 73
     3
 74
     0
 42
0.0000000001
 43
0.0000000001
 40
0.0
 40
0.0
 40
0.0
 40
1.0
 40
1.0
 40
1.0
 10
20.77294399999994
 20
1.632709999999989
 30
0.0
 10
20.79167699999996
 20
2.169149499999989
 30
0.0
 10
20.81040999999999
 20
2.705588999999989
 30
0.0
  0
SPLINE
  5
6E
330
1F
100
AcDbEntity
  8
DEFAULT
100
AcDbSpline
210
0.0
220
0.0
230
1.0
 70
     8
 71
     3
 72
     9
 73
     5
 74
     0
 42
0.0000000001
 43
0.0000000001
 40
0.0
 40
0.0
 40
0.0
 40
0.0
 40
1.0
 40
2.0
 40
2.0
 40
2.0
 40
2.0
 10
9.287618546019985
 20
4.289667635103001
 30
0.0
 10
9.250199732113629
 20
4.29273710935432
 30
0.0
 10
9.175074194259764
 20
4.293024460417243
 30
0.0
 10
9.100032272094325
 20
4.291477952912444
 30
0.0
 10
9.062534626520005
 20
4.289667635103001
 30
0.0
  0
SPLINE
  5
6F
330
1F
100
AcDbEntity
  8
DEFAULT
100
AcDbSpline
210
0.0
220
0.0
230
1.0
 70
    24
 71
     2
 72
     6
 73
     3
 74
     0
 42
0.0000000001
 43
0.0000000001
 40
0.0
 40
0.0
 40
0.0
 40
1.0
 40
1.0
 40
1.0
 10
1.840872999999988
 20
19.73399936806274
 30
0.0
 10
9.622129499999971
 20
19.73399936806274
 30
0.0
 10
17.40338599999995
 20
19.73399936806274
 30
0.0
  0
ARC
  5
70
330
1F
100
AcDbEntity
  8
DEFAULT
100
AcDbCircle
 10
12.94406199999742
 20
30.07753110150885
 30
0.0
 40
0.5364179064991967
100
AcDbArc
 50
342.2460424476051
 51
46.04543262749258
  0
ARC
  5
71
330
1F
100
AcDbEntity
  8
DEFAULT
100
AcDbCircle
 10
13.23933799999736
 20
29.62477510150885
 30
0.0
 40
0.0590545805575144
100
AcDbArc
 50
0.0
 51
40.32210350398974
  0
SPLINE
  5
72
330
1F
100
AcDbEntity
  8
DEFAULT
100
AcDbSpline
210
0.0
220
0.0
230
1.0
 70
     8
 71
     3
 72
    10
 73
     6
 74
     0
 42
0.0000000001
 43
0.0000000001
 40
0.0
 40
0.0
 40
0.0
 40
0.0
 40
0.1665696722804
 40
0.6665577656833
 40
1.0
 40
1.0
 40
1.0
 40
1.0
 10
0.3943855933133591
 20
34.05896754992885
 30
0.0
 10
0.3942597552824054
 20
34.06484821627885
 30
0.0
 10
0.3948402775113777
 20
34.08840237301885
 30
0.0
 10
0.402255494458359
 20
34.12329755604885
 30
0.0
 10
0.4148819241523825
 20
34.15001846141885
 30
0.0
 10
0.4208803211723762
 20
34.16015600488885
 30
0.0
  0
SPLINE
  5
73
330
1F
100
AcDbEntity
  8
DEFAULT
100
AcDbSpline
210
0.0
220
0.0
230
1.0
 70
    24
 71
     2
 72
     6
 73
     3
 74
     0
 42
0.0000000001
 43
0.0000000001
 40
0.3122363361840776
 40
0.3122363361840776
 40
0.3122363361840776
 40
1.0
 40
1.0
 40
1.0
 10
18.16740599999741
 20
39.75643439497874
 30
0.0
 10
18.16740599999741
 20
39.65489124824379
 30
0.0
 10
18.16740599999741
 20
39.55334810150885
 30
0.0
  0
SPLINE
  5
74
330
1F
100
AcDbEntity
  8
DEFAULT
100
AcDbSpline
210
0.0
220
0.0
230
1.0
 70
     8
 71
     3
 72
     9
 73
     5
 74
     0
 42
0.0000000001
 43
0.0000000001
 40
0.0
 40
0.0
 40
0.0
 40
0.0
 40
0.5991008538013
 40
1.0
 40
1.0
 40
1.0
 40
1.0
 10
0.4160160711693948
 20
33.97455762974884
 30
0.0
 10
0.4079228246404227
 20
33.99007226428886
 30
0.0
 10
0.3979572917813812
 20
34.01799300072885
 30
0.0
 10
0.3946368382634091
 20
34.04722636398886
 30
0.0
 10
0.3943855933133591
 20
34.05896754992885
 30
0.0
  0
ARC
  5
75
330
1F
100
AcDbEntity
  8
DEFAULT
100
AcDbCircle
 10
10.79839299999742
 20
50.07249010150885
 30
0.0
 40
0.0590549999999999
100
AcDbArc
 50
90.0
 51
180.0
  0
SPLINE
  5
76
330
1F
100
AcDbEntity
  8
DEFAULT
100
AcDbSpline
210
0.0
220
0.0
230
1.0
 70
    24
 71
     2
 72
     6
 73
     3
 74
     0
 42
0.0000000001
 43
0.0000000001
 40
0.0
 40
0.0
 40
0.0
 40
1.0
 40
1.0
 40
1.0
 10
12.54581999999994
 20
1.279527999999999
 30
0.0
 10
12.54581999999994
 20
1.222747499999997
 30
0.0
 10
12.54581999999994
 20
1.165966999999995
 30
0.0
  0
ARC
  5
77
330
1F
100
AcDbEntity
  8
DEFAULT
100
AcDbCircle
 10
12.423269
 20
1.441068000000001
 30
0.0
 40
0.015625
100
AcDbArc
 50
90.0
 51
180.0
  0
SPLINE
  5
78
330
1F
100
AcDbEntity
  8
DEFAULT
100
AcDbSpline
210
0.0
220
0.0
230
1.0
 70
    24
 71
     2
 72
     6
 73
     3
 74
     0
 42
0.0000000001
 43
0.0000000001
 40
0.0
 40
0.0
 40
0.0
 40
1.0
 40
1.0
 40
1.0
 10
19.78127199999994
 20
1.574804
 30
0.0
 10
20.24712449999996
 20
1.574804
 30
0.0
 10
20.71297699999997
 20
1.574804
 30
0.0
  0
SPLINE
  5
79
330
1F
100
AcDbEntity
  8
DEFAULT
100
AcDbSpline
210
0.0
220
0.0
230
1.0
 70
    24
 71
     2
 72
     6
 73
     3
 74
     0
 42
0.0000000001
 43
0.0000000001
 40
0.0
 40
0.0
 40
0.0
 40
1.0
 40
1.0
 40
1.0
 10
0.4044039999999995
 20
1.456693000000001
 30
0.0
 10
0.92519649999997
 20
1.456693000000001
 30
0.0
 10
1.44598899999994
 20
1.456693000000001
 30
0.0
  0
SPLINE
  5
7A
330
1F
100
AcDbEntity
  8
DEFAULT
100
AcDbSpline
210
0.0
220
0.0
230
1.0
 70
    24
 71
     2
 72
     6
 73
     3
 74
     0
 42
0.0000000001
 43
0.0000000001
 40
0.0
 40
0.0
 40
0.0
 40
1.0
 40
1.0
 40
1.0
 10
19.85133599999995
 20
1.456693000000001
 30
0.0
 10
20.37212849999997
 20
1.456693000000001
 30
0.0
 10
20.892921
 20
1.456693000000001
 30
0.0
  0
CIRCLE
  5
7B
330
1F
100
AcDbEntity
  8
DEFAULT
100
AcDbCircle
 10
12.01886500000001
 20
0.0
 30
0.0
 40
1.0625
  0
ARC
  5
7C
330
1F
100
AcDbEntity
  8
DEFAULT
100
AcDbCircle
 10
12.01886500000001
 20
0.0
 30
0.0
 40
1.279527939310224
100
AcDbArc
 50
15.7620695672927
 51
18.57560333516714
  0
SPLINE
  5
7D
330
1F
100
AcDbEntity
  8
DEFAULT
100
AcDbSpline
210
0.0
220
0.0
230
1.0
 70
    24
 71
     2
 72
     6
 73
     3
 74
     0
 42
0.0000000001
 43
0.0000000001
 40
0.0
 40
0.0
 40
0.0
 40
1.0
 40
1.0
 40
1.0
 10
12.407644
 20
1.441068000000001
 30
0.0
 10
12.407644
 20
1.360298
 30
0.0
 10
12.407644
 20
1.279527999999999
 30
0.0
  0
SPLINE
  5
7E
330
1F
100
AcDbEntity
  8
DEFAULT
100
AcDbSpline
210
0.0
220
0.0
230
1.0
 70
    24
 71
     2
 72
     6
 73
     3
 74
     0
 42
0.0000000001
 43
0.0000000001
 40
0.0
 40
0.0
 40
0.0
 40
1.0
 40
1.0
 40
1.0
 10
20.08669599999996
 20
1.574804
 30
0.0
 10
20.08669599999996
 20
1.515748500000001
 30
0.0
 10
20.08669599999996
 20
1.456693000000001
 30
0.0
  0
ARC
  5
7F
330
1F
100
AcDbEntity
  8
DEFAULT
100
AcDbCircle
 10
19.78127199999994
 20
1.644803999999993
 30
0.0
 40
0.0700001724710036
100
AcDbArc
 50
212.971779499647
 51
270.0
  0
SPLINE
  5
80
330
1F
100
AcDbEntity
  8
DEFAULT
100
AcDbSpline
210
0.0
220
0.0
230
1.0
 70
     8
 71
     3
 72
     9
 73
     5
 74
     0
 42
0.0000000001
 43
0.0000000001
 40
0.0
 40
0.0
 40
0.0
 40
0.0
 40
1.0
 40
2.0
 40
2.0
 40
2.0
 40
2.0
 10
9.055123999999978
 20
3.920968999999999
 30
0.0
 10
9.097549390875542
 20
3.922976362295472
 30
0.0
 10
9.182452552475638
 20
3.924811059239104
 30
0.0
 10
9.267439738416101
 20
3.924591205705553
 30
0.0
 10
9.30980199999999
 20
3.921478999999991
 30
0.0
  0
LINE
  5
81
330
1F
100
AcDbEntity
  8
DEFAULT
100
AcDbLine
 10
10.60935803335872
 20
4.308661999999998
 30
0.0
 11
8.63812999999999
 21
4.308661999999998
 31
0.0
  0
ARC
  5
82
330
1F
100
AcDbEntity
  8
DEFAULT
100
AcDbCircle
 10
13.46485399999995
 20
1.441068000000001
 30
0.0
 40
0.015625
100
AcDbArc
 50
0.0
 51
90.0
  0
SPLINE
  5
83
330
1F
100
AcDbEntity
  8
DEFAULT
100
AcDbSpline
210
0.0
220
0.0
230
1.0
 70
     8
 71
     3
 72
     8
 73
     4
 74
     0
 42
0.0000000001
 43
0.0000000001
 40
0.0
 40
0.0
 40
0.0
 40
0.0
 40
1.0
 40
1.0
 40
1.0
 40
1.0
 10
11.87121577335995
 20
3.861587137371998
 30
0.0
 10
14.56744358627168
 20
3.621108403511144
 30
0.0
 10
17.24211037478102
 20
3.167885469616422
 30
0.0
 10
19.88490646845997
 20
2.586168322741003
 30
0.0
  0
SPLINE
  5
84
330
1F
100
AcDbEntity
  8
DEFAULT
100
AcDbSpline
210
0.0
220
0.0
230
1.0
 70
    24
 71
     2
 72
     6
 73
     3
 74
     0
 42
0.0000000001
 43
0.0000000001
 40
0.0
 40
0.0
 40
0.0
 40
1.0
 40
1.0
 40
1.0
 10
13.29839299999998
 20
0.3149609999999967
 30
0.0
 10
13.29839299999998
 20
0.1574804999999984
 30
0.0
 10
13.29839299999998
 20
0.0
 30
0.0
  0
SPLINE
  5
85
330
1F
100
AcDbEntity
  8
DEFAULT
100
AcDbSpline
210
0.0
220
0.0
230
1.0
 70
     8
 71
     3
 72
    10
 73
     6
 74
     0
 42
0.0000000001
 43
0.0000000001
 40
0.0
 40
0.0
 40
0.0
 40
0.0
 40
0.3334081987195
 40
0.6667405702355
 40
1.0
 40
1.0
 40
1.0
 40
1.0
 10
20.05465896712997
 20
1.632709662339991
 30
0.0
 10
20.05501222314001
 20
1.622588450259997
 30
0.0
 10
20.06109582412
 20
1.60216301138
 30
0.0
 10
20.08384742639998
 20
1.580177131319999
 30
0.0
 10
20.10446826097996
 20
1.574803632149994
 30
0.0
 10
20.11459111704994
 20
1.574803632149994
 30
0.0
  0
ARC
  5
86
330
1F
100
AcDbEntity
  8
DEFAULT
100
AcDbCircle
 10
0.4044039999999995
 20
1.441068000000001
 30
0.0
 40
0.015625
100
AcDbArc
 50
90.0
 51
180.0
  0
SPLINE
  5
87
330
1F
100
AcDbEntity
  8
DEFAULT
100
AcDbSpline
210
0.0
220
0.0
230
1.0
 70
     8
 71
     3
 72
    10
 73
     6
 74
     0
 42
0.0000000001
 43
0.0000000001
 40
0.0
 40
0.0
 40
0.0
 40
0.0
 40
0.3415628690301
 40
0.6759514705783
 40
1.0
 40
1.0
 40
1.0
 40
1.0
 10
9.23194693045997
 20
4.227643913922989
 30
0.0
 10
9.23174990894995
 20
4.238039358083995
 30
0.0
 10
9.236562157009985
 20
4.259064678979996
 30
0.0
 10
9.257525461629939
 20
4.282866337741993
 30
0.0
 10
9.277758350719978
 20
4.289386926784999
 30
0.0
 10
9.287618560670012
 20
4.289666319490991
 30
0.0
  0
ARC
  5
88
330
1F
100
AcDbEntity
  8
DEFAULT
100
AcDbCircle
 10
19.09334200000001
 20
1.198538999999997
 30
0.0
 40
0.7499999902752901
100
AcDbArc
 50
32.97175451880226
 51
83.77637330541374
  0
ARC
  5
89
330
1F
100
AcDbEntity
  8
DEFAULT
100
AcDbCircle
 10
1.44598899999994
 20
1.441068000000001
 30
0.0
 40
0.015625
100
AcDbArc
 50
0.0
 51
90.0
  0
ARC
  5
8A
330
1F
100
AcDbEntity
  8
DEFAULT
100
AcDbCircle
 10
19.44693199999995
 20
0.0
 30
0.0
 40
1.279527939310224
100
AcDbArc
 50
15.7620695672927
 51
18.57560333516714
  0
ARC
  5
8B
330
1F
100
AcDbEntity
  8
DEFAULT
100
AcDbCircle
 10
20.672327
 20
0.5448949999999968
 30
0.0
 40
0.2362201456744931
100
AcDbArc
 50
283.2478113805403
 51
359.9999999999999
  0
SPLINE
  5
8C
330
1F
100
AcDbEntity
  8
DEFAULT
100
AcDbSpline
210
0.0
220
0.0
230
1.0
 70
    24
 71
     2
 72
     6
 73
     3
 74
     0
 42
0.0000000001
 43
0.0000000001
 40
0.0
 40
0.0
 40
0.0
 40
1.0
 40
1.0
 40
1.0
 10
20.68708900000001
 20
0.3149609999999967
 30
0.0
 10
20.70677449999999
 20
0.3149609999999967
 30
0.0
 10
20.72645999999997
 20
0.3149609999999967
 30
0.0
  0
SPLINE
  5
8D
330
1F
100
AcDbEntity
  8
DEFAULT
100
AcDbSpline
210
0.0
220
0.0
230
1.0
 70
    24
 71
     2
 72
     6
 73
     3
 74
     0
 42
0.0000000001
 43
0.0000000001
 40
0.0
 40
0.0
 40
0.0
 40
1.0
 40
1.0
 40
1.0
 10
0.3887789999999995
 20
1.441068000000001
 30
0.0
 10
0.3887789999999995
 20
1.360298
 30
0.0
 10
0.3887789999999995
 20
1.279527999999999
 30
0.0
  0
ARC
  5
8E
330
1F
100
AcDbEntity
  8
DEFAULT
100
AcDbCircle
 10
1.339206999999988
 20
1.63480398705731
 30
0.0
 40
0.0599999624739702
100
AcDbArc
 50
270.0
 51
357.1168156066992
  0
SPLINE
  5
8F
330
1F
100
AcDbEntity
  8
DEFAULT
100
AcDbSpline
210
0.0
220
0.0
230
1.0
 70
    24
 71
     2
 72
     6
 73
     3
 74
     0
 42
0.0000000001
 43
0.0000000001
 40
0.0
 40
0.0
 40
0.0
 40
1.0
 40
1.0
 40
1.0
 10
1.399131012276086
 20
1.631785999381719
 30
0.0
 10
1.418876006138049
 20
2.023581499690856
 30
0.0
 10
1.438621000000012
 20
2.415376999999992
 30
0.0
  0
SPLINE
  5
90
330
1F
100
AcDbEntity
  8
DEFAULT
100
AcDbSpline
210
0.0
220
0.0
230
1.0
 70
     8
 71
     3
 72
     9
 73
     5
 74
     0
 42
0.0000000001
 43
0.0000000001
 40
0.0
 40
0.0
 40
0.0
 40
0.0
 40
1.0
 40
2.0
 40
2.0
 40
2.0
 40
2.0
 10
1.438621000000012
 20
2.415376999999992
 30
0.0
 10
1.440952587809193
 20
2.451708179137867
 30
0.0
 10
1.460330404482931
 20
2.524269628192812
 30
0.0
 10
1.516642745364209
 20
2.576963854766205
 30
0.0
 10
1.552244999999971
 20
2.587097999999997
 30
0.0
  0
SPLINE
  5
91
330
1F
100
AcDbEntity
  8
DEFAULT
100
AcDbSpline
210
0.0
220
0.0
230
1.0
 70
     8
 71
     3
 72
     9
 73
     5
 74
     0
 42
0.0000000001
 43
0.0000000001
 40
0.0
 40
0.0
 40
0.0
 40
0.0
 40
1.0
 40
2.0
 40
2.0
 40
2.0
 40
2.0
 10
13.39700820885997
 20
2.798339705936996
 30
0.0
 10
13.40857031175733
 20
2.789806686439277
 30
0.0
 10
13.38662530565136
 20
2.774210389125884
 30
0.0
 10
13.36892557748973
 20
2.77293623354646
 30
0.0
 10
13.35878037292997
 20
2.772304271371993
 30
0.0
  0
SPLINE
  5
92
330
1F
100
AcDbEntity
  8
DEFAULT
100
AcDbSpline
210
0.0
220
0.0
230
1.0
 70
     8
 71
     3
 72
     9
 73
     5
 74
     0
 42
0.0000000001
 43
0.0000000001
 40
0.0
 40
0.0
 40
0.0
 40
0.0
 40
1.0
 40
2.0
 40
2.0
 40
2.0
 40
2.0
 10
13.35878037292997
 20
2.772304271371993
 30
0.0
 10
13.23887326140903
 20
2.764835051950755
 30
0.0
 10
13.00057801483035
 20
2.771281816186629
 30
0.0
 10
12.7574572475429
 20
2.757915190050738
 30
0.0
 10
12.64382049400001
 20
2.798339706023
 30
0.0
  0
SPLINE
  5
93
330
1F
100
AcDbEntity
  8
DEFAULT
100
AcDbSpline
210
0.0
220
0.0
230
1.0
 70
    24
 71
     2
 72
     6
 73
     3
 74
     0
 42
0.0000000001
 43
0.0000000001
 40
0.0
 40
0.0
 40
0.0
 40
1.0
 40
1.0
 40
1.0
 10
0.5269549999999867
 20
1.279527999999999
 30
0.0
 10
0.2634774999999934
 20
1.279527999999999
 30
0.0
 10
0.0
 20
1.279527999999999
 30
0.0
  0
SPLINE
  5
94
330
1F
100
AcDbEntity
  8
DEFAULT
100
AcDbSpline
210
0.0
220
0.0
230
1.0
 70
     8
 71
     3
 72
    11
 73
     7
 74
     0
 42
0.0000000001
 43
0.0000000001
 40
0.0
 40
0.0
 40
0.0
 40
0.0
 40
1.0
 40
2.0
 40
3.0
 40
4.0
 40
4.0
 40
4.0
 40
4.0
 10
12.64382049400001
 20
2.798339706023
 30
0.0
 10
12.38823034935137
 20
2.970974997370789
 30
0.0
 10
11.8653039697549
 20
3.299194294987373
 30
0.0
 10
11.04418180449318
 20
3.727251635542771
 30
0.0
 10
10.19125797117084
 20
4.088726584775003
 30
0.0
 10
9.595117971372247
 20
4.256366617407082
 30
0.0
 10
9.287618546019985
 20
4.289667635103001
 30
0.0
  0
SPLINE
  5
95
330
1F
100
AcDbEntity
  8
DEFAULT
100
AcDbSpline
210
0.0
220
0.0
230
1.0
 70
     8
 71
     3
 72
     8
 73
     4
 74
     0
 42
0.0000000001
 43
0.0000000001
 40
0.0
 40
0.0
 40
0.0
 40
0.0
 40
1.0
 40
1.0
 40
1.0
 40
1.0
 10
13.43114400000002
 20
2.785667000000004
 30
0.0
 10
12.63272420295436
 20
3.439487860998085
 30
0.0
 10
11.7530104558233
 20
4.066708017702254
 30
0.0
 10
10.72953499999994
 20
4.289094999999989
 30
0.0
  0
SPLINE
  5
96
330
1F
100
AcDbEntity
  8
DEFAULT
100
AcDbSpline
210
0.0
220
0.0
230
1.0
 70
    24
 71
     2
 72
     6
 73
     3
 74
     0
 42
0.0000000001
 43
0.0000000001
 40
0.0
 40
0.0
 40
0.0
 40
1.0
 40
1.0
 40
1.0
 10
18.38443299999739
 20
41.28486910150885
 30
0.0
 10
19.44693299999739
 20
41.28486910150885
 30
0.0
 10
20.50943299999739
 20
41.28486910150885
 30
0.0
  0
CIRCLE
  5
97
330
1F
100
AcDbEntity
  8
DEFAULT
100
AcDbCircle
 10
0.0
 20
0.0
 30
0.0
 40
1.0625
  0
ARC
  5
98
330
1F
100
AcDbEntity
  8
DEFAULT
100
AcDbCircle
 10
20.750449
 20
2.707682999999989
 30
0.0
 40
0.0599999500611571
100
AcDbArc
 50
357.9999561960891
 51
76.7746261113896
  0
CIRCLE
  5
99
330
1F
100
AcDbEntity
  8
DEFAULT
100
AcDbCircle
 10
12.01886500000001
 20
0.0
 30
0.0
 40
1.0
  0
ARC
  5
9A
330
1F
100
AcDbEntity
  8
DEFAULT
100
AcDbCircle
 10
4.749004526649401
 20
-65.37724701432583
 30
0.0
 40
70.00000232123381
100
AcDbArc
 50
76.77588180357596
 51
83.00237981336747
  0
ARC
  5
9B
330
1F
100
AcDbEntity
  8
DEFAULT
100
AcDbCircle
 10
9.622130100421373
 20
-25.67519294001684
 30
0.0
 40
29.99999668902039
100
AcDbArc
 50
83.00238018814261
 51
88.12036129384103
  0
SPLINE
  5
9C
330
1F
100
AcDbEntity
  8
DEFAULT
100
AcDbSpline
210
0.0
220
0.0
230
1.0
 70
     8
 71
     3
 72
    10
 73
     6
 74
     0
 42
0.0000000001
 43
0.0000000001
 40
0.0
 40
0.0
 40
0.0
 40
0.0
 40
0.3098884097075
 40
0.6612939512471
 40
1.0
 40
1.0
 40
1.0
 40
1.0
 10
12.44476323607
 20
1.982489443939997
 30
0.0
 10
12.22763796163997
 20
2.056479691899995
 30
0.0
 10
11.75864171793
 20
2.198341545609992
 30
0.0
 10
11.03477287165998
 20
2.356504488399992
 30
0.0
 10
10.52747001131002
 20
2.422190602779992
 30
0.0
 10
10.27768710723001
 20
2.443498356585991
 30
0.0
  0
SPLINE
  5
9D
330
1F
100
AcDbEntity
  8
DEFAULT
100
AcDbSpline
210
0.0
220
0.0
230
1.0
 70
     8
 71
     3
 72
     8
 73
     4
 74
     0
 42
0.0000000001
 43
0.0000000001
 40
0.0
 40
0.0
 40
0.0
 40
0.0
 40
1.0
 40
1.0
 40
1.0
 40
1.0
 10
12.65866368680997
 20
1.575258484239995
 30
0.0
 10
12.66092970493997
 20
1.574957836099998
 30
0.0
 10
12.66320671206995
 20
1.574803805160002
 30
0.0
 10
12.66547361377002
 20
1.574803632299989
 30
0.0
  0
SPLINE
  5
9E
330
1F
100
AcDbEntity
  8
DEFAULT
100
AcDbSpline
210
0.0
220
0.0
230
1.0
 70
     8
 71
     3
 72
    10
 73
     6
 74
     0
 42
0.0000000001
 43
0.0000000001
 40
0.0
 40
0.0
 40
0.0
 40
0.0
 40
0.4051007004553
 40
0.7475947607501
 40
1.0
 40
1.0
 40
1.0
 40
1.0
 10
9.097167364200004
 20
4.227643939370992
 30
0.0
 10
9.097023208359985
 20
4.237904861774993
 30
0.0
 10
9.09397247858999
 20
4.25689137114999
 30
0.0
 10
9.083018186679965
 20
4.280221349089999
 30
0.0
 10
9.068921250619951
 20
4.289363065583998
 30
0.0
 10
9.06253462653001
 20
4.289667634490996
 30
0.0
  0
ARC
  5
9F
330
1F
100
AcDbEntity
  8
DEFAULT
100
AcDbCircle
 10
1.225394999999935
 20
0.5448949999999968
 30
0.0
 40
0.2362201456744931
100
AcDbArc
 50
283.2478113805402
 51
359.9999999999999
  0
SPLINE
  5
A0
330
1F
100
AcDbEntity
  8
DEFAULT
100
AcDbSpline
210
0.0
220
0.0
230
1.0
 70
     8
 71
     3
 72
    10
 73
     6
 74
     0
 42
0.0000000001
 43
0.0000000001
 40
0.0
 40
0.0
 40
0.0
 40
0.0
 40
0.3335870131841
 40
0.8335356046255
 40
1.0
 40
1.0
 40
1.0
 40
1.0
 10
0.4208786359884016
 20
46.44262265539885
 30
0.0
 10
0.4148780398213603
 20
46.45276422530885
 30
0.0
 10
0.4022523092843926
 20
46.47948852438884
 30
0.0
 10
0.3948396359334083
 20
46.51438240623885
 30
0.0
 10
0.3942599272513689
 20
46.53793006610884
 30
0.0
 10
0.3943856528084098
 20
46.54380668675884
 30
0.0
  0
SPLINE
  5
A1
330
1F
100
AcDbEntity
  8
DEFAULT
100
AcDbSpline
210
0.0
220
0.0
230
1.0
 70
     8
 71
     3
 72
    10
 73
     6
 74
     0
 42
0.0000000001
 43
0.0000000001
 40
0.0
 40
0.0
 40
0.0
 40
0.0
 40
0.1429075397063
 40
0.5715247627706
 40
1.0
 40
1.0
 40
1.0
 40
1.0
 10
0.8854793419483826
 20
47.15881012913884
 30
0.0
 10
0.8913579441604043
 20
47.15915469666885
 30
0.0
 10
0.9149300054833702
 20
47.15944744838885
 30
0.0
 10
0.9558899922614046
 20
47.15227905512884
 30
0.0
 10
0.9880302633753786
 20
47.13661968891884
 30
0.0
 10
1.002612777432432
 20
47.12676799212885
 30
0.0
  0
ARC
  5
A2
330
1F
100
AcDbEntity
  8
DEFAULT
100
AcDbCircle
 10
11.71230777049982
 20
1.695055056010403
 30
0.0
 40
0.7499957291095208
100
AcDbArc
 50
126.1124709469598
 51
140.000094432963
  0
SPLINE
  5
A3
330
1F
100
AcDbEntity
  8
DEFAULT
100
AcDbSpline
210
0.0
220
0.0
230
1.0
 70
    24
 71
     2
 72
     6
 73
     3
 74
     0
 42
0.0000000001
 43
0.0000000001
 40
-1.0
 40
-1.0
 40
-1.0
 40
0.0
 40
0.0
 40
0.0
 10
11.13777691529219
 20
2.17714207107818
 30
0.0
 10
11.0004444576461
 20
2.013476035539085
 30
0.0
 10
10.863112
 20
1.849809999999991
 30
0.0
  0
SPLINE
  5
A4
330
1F
100
AcDbEntity
  8
DEFAULT
100
AcDbSpline
210
0.0
220
0.0
230
1.0
 70
     8
 71
     5
 72
    12
 73
     6
 74
     0
 42
0.0000000001
 43
0.0000000001
 40
0.0
 40
0.0
 40
0.0
 40
0.0
 40
0.0
 40
0.0
 40
1.0
 40
1.0
 40
1.0
 40
1.0
 40
1.0
 40
1.0
 10
10.863112
 20
1.849809999999991
 30
0.0
 10
10.85550551895972
 20
1.840744971836983
 30
0.0
 10
10.84789903791955
 20
1.831679943673976
 30
0.0
 10
10.83315513243394
 20
1.824804023785589
 30
0.0
 10
10.82132156621697
 20
1.82480402365708
 30
0.0
 10
10.80948799999999
 20
1.824804023528571
 30
0.0
  0
POLYLINE
  5
A5
330
1F
100
AcDbEntity
  8
DEFAULT
100
AcDb2dPolyline
 66
     1
 10
0.0
 20
0.0
 30
0.0
  0
VERTEX
  5
A7
330
A5
100
AcDbEntity
  8
DEFAULT
100
AcDbVertex
100
AcDb2dVertex
 10
10.80948799999999
 20
1.824804023528571
 30
0.0
  0
VERTEX
  5
A8
330
A5
100
AcDbEntity
  8
DEFAULT
100
AcDbVertex
100
AcDb2dVertex
 10
8.642810317854469
 20
1.824804
 30
0.0
  0
SEQEND
  5
A6
330
A5
100
AcDbEntity
  8
DEFAULT
  0
SPLINE
  5
A9
330
1F
100
AcDbEntity
  8
DEFAULT
100
AcDbSpline
210
0.0
220
0.0
230
1.0
 70
     8
 71
     5
 72
    12
 73
     6
 74
     0
 42
0.0000000001
 43
0.0000000001
 40
-1.0
 40
-1.0
 40
-1.0
 40
-1.0
 40
-1.0
 40
-1.0
 40
0.0
 40
0.0
 40
0.0
 40
0.0
 40
0.0
 40
0.0
 10
8.642810317854469
 20
1.824804
 30
0.0
 10
8.632981934685859
 20
1.824803999893263
 30
0.0
 10
8.623153551517305
 20
1.824803999786539
 30
0.0
 10
8.612525904975996
 20
1.834292244106521
 30
0.0
 10
8.60648836642872
 20
1.842048500978152
 30
0.0
 10
8.600546000000008
 20
1.849876999999992
 30
0.0
  0
SPLINE
  5
AA
330
1F
100
AcDbEntity
  8
DEFAULT
100
AcDbSpline
210
0.0
220
0.0
230
1.0
 70
     8
 71
     3
 72
     9
 73
     5
 74
     0
 42
0.0000000001
 43
0.0000000001
 40
-2.0
 40
-2.0
 40
-2.0
 40
-2.0
 40
-1.0
 40
0.0
 40
0.0
 40
0.0
 40
0.0
 10
8.600546000000008
 20
1.849876999999992
 30
0.0
 10
8.50416942474817
 20
1.976843913625686
 30
0.0
 10
8.370532700381204
 20
2.277656347947797
 30
0.0
 10
8.07322829486202
 20
2.449455917370571
 30
0.0
 10
7.909675637059991
 20
2.444418629514999
 30
0.0
  0
SPLINE
  5
AB
330
1F
100
AcDbEntity
  8
DEFAULT
100
AcDbSpline
210
0.0
220
0.0
230
1.0
 70
    24
 71
     2
 72
     6
 73
     3
 74
     0
 42
0.0000000001
 43
0.0000000001
 40
0.0
 40
0.0
 40
0.0
 40
1.0
 40
1.0
 40
1.0
 10
13.48047899999995
 20
1.441068000000001
 30
0.0
 10
13.48047899999995
 20
0.9929814999999991
 30
0.0
 10
13.48047899999995
 20
0.5448949999999968
 30
0.0
  0
SPLINE
  5
AC
330
1F
100
AcDbEntity
  8
DEFAULT
100
AcDbSpline
210
0.0
220
0.0
230
1.0
 70
    24
 71
     2
 72
     6
 73
     3
 74
     0
 42
0.0000000001
 43
0.0000000001
 40
0.0
 40
0.0
 40
0.0
 40
1.0
 40
1.0
 40
1.0
 10
19.97388699999999
 20
1.279527999999999
 30
0.0
 10
19.71040949999997
 20
1.279527999999999
 30
0.0
 10
19.44693199999995
 20
1.279527999999999
 30
0.0
  0
SPLINE
  5
AD
330
1F
100
AcDbEntity
  8
DEFAULT
100
AcDbSpline
210
0.0
220
0.0
230
1.0
 70
     8
 71
     3
 72
     9
 73
     5
 74
     0
 42
0.0000000001
 43
0.0000000001
 40
0.0
 40
0.0
 40
0.0
 40
0.0
 40
1.0
 40
2.0
 40
2.0
 40
2.0
 40
2.0
 10
1.93693751723697
 20
1.948920408199996
 30
0.0
 10
2.927361758564643
 20
2.081840037062804
 30
0.0
 10
4.914925592350869
 20
2.297689413371472
 30
0.0
 10
6.910882072024208
 20
2.412459896694187
 30
0.0
 10
7.909675637059991
 20
2.444418629514999
 30
0.0
  0
SPLINE
  5
AE
330
1F
100
AcDbEntity
  8
DEFAULT
100
AcDbSpline
210
0.0
220
0.0
230
1.0
 70
     8
 71
     3
 72
     9
 73
     5
 74
     0
 42
0.0000000001
 43
0.0000000001
 40
0.0
 40
0.0
 40
0.0
 40
0.0
 40
1.0
 40
2.0
 40
2.0
 40
2.0
 40
2.0
 10
0.4868669999999611
 20
2.797449999999998
 30
0.0
 10
0.4657263189230321
 20
2.790469611421017
 30
0.0
 10
0.4197647735827559
 20
2.779062543245416
 30
0.0
 10
0.3933066018655609
 20
2.737346548889931
 30
0.0
 10
0.3943429999999353
 20
2.714154999999991
 30
0.0
  0
SPLINE
  5
AF
330
1F
100
AcDbEntity
  8
DEFAULT
100
AcDbSpline
210
0.0
220
0.0
230
1.0
 70
    24
 71
     2
 72
     6
 73
     3
 74
     0
 42
0.0000000001
 43
0.0000000001
 40
0.0
 40
0.0
 40
0.0
 40
1.0
 40
1.0
 40
1.0
 10
0.3943429999999353
 20
2.714154999999991
 30
0.0
 10
0.4185204999999428
 20
2.173133499999992
 30
0.0
 10
0.4426979999999503
 20
1.632111999999992
 30
0.0
  0
ARC
  5
B0
330
1F
100
AcDbEntity
  8
DEFAULT
100
AcDbCircle
 10
9.92692024416715
 20
1.877652713152287
 30
0.0
 40
0.0704776720462187
100
AcDbArc
 50
311.4208952918136
 51
336.7301367228021
  0
SPLINE
  5
B1
330
1F
100
AcDbEntity
  8
DEFAULT
100
AcDbSpline
210
0.0
220
0.0
230
1.0
 70
     8
 71
     3
 72
    14
 73
    10
 74
     0
 42
0.0000000001
 43
0.0000000001
 40
0.0
 40
0.0
 40
0.0
 40
0.0
 40
1.0
 40
2.0
 40
3.0
 40
4.0
 40
5.0
 40
6.0
 40
7.0
 40
7.0
 40
7.0
 40
7.0
 10
9.991664861020013
 20
1.849809637790003
 30
0.0
 10
10.00483915016105
 20
1.880444339296545
 30
0.0
 10
10.0204786211321
 20
1.945196222786706
 30
0.0
 10
10.04590213758189
 20
2.041594192016959
 30
0.0
 10
10.07094168139463
 20
2.138110943301072
 30
0.0
 10
10.09555279777237
 20
2.234882391560603
 30
0.0
 10
10.13141011102419
 20
2.327965604747689
 30
0.0
 10
10.18115428561151
 20
2.41568960462962
 30
0.0
 10
10.2433906002579
 20
2.451339779670235
 30
0.0
 10
10.27768700000001
 20
2.443497999999991
 30
0.0
  0
SPLINE
  5
B2
330
1F
100
AcDbEntity
  8
DEFAULT
100
AcDbSpline
210
0.0
220
0.0
230
1.0
 70
    24
 71
     2
 72
     6
 73
     3
 74
     0
 42
0.0000000001
 43
0.0000000001
 40
0.0
 40
0.0
 40
0.0
 40
1.0
 40
1.0
 40
1.0
 10
1.279527999997413
 20
33.52994110150884
 30
0.0
 10
1.279527999997413
 20
33.38229860150884
 30
0.0
 10
1.279527999997413
 20
33.23465610150885
 30
0.0
  0
SPLINE
  5
B3
330
1F
100
AcDbEntity
  8
DEFAULT
100
AcDbSpline
210
0.0
220
0.0
230
1.0
 70
    24
 71
     2
 72
     6
 73
     3
 74
     0
 42
0.0000000001
 43
0.0000000001
 40
0.0
 40
0.0
 40
0.0
 40
1.0
 40
1.0
 40
1.0
 10
10.95636499999739
 20
49.54176510150884
 30
0.0
 10
11.52333599999739
 20
49.54176510150884
 30
0.0
 10
12.09030699999738
 20
49.54176510150884
 30
0.0
  0
ARC
  5
B4
330
1F
100
AcDbEntity
  8
DEFAULT
100
AcDbCircle
 10
-1.220472000002587
 20
46.16732410150885
 30
0.0
 40
0.0590555000000004
100
AcDbArc
 50
90.0
 51
180.0
  0
ARC
  5
B5
330
1F
100
AcDbEntity
  8
DEFAULT
100
AcDbCircle
 10
1.043306999997412
 20
47.36812010150885
 30
0.0
 40
0.2362210042417925
100
AcDbArc
 50
0.0
 51
85.33957013679564
  0
SPLINE
  5
B6
330
1F
100
AcDbEntity
  8
DEFAULT
100
AcDbSpline
210
0.0
220
0.0
230
1.0
 70
     8
 71
     3
 72
    10
 73
     6
 74
     0
 42
0.0000000001
 43
0.0000000001
 40
0.0
 40
0.0
 40
0.0
 40
0.0
 40
0.3333954294379
 40
0.6666145814545
 40
1.0
 40
1.0
 40
1.0
 40
1.0
 10
0.4160101829353948
 20
46.62820747530884
 30
0.0
 10
0.4462247379643713
 20
46.68606056151884
 30
0.0
 10
0.5123511084964321
 20
46.79885850722884
 30
0.0
 10
0.6275864772353543
 20
46.95746675343885
 30
0.0
 10
0.7144275407723626
 20
47.05521227629885
 30
0.0
 10
0.7601107495363522
 20
47.10182437295884
 30
0.0
  0
SPLINE
  5
B7
330
1F
100
AcDbEntity
  8
DEFAULT
100
AcDbSpline
210
0.0
220
0.0
230
1.0
 70
     8
 71
     3
 72
     9
 73
     5
 74
     0
 42
0.0000000001
 43
0.0000000001
 40
0.0
 40
0.0
 40
0.0
 40
0.0
 40
0.7494677026309
 40
1.0
 40
1.0
 40
1.0
 40
1.0
 10
0.7601107495363522
 20
47.10182437295884
 30
0.0
 10
0.7723649741283793
 20
47.11431565236884
 30
0.0
 10
0.7911296880903933
 20
47.12878865473884
 30
0.0
 10
0.8120042105443872
 20
47.13948265694884
 30
0.0
 10
0.8173443800243945
 20
47.14191594201884
 30
0.0
  0
SPLINE
  5
B8
330
1F
100
AcDbEntity
  8
DEFAULT
100
AcDbSpline
210
0.0
220
0.0
230
1.0
 70
    24
 71
     2
 72
     6
 73
     3
 74
     0
 42
0.0000000001
 43
0.0000000001
 40
0.0
 40
0.0
 40
0.0
 40
1.0
 40
1.0
 40
1.0
 10
13.44987399999741
 20
50.60819410150886
 30
0.0
 10
13.0514729999974
 20
49.20945960150885
 30
0.0
 10
12.65307199999739
 20
47.81072510150885
 30
0.0
  0
ARC
  5
B9
330
1F
100
AcDbEntity
  8
DEFAULT
100
AcDbCircle
 10
12.94406199999742
 20
50.52524610150884
 30
0.0
 40
0.5364170421116077
100
AcDbArc
 50
27.70658455023263
 51
116.21892342107
  0
SPLINE
  5
BA
330
1F
100
AcDbEntity
  8
DEFAULT
100
AcDbSpline
210
0.0
220
0.0
230
1.0
 70
    24
 71
     2
 72
     6
 73
     3
 74
     0
 42
0.0000000001
 43
0.0000000001
 40
0.0
 40
0.0
 40
0.0
 40
1.0
 40
1.0
 40
1.0
 10
10.79839499999741
 20
29.68383010150885
 30
0.0
 10
11.6890589999974
 20
29.68383010150885
 30
0.0
 10
12.57972299999739
 20
29.68383010150885
 30
0.0
  0
SPLINE
  5
BB
330
1F
100
AcDbEntity
  8
DEFAULT
100
AcDbSpline
210
0.0
220
0.0
230
1.0
 70
    24
 71
     2
 72
     6
 73
     3
 74
     0
 42
0.0000000001
 43
0.0000000001
 40
0.0
 40
0.0
 40
0.0
 40
1.0
 40
1.0
 40
1.0
 10
10.597129
 20
10.941734
 30
0.0
 10
9.622128999999973
 20
10.941734
 30
0.0
 10
8.64712899999995
 20
10.941734
 30
0.0
  0
SPLINE
  5
BC
330
1F
100
AcDbEntity
  8
DEFAULT
100
AcDbSpline
210
0.0
220
0.0
230
1.0
 70
    24
 71
     2
 72
     6
 73
     3
 74
     0
 42
0.0000000001
 43
0.0000000001
 40
0.0
 40
0.0
 40
0.0
 40
1.0
 40
1.0
 40
1.0
 10
0.5608569999973838
 20
34.37639710150884
 30
0.0
 10
-0.329807000002603
 20
34.37639710150884
 30
0.0
 10
-1.22047100000259
 20
34.37639710150884
 30
0.0
  0
SPLINE
  5
BD
330
1F
100
AcDbEntity
  8
DEFAULT
100
AcDbSpline
210
0.0
220
0.0
230
1.0
 70
    24
 71
     2
 72
     6
 73
     3
 74
     0
 42
0.0000000001
 43
0.0000000001
 40
0.0
 40
0.0
 40
0.0
 40
1.0
 40
1.0
 40
1.0
 10
10.73933799999736
 20
51.27328610150884
 30
0.0
 10
10.73933799999736
 20
51.12564410150884
 30
0.0
 10
10.73933799999736
 20
50.97800210150884
 30
0.0
  0
SPLINE
  5
BE
330
1F
100
AcDbEntity
  8
DEFAULT
100
AcDbSpline
210
0.0
220
0.0
230
1.0
 70
     8
 71
     3
 72
     9
 73
     5
 74
     0
 42
0.0000000001
 43
0.0000000001
 40
0.0
 40
0.0
 40
0.0
 40
0.0
 40
0.5003465925173
 40
1.0
 40
1.0
 40
1.0
 40
1.0
 10
0.8854610831804166
 20
33.44396728568886
 30
0.0
 10
0.8737108121313781
 20
33.44465712360885
 30
0.0
 10
0.8503505918404244
 20
33.44820273438884
 30
0.0
 10
0.8280568671143556
 20
33.45598061856884
 30
0.0
 10
0.8173604801473857
 20
33.46085329612885
 30
0.0
  0
SPLINE
  5
BF
330
1F
100
AcDbEntity
  8
DEFAULT
100
AcDbSpline
210
0.0
220
0.0
230
1.0
 70
     8
 71
     3
 72
     8
 73
     4
 74
     0
 42
0.0000000001
 43
0.0000000001
 40
0.0
 40
0.0
 40
0.0
 40
0.0
 40
1.0
 40
1.0
 40
1.0
 40
1.0
 10
12.79444576938738
 20
51.01202248502885
 30
0.0
 10
13.00372462418028
 20
50.97474025788095
 30
0.0
 10
13.21246997806259
 20
50.91173748132498
 30
0.0
 10
13.39455264716742
 20
50.80149493538885
 30
0.0
  0
SPLINE
  5
C0
330
1F
100
AcDbEntity
  8
DEFAULT
100
AcDbSpline
210
0.0
220
0.0
230
1.0
 70
    24
 71
     2
 72
     6
 73
     3
 74
     0
 42
0.0000000001
 43
0.0000000001
 40
0.0
 40
0.0
 40
0.0
 40
1.0
 40
1.0
 40
1.0
 10
13.29729099999736
 20
50.07249010150885
 30
0.0
 10
13.29784199999739
 20
50.07249010150885
 30
0.0
 10
13.29839299999742
 20
50.07249010150885
 30
0.0
  0
SPLINE
  5
C1
330
1F
100
AcDbEntity
  8
DEFAULT
100
AcDbSpline
210
0.0
220
0.0
230
1.0
 70
    24
 71
     2
 72
     6
 73
     3
 74
     0
 42
0.0000000001
 43
0.0000000001
 40
0.0
 40
0.0
 40
0.0
 40
1.0
 40
1.0
 40
1.0
 10
10.95636499999739
 20
31.06101110150884
 30
0.0
 10
11.52333599999739
 20
31.06101110150884
 30
0.0
 10
12.09030699999738
 20
31.06101110150884
 30
0.0
  0
SPLINE
  5
C2
330
1F
100
AcDbEntity
  8
DEFAULT
100
AcDbSpline
210
0.0
220
0.0
230
1.0
 70
     8
 71
     3
 72
     8
 73
     4
 74
     0
 42
0.0000000001
 43
0.0000000001
 40
0.0
 40
0.0
 40
0.0
 40
0.0
 40
1.0
 40
1.0
 40
1.0
 40
1.0
 10
20.62396429275736
 20
39.84727924113885
 30
0.0
 10
20.61845012235739
 20
39.84659572721885
 30
0.0
 10
20.61291178416741
 20
39.84615652462885
 30
0.0
 10
20.60737454672739
 20
39.84596648527885
 30
0.0
  0
SPLINE
  5
C3
330
1F
100
AcDbEntity
  8
DEFAULT
100
AcDbSpline
210
0.0
220
0.0
230
1.0
 70
    24
 71
     2
 72
     6
 73
     3
 74
     0
 42
0.0000000001
 43
0.0000000001
 40
0.0
 40
0.0
 40
0.0
 40
1.0
 40
1.0
 40
1.0
 10
0.5269549999974288
 20
33.62332710150885
 30
0.0
 10
-0.3762865000026068
 20
33.62332710150885
 30
0.0
 10
-1.279528000002642
 20
33.62332710150885
 30
0.0
  0
SPLINE
  5
C4
330
1F
100
AcDbEntity
  8
DEFAULT
100
AcDbSpline
210
0.0
220
0.0
230
1.0
 70
    24
 71
     2
 72
     6
 73
     3
 74
     0
 42
0.0000000001
 43
0.0000000001
 40
0.0
 40
0.0
 40
0.0
 40
1.0
 40
1.0
 40
1.0
 10
18.38443299999739
 20
39.31790810150885
 30
0.0
 10
19.44693299999739
 20
39.31790810150885
 30
0.0
 10
20.50943299999739
 20
39.31790810150885
 30
0.0
  0
SPLINE
  5
C5
330
1F
100
AcDbEntity
  8
DEFAULT
100
AcDbSpline
210
0.0
220
0.0
230
1.0
 70
    24
 71
     2
 72
     6
 73
     3
 74
     0
 42
0.0000000001
 43
0.0000000001
 40
0.0
 40
0.0
 40
0.0
 40
1.0
 40
1.0
 40
1.0
 10
-1.062500000002615
 20
45.63659910150885
 30
0.0
 10
-0.0000000000026148
 20
45.63659910150885
 30
0.0
 10
1.062499999997385
 20
45.63659910150885
 30
0.0
  0
SPLINE
  5
C6
330
1F
100
AcDbEntity
  8
DEFAULT
100
AcDbSpline
210
0.0
220
0.0
230
1.0
 70
    24
 71
     2
 72
     6
 73
     3
 74
     0
 42
0.0000000001
 43
0.0000000001
 40
0.0
 40
0.0
 40
0.0
 40
1.0
 40
1.0
 40
1.0
 10
12.54581999999738
 20
29.71816010150884
 30
0.0
 10
11.64257899999737
 20
29.71816010150884
 30
0.0
 10
10.73933799999736
 20
29.71816010150884
 30
0.0
  0
ARC
  5
C7
330
1F
100
AcDbEntity
  8
DEFAULT
100
AcDbCircle
 10
20.66740499999742
 20
40.75414410150884
 30
0.0
 40
0.0590553617749403
100
AcDbArc
 50
323.0129022831764
 51
0.0
  0
SPLINE
  5
C8
330
1F
100
AcDbEntity
  8
DEFAULT
100
AcDbSpline
210
0.0
220
0.0
230
1.0
 70
    24
 71
     2
 72
     6
 73
     3
 74
     0
 42
0.0000000001
 43
0.0000000001
 40
0.0
 40
0.0
 40
0.0
 40
1.0
 40
1.0
 40
1.0
 10
0.5269549999974288
 20
46.97945010150885
 30
0.0
 10
-0.3762865000026068
 20
46.97945010150885
 30
0.0
 10
-1.279528000002642
 20
46.97945010150885
 30
0.0
  0
ARC
  5
C9
330
1F
100
AcDbEntity
  8
DEFAULT
100
AcDbCircle
 10
1.220471999997358
 20
47.07283510150884
 30
0.0
 40
0.0590554617686651
100
AcDbArc
 50
319.6785243044491
 51
0.0
  0
SPLINE
  5
CA
330
1F
100
AcDbEntity
  8
DEFAULT
100
AcDbSpline
210
0.0
220
0.0
230
1.0
 70
     8
 71
     3
 72
     9
 73
     5
 74
     0
 42
0.0000000001
 43
0.0000000001
 40
0.0
 40
0.0
 40
0.0
 40
0.0
 40
0.3275075815359
 40
1.0
 40
1.0
 40
1.0
 40
1.0
 10
12.61944597546739
 20
29.65273507539885
 30
0.0
 10
12.61555617579739
 20
29.65714918260885
 30
0.0
 10
12.60430272850738
 20
29.67118276200885
 30
0.0
 10
12.59511595896743
 20
29.68675625495885
 30
0.0
 10
12.59000004702739
 20
29.69769443179885
 30
0.0
  0
SPLINE
  5
CB
330
1F
100
AcDbEntity
  8
DEFAULT
100
AcDbSpline
210
0.0
220
0.0
230
1.0
 70
     8
 71
     3
 72
     8
 73
     4
 74
     0
 42
0.0000000001
 43
0.0000000001
 40
0.0
 40
0.0
 40
0.0
 40
0.0
 40
1.0
 40
1.0
 40
1.0
 40
1.0
 10
12.59000004702739
 20
29.69769443179885
 30
0.0
 10
12.58764591356237
 20
29.70272773346747
 30
0.0
 10
12.58551668038416
 20
29.70785952281209
 30
0.0
 10
12.5836248447024
 20
29.71306729055885
 30
0.0
  0
SPLINE
  5
CC
330
1F
100
AcDbEntity
  8
DEFAULT
100
AcDbSpline
210
0.0
220
0.0
230
1.0
 70
    24
 71
     2
 72
     6
 73
     3
 74
     0
 42
0.0000000001
 43
0.0000000001
 40
0.0
 40
0.0
 40
0.0
 40
1.0
 40
1.0
 40
1.0
 10
12.5836248447024
 20
29.71306729055885
 30
0.0
 10
12.0837889223499
 20
31.07882469603385
 30
0.0
 10
11.58395299999739
 20
32.44458210150884
 30
0.0
  0
SPLINE
  5
CD
330
1F
100
AcDbEntity
  8
DEFAULT
100
AcDbSpline
210
0.0
220
0.0
230
1.0
 70
     8
 71
     3
 72
    10
 73
     6
 74
     0
 42
0.0000000001
 43
0.0000000001
 40
0.0
 40
0.0
 40
0.0
 40
0.0
 40
0.3745727208191
 40
0.7379583218834
 40
1.0
 40
1.0
 40
1.0
 40
1.0
 10
9.235800200389974
 20
4.007722273420001
 30
0.0
 10
9.236090181010013
 20
3.99243018450899
 30
0.0
 10
9.24416118749997
 20
3.961870459536996
 30
0.0
 10
9.273796107120006
 20
3.931178062312
 30
0.0
 10
9.29905704097996
 20
3.922819848800998
 30
0.0
 10
9.309783052809962
 20
3.921513614136003
 30
0.0
  0
SPLINE
  5
CE
330
1F
100
AcDbEntity
  8
DEFAULT
100
AcDbSpline
210
0.0
220
0.0
230
1.0
 70
    24
 71
     2
 72
     6
 73
     3
 74
     0
 42
0.0000000001
 43
0.0000000001
 40
0.0
 40
0.0
 40
0.0
 40
1.0
 40
1.0
 40
1.0
 10
10.73933799999736
 20
50.07249010150885
 30
0.0
 10
10.73933799999736
 20
49.92484760150884
 30
0.0
 10
10.73933799999736
 20
49.77720510150884
 30
0.0
  0
ARC
  5
CF
330
1F
100
AcDbEntity
  8
DEFAULT
100
AcDbCircle
 10
8.735408842605523
 20
-2.362790137815878
 30
0.0
 40
3.647213306725817
100
AcDbArc
 50
91.82986493507416
 51
100.6689780756198
  0
LINE
  5
D0
330
1F
100
AcDbEntity
  8
DEFAULT
100
AcDbLine
 10
8.060183584439983
 20
1.221374444829991
 30
0.0
 11
7.754222220599843
 21
1.163733999999991
 31
0.0
  0
SPLINE
  5
D1
330
1F
100
AcDbEntity
  8
DEFAULT
100
AcDbSpline
210
0.0
220
0.0
230
1.0
 70
    24
 71
     2
 72
     6
 73
     3
 74
     0
 42
0.0000000001
 43
0.0000000001
 40
0.0
 40
0.0
 40
0.0
 40
1.0
 40
1.0
 40
1.0
 10
12.407645
 20
1.430233000000001
 30
0.0
 10
12.29011199999997
 20
1.460414499999999
 30
0.0
 10
12.17257899999993
 20
1.490595999999996
 30
0.0
  0
SPLINE
  5
D2
330
1F
100
AcDbEntity
  8
DEFAULT
100
AcDbSpline
210
0.0
220
0.0
230
1.0
 70
    24
 71
     2
 72
     6
 73
     3
 74
     0
 42
0.0000000001
 43
0.0000000001
 40
1.0
 40
1.0
 40
1.0
 40
2.0
 40
2.0
 40
2.0
 10
12.17257899999993
 20
1.490595999999996
 30
0.0
 10
12.04554199999995
 20
1.523238999999997
 30
0.0
 10
11.91850499999998
 20
1.555881999999997
 30
0.0
  0
SPLINE
  5
D3
330
1F
100
AcDbEntity
  8
DEFAULT
100
AcDbSpline
210
0.0
220
0.0
230
1.0
 70
    24
 71
     2
 72
     6
 73
     3
 74
     0
 42
0.0000000001
 43
0.0000000001
 40
2.0
 40
2.0
 40
2.0
 40
3.0
 40
3.0
 40
3.0
 10
11.91850499999998
 20
1.555881999999997
 30
0.0
 10
11.79838749999999
 20
1.586403999999995
 30
0.0
 10
11.67827
 20
1.616925999999992
 30
0.0
  0
SPLINE
  5
D4
330
1F
100
AcDbEntity
  8
DEFAULT
100
AcDbSpline
210
0.0
220
0.0
230
1.0
 70
    24
 71
     2
 72
     6
 73
     3
 74
     0
 42
0.0000000001
 43
0.0000000001
 40
3.0
 40
3.0
 40
3.0
 40
4.0
 40
4.0
 40
4.0
 10
11.67827
 20
1.616925999999992
 30
0.0
 10
11.56470999999999
 20
1.644906499999991
 30
0.0
 10
11.45114999999998
 20
1.672886999999989
 30
0.0
  0
SPLINE
  5
D5
330
1F
100
AcDbEntity
  8
DEFAULT
100
AcDbSpline
210
0.0
220
0.0
230
1.0
 70
    24
 71
     2
 72
     6
 73
     3
 74
     0
 42
0.0000000001
 43
0.0000000001
 40
4.0
 40
4.0
 40
4.0
 40
5.0
 40
5.0
 40
5.0
 10
11.45114999999998
 20
1.672886999999989
 30
0.0
 10
11.34376999999998
 20
1.697690999999992
 30
0.0
 10
11.23638999999997
 20
1.722494999999995
 30
0.0
  0
SPLINE
  5
D6
330
1F
100
AcDbEntity
  8
DEFAULT
100
AcDbSpline
210
0.0
220
0.0
230
1.0
 70
    24
 71
     2
 72
     6
 73
     3
 74
     0
 42
0.0000000001
 43
0.0000000001
 40
5.0
 40
5.0
 40
5.0
 40
6.0
 40
6.0
 40
6.0
 10
11.23638999999997
 20
1.722494999999995
 30
0.0
 10
11.22108949999998
 20
1.725825499999992
 30
0.0
 10
11.20578899999998
 20
1.729155999999989
 30
0.0
  0
ARC
  5
D7
330
1F
100
AcDbEntity
  8
DEFAULT
100
AcDbCircle
 10
8.547278516821223
 20
-10.48418723611678
 30
0.0
 40
12.49933722212385
100
AcDbArc
 50
77.7198360494219
 51
79.19955087541652
  0
LINE
  5
D8
330
1F
100
AcDbEntity
  8
DEFAULT
100
AcDbLine
 10
10.88943599999993
 20
1.793734000000001
 30
0.0
 11
8.335120140793492
 21
1.793733999999986
 31
0.0
  0
LINE
  5
D9
330
1F
100
AcDbEntity
  8
DEFAULT
100
AcDbLine
 10
8.335120140793492
 20
1.793733999999986
 30
0.0
 11
8.007866999999976
 21
1.722494999999995
 31
0.0
  0
SPLINE
  5
DA
330
1F
100
AcDbEntity
  8
DEFAULT
100
AcDbSpline
210
0.0
220
0.0
230
1.0
 70
    24
 71
     2
 72
     6
 73
     3
 74
     0
 42
0.0000000001
 43
0.0000000001
 40
1.0
 40
1.0
 40
1.0
 40
2.0
 40
2.0
 40
2.0
 10
8.007866999999976
 20
1.722494999999995
 30
0.0
 10
7.90048699999997
 20
1.697690999999992
 30
0.0
 10
7.793106999999964
 20
1.672886999999989
 30
0.0
  0
SPLINE
  5
DB
330
1F
100
AcDbEntity
  8
DEFAULT
100
AcDbSpline
210
0.0
220
0.0
230
1.0
 70
    24
 71
     2
 72
     6
 73
     3
 74
     0
 42
0.0000000001
 43
0.0000000001
 40
2.0
 40
2.0
 40
2.0
 40
3.0
 40
3.0
 40
3.0
 10
7.793106999999964
 20
1.672886999999989
 30
0.0
 10
7.679547499999956
 20
1.644906499999991
 30
0.0
 10
7.565987999999948
 20
1.616925999999992
 30
0.0
  0
SPLINE
  5
DC
330
1F
100
AcDbEntity
  8
DEFAULT
100
AcDbSpline
210
0.0
220
0.0
230
1.0
 70
    24
 71
     2
 72
     6
 73
     3
 74
     0
 42
0.0000000001
 43
0.0000000001
 40
3.0
 40
3.0
 40
3.0
 40
4.0
 40
4.0
 40
4.0
 10
7.565987999999948
 20
1.616925999999992
 30
0.0
 10
7.445869999999957
 20
1.586403999999995
 30
0.0
 10
7.325751999999966
 20
1.555881999999997
 30
0.0
  0
SPLINE
  5
DD
330
1F
100
AcDbEntity
  8
DEFAULT
100
AcDbSpline
210
0.0
220
0.0
230
1.0
 70
    24
 71
     2
 72
     6
 73
     3
 74
     0
 42
0.0000000001
 43
0.0000000001
 40
4.0
 40
4.0
 40
4.0
 40
5.0
 40
5.0
 40
5.0
 10
7.325751999999966
 20
1.555881999999997
 30
0.0
 10
7.198715499999963
 20
1.523238999999997
 30
0.0
 10
7.071678999999961
 20
1.490595999999996
 30
0.0
  0
SPLINE
  5
DE
330
1F
100
AcDbEntity
  8
DEFAULT
100
AcDbSpline
210
0.0
220
0.0
230
1.0
 70
    24
 71
     2
 72
     6
 73
     3
 74
     0
 42
0.0000000001
 43
0.0000000001
 40
5.0
 40
5.0
 40
5.0
 40
6.0
 40
6.0
 40
6.0
 10
7.071678999999961
 20
1.490595999999996
 30
0.0
 10
6.937472499999956
 20
1.456132999999994
 30
0.0
 10
6.803265999999951
 20
1.421669999999992
 30
0.0
  0
SPLINE
  5
DF
330
1F
100
AcDbEntity
  8
DEFAULT
100
AcDbSpline
210
0.0
220
0.0
230
1.0
 70
    24
 71
     2
 72
     6
 73
     3
 74
     0
 42
0.0000000001
 43
0.0000000001
 40
6.0
 40
6.0
 40
6.0
 40
7.0
 40
7.0
 40
7.0
 10
6.803265999999951
 20
1.421669999999992
 30
0.0
 10
6.661699499999969
 20
1.38560249999999
 30
0.0
 10
6.520132999999987
 20
1.349534999999989
 30
0.0
  0
SPLINE
  5
E0
330
1F
100
AcDbEntity
  8
DEFAULT
100
AcDbSpline
210
0.0
220
0.0
230
1.0
 70
    24
 71
     2
 72
     6
 73
     3
 74
     0
 42
0.0000000001
 43
0.0000000001
 40
7.0
 40
7.0
 40
7.0
 40
8.0
 40
8.0
 40
8.0
 10
6.520132999999987
 20
1.349534999999989
 30
0.0
 10
6.381374999999991
 20
1.314604999999993
 30
0.0
 10
6.242616999999996
 20
1.279674999999997
 30
0.0
  0
LINE
  5
E1
330
1F
100
AcDbEntity
  8
DEFAULT
100
AcDbLine
 10
6.242616999999996
 20
1.279674999999997
 30
0.0
 11
5.782046107414772
 21
1.163733999999991
 31
0.0
  0
SPLINE
  5
E2
330
1F
100
AcDbEntity
  8
DEFAULT
100
AcDbSpline
210
0.0
220
0.0
230
1.0
 70
    24
 71
     2
 72
     6
 73
     3
 74
     0
 42
0.0000000001
 43
0.0000000001
 40
0.0
 40
0.0
 40
0.0
 40
1.0
 40
1.0
 40
1.0
 10
10.92537699999997
 20
0.6637339999999909
 30
0.0
 10
7.593724999999978
 20
0.6637339999999909
 30
0.0
 10
4.262072999999987
 20
0.6637339999999909
 30
0.0
  0
ARC
  5
E3
330
1F
100
AcDbEntity
  8
DEFAULT
100
AcDbCircle
 10
0.9251969999974108
 20
46.62008010150885
 30
0.0
 40
0.5364169213292546
100
AcDbArc
 50
25.95700397527346
 51
89.76415820922506
  0
SPLINE
  5
E4
330
1F
100
AcDbEntity
  8
DEFAULT
100
AcDbSpline
210
0.0
220
0.0
230
1.0
 70
     8
 71
     3
 72
     9
 73
     5
 74
     0
 42
0.0000000001
 43
0.0000000001
 40
0.0
 40
0.0
 40
0.0
 40
0.0
 40
0.4997935423101
 40
1.0
 40
1.0
 40
1.0
 40
1.0
 10
0.8173443800243945
 20
47.14191594201884
 30
0.0
 10
0.8280487431053984
 20
47.14679345890885
 30
0.0
 10
0.8503540775453757
 20
47.15457558282884
 30
0.0
 10
0.8737264005533802
 20
47.15812124394884
 30
0.0
 10
0.8854793419483826
 20
47.15881012913884
 30
0.0
  0
SPLINE
  5
E5
330
1F
100
AcDbEntity
  8
DEFAULT
100
AcDbSpline
210
0.0
220
0.0
230
1.0
 70
    24
 71
     2
 72
     6
 73
     3
 74
     0
 42
0.0000000001
 43
0.0000000001
 40
0.0
 40
0.0
 40
0.0
 40
1.0
 40
1.0
 40
1.0
 10
-1.062500000002615
 20
47.60356010150885
 30
0.0
 10
-0.0000000000026148
 20
47.60356010150885
 30
0.0
 10
1.062499999997385
 20
47.60356010150885
 30
0.0
  0
SPLINE
  5
E6
330
1F
100
AcDbEntity
  8
DEFAULT
100
AcDbSpline
210
0.0
220
0.0
230
1.0
 70
    24
 71
     2
 72
     6
 73
     3
 74
     0
 42
0.0000000001
 43
0.0000000001
 40
0.0
 40
0.0
 40
0.0
 40
1.0
 40
1.0
 40
1.0
 10
-1.279528000002642
 20
47.36812010150885
 30
0.0
 10
-1.279528000002642
 20
47.22047760150885
 30
0.0
 10
-1.279528000002642
 20
47.07283510150884
 30
0.0
  0
SPLINE
  5
E7
330
1F
100
AcDbEntity
  8
DEFAULT
100
AcDbSpline
210
0.0
220
0.0
230
1.0
 70
    24
 71
     2
 72
     6
 73
     3
 74
     0
 42
0.0000000001
 43
0.0000000001
 40
0.0
 40
0.0
 40
0.0
 40
1.0
 40
1.0
 40
1.0
 10
-0.0000000000026148
 20
46.26070910150885
 30
0.0
 10
-0.0000000000026148
 20
46.62007960150885
 30
0.0
 10
-0.0000000000026148
 20
46.97945010150885
 30
0.0
  0
SPLINE
  5
E8
330
1F
100
AcDbEntity
  8
DEFAULT
100
AcDbSpline
210
0.0
220
0.0
230
1.0
 70
     8
 71
     3
 72
    10
 73
     6
 74
     0
 42
0.0000000001
 43
0.0000000001
 40
0.0
 40
0.0
 40
0.0
 40
0.0
 40
0.143116075702
 40
0.5720464325551
 40
1.0
 40
1.0
 40
1.0
 40
1.0
 10
20.69169423319738
 20
40.73362674201884
 30
0.0
 10
20.69686055974739
 20
40.73079675639885
 30
0.0
 10
20.7169838950374
 20
40.71852671172884
 30
0.0
 10
20.7478797240974
 20
40.69070112896885
 30
0.0
 10
20.7668187722274
 20
40.66056753607884
 30
0.0
 10
20.77405604025739
 20
40.64448945353885
 30
0.0
  0
ARC
  5
E9
330
1F
100
AcDbEntity
  8
DEFAULT
100
AcDbCircle
 10
10.597129
 20
10.84173399999999
 30
0.0
 40
0.1000000000000005
100
AcDbArc
 50
0.0
 51
90.0
  0
ARC
  5
EA
330
1F
100
AcDbEntity
  8
DEFAULT
100
AcDbCircle
 10
12.94406199999742
 20
30.07753110150885
 30
0.0
 40
0.5364179440413006
100
AcDbArc
 50
243.7810279463983
 51
332.2933208849743
  0
ARC
  5
EB
330
1F
100
AcDbEntity
  8
DEFAULT
100
AcDbCircle
 10
13.23933799999736
 20
30.53028610150885
 30
0.0
 40
0.0590549402928861
100
AcDbArc
 50
356.8209233279758
 51
0.0
  0
ARC
  5
EC
330
1F
100
AcDbEntity
  8
DEFAULT
100
AcDbCircle
 10
0.9251969999974108
 20
46.62008010150885
 30
0.0
 40
0.5364174957656088
100
AcDbArc
 50
198.3405085450712
 51
262.0320249683487
  0
SPLINE
  5
ED
330
1F
100
AcDbEntity
  8
DEFAULT
100
AcDbSpline
210
0.0
220
0.0
230
1.0
 70
    24
 71
     2
 72
     6
 73
     3
 74
     0
 42
0.0000000001
 43
0.0000000001
 40
0.0
 40
0.0
 40
0.0
 40
1.0
 40
1.0
 40
1.0
 10
1.279527999997413
 20
47.36812010150885
 30
0.0
 10
1.279527999997413
 20
47.22047760150885
 30
0.0
 10
1.279527999997413
 20
47.07283510150884
 30
0.0
  0
SPLINE
  5
EE
330
1F
100
AcDbEntity
  8
DEFAULT
100
AcDbSpline
210
0.0
220
0.0
230
1.0
 70
    24
 71
     2
 72
     6
 73
     3
 74
     0
 42
0.0000000001
 43
0.0000000001
 40
0.0
 40
0.0
 40
0.0
 40
1.0
 40
1.0
 40
1.0
 10
1.948372999999947
 20
19.73399936806274
 30
0.0
 10
1.969268970217286
 20
19.70055884945253
 30
0.0
 10
1.990164940434624
 20
19.66711833084231
 30
0.0
  0
ARC
  5
EF
330
1F
100
AcDbEntity
  8
DEFAULT
100
AcDbCircle
 10
2.185216126712589
 20
19.78899929782462
 30
0.0
 40
0.2299998595238275
100
AcDbArc
 50
211.9998856292889
 51
269.9999684343338
  0
SPLINE
  5
F0
330
1F
100
AcDbEntity
  8
DEFAULT
100
AcDbSpline
210
0.0
220
0.0
230
1.0
 70
    24
 71
     2
 72
     6
 73
     3
 74
     0
 42
0.0000000001
 43
0.0000000001
 40
-1.0
 40
-1.0
 40
-1.0
 40
0.0
 40
0.0
 40
0.0
 10
2.185215999999969
 20
19.55899943830083
 30
0.0
 10
9.622129499999971
 20
19.55899943830083
 30
0.0
 10
17.05904299999997
 20
19.55899943830083
 30
0.0
  0
ARC
  5
F1
330
1F
100
AcDbEntity
  8
DEFAULT
100
AcDbCircle
 10
17.05904287328735
 20
19.78899929782463
 30
0.0
 40
0.2299998595238402
100
AcDbArc
 50
270.0000315656671
 51
328.0001143707087
  0
SPLINE
  5
F2
330
1F
100
AcDbEntity
  8
DEFAULT
100
AcDbSpline
210
0.0
220
0.0
230
1.0
 70
    24
 71
     2
 72
     6
 73
     3
 74
     0
 42
0.0000000001
 43
0.0000000001
 40
-1.0
 40
-1.0
 40
-1.0
 40
0.0
 40
0.0
 40
0.0
 10
17.25409405956532
 20
19.66711833084231
 30
0.0
 10
17.27499002978266
 20
19.70055884945253
 30
0.0
 10
17.295886
 20
19.73399936806274
 30
0.0
  0
SPLINE
  5
F3
330
1F
100
AcDbEntity
  8
DEFAULT
100
AcDbSpline
210
0.0
220
0.0
230
1.0
 70
    24
 71
     2
 72
     6
 73
     3
 74
     0
 42
0.0000000001
 43
0.0000000001
 40
-1.0
 40
-1.0
 40
-1.0
 40
0.0
 40
0.0
 40
0.0
 10
17.40338599999995
 20
19.73399936806274
 30
0.0
 10
17.53768543655309
 20
19.94892390770901
 30
0.0
 10
17.67198487310623
 20
20.16384844735528
 30
0.0
  0
ARC
  5
F4
330
1F
100
AcDbEntity
  8
DEFAULT
100
AcDbCircle
 10
17.39212981705703
 20
20.33872209185131
 30
0.0
 40
0.3299994605081066
100
AcDbArc
 50
327.9998826495006
 51
16.62705623837233
  0
ARC
  5
F5
330
1F
100
AcDbEntity
  8
DEFAULT
100
AcDbCircle
 10
14.40258144265306
 20
19.44595787537284
 30
0.0
 40
3.450003856198021
100
AcDbArc
 50
16.62711566253642
 51
42.81730653986691
  0
ARC
  5
F6
330
1F
100
AcDbEntity
  8
DEFAULT
100
AcDbCircle
 10
16.49312981974697
 20
21.38300025039025
 30
0.0
 40
0.5999993510115813
100
AcDbArc
 50
42.81730060375845
 51
86.3989586662181
  0
ARC
  5
F7
330
1F
100
AcDbEntity
  8
DEFAULT
100
AcDbCircle
 10
9.621875000091904
 20
-87.80095298127773
 30
0.0
 40
109.9999526695194
100
AcDbArc
 50
86.3989636100589
 51
89.99986717795339
  0
ARC
  5
F8
330
1F
100
AcDbEntity
  8
DEFAULT
100
AcDbCircle
 10
9.622384000069019
 20
-87.80103791345599
 30
0.0
 40
110.0000376016953
100
AcDbArc
 50
90.00013230114997
 51
93.60103361144961
  0
ARC
  5
F9
330
1F
100
AcDbEntity
  8
DEFAULT
100
AcDbCircle
 10
2.751129772188278
 20
21.38300005670145
 30
0.0
 40
0.5999997491751065
100
AcDbArc
 50
93.60109658613247
 51
137.182724247455
  0
ARC
  5
FA
330
1F
100
AcDbEntity
  8
DEFAULT
100
AcDbCircle
 10
4.841675795660933
 20
19.44595852499909
 30
0.0
 40
3.450001954752505
100
AcDbArc
 50
137.1826814888843
 51
163.3728863033135
  0
ARC
  5
FB
330
1F
100
AcDbEntity
  8
DEFAULT
100
AcDbCircle
 10
1.852130173998773
 20
20.33872215812669
 30
0.0
 40
0.3300003636263555
100
AcDbArc
 50
163.3730040238594
 51
212.0000359252202
  0
SPLINE
  5
FC
330
1F
100
AcDbEntity
  8
DEFAULT
100
AcDbSpline
210
0.0
220
0.0
230
1.0
 70
    24
 71
     2
 72
     6
 73
     3
 74
     0
 42
0.0000000001
 43
0.0000000001
 40
0.0
 40
0.0
 40
0.0
 40
1.0
 40
1.0
 40
1.0
 10
1.572274103542668
 20
20.16384843276359
 30
0.0
 10
1.706573551771328
 20
19.94892390041316
 30
0.0
 10
1.840872999999988
 20
19.73399936806274
 30
0.0
  0
SPLINE
  5
FD
330
1F
100
AcDbEntity
  8
DEFAULT
100
AcDbSpline
210
0.0
220
0.0
230
1.0
 70
    24
 71
     2
 72
     6
 73
     3
 74
     0
 42
0.0000000001
 43
0.0000000001
 40
0.0
 40
0.0
 40
0.0
 40
1.0
 40
1.0
 40
1.0
 10
12.01886499999739
 20
50.16587610150886
 30
0.0
 10
12.01886499999739
 20
50.52524610150886
 30
0.0
 10
12.01886499999739
 20
50.88461610150885
 30
0.0
  0
ARC
  5
FE
330
1F
100
AcDbEntity
  8
DEFAULT
100
AcDbCircle
 10
8.64712899999995
 20
10.84173399999999
 30
0.0
 40
0.1000000000000005
100
AcDbArc
 50
90.0
 51
180.0
  0
SPLINE
  5
FF
330
1F
100
AcDbEntity
  8
DEFAULT
100
AcDbSpline
210
0.0
220
0.0
230
1.0
 70
    24
 71
     2
 72
     6
 73
     3
 74
     0
 42
0.0000000001
 43
0.0000000001
 40
0.0
 40
0.0
 40
0.0
 40
0.6877655044809186
 40
0.6877655044809186
 40
0.6877655044809186
 10
18.16740599999741
 20
41.04942910150885
 30
0.0
 10
18.16740599999741
 20
40.94788602689628
 30
0.0
 10
18.16740599999741
 20
40.84634295228371
 30
0.0
  0
SPLINE
  5
100
330
1F
100
AcDbEntity
  8
DEFAULT
100
AcDbSpline
210
0.0
220
0.0
230
1.0
 70
    24
 71
     2
 72
     6
 73
     3
 74
     0
 42
0.0000000001
 43
0.0000000001
 40
0.0
 40
0.0
 40
0.0
 40
1.0
 40
1.0
 40
1.0
 10
10.62212899999997
 20
10.09173399999999
 30
0.0
 10
10.65962899999997
 20
10.129234
 30
0.0
 10
10.69712899999996
 20
10.16673400000001
 30
0.0
  0
SPLINE
  5
101
330
1F
100
AcDbEntity
  8
DEFAULT
100
AcDbSpline
210
0.0
220
0.0
230
1.0
 70
    24
 71
     2
 72
     6
 73
     3
 74
     0
 42
0.0000000001
 43
0.0000000001
 40
0.0
 40
0.0
 40
0.0
 40
1.0
 40
1.0
 40
1.0
 10
8.622128999999973
 20
10.09173399999999
 30
0.0
 10
9.622128999999973
 20
10.09173399999999
 30
0.0
 10
10.62212899999997
 20
10.09173399999999
 30
0.0
  0
LINE
  5
102
330
1F
100
AcDbEntity
  8
DEFAULT
100
AcDbLine
 10
17.70260922422267
 20
40.86339833883856
 30
0.0
 11
20.60737299999738
 21
40.75681010150885
 31
0.0
  0
SPLINE
  5
103
330
1F
100
AcDbEntity
  8
DEFAULT
100
AcDbSpline
210
0.0
220
0.0
230
1.0
 70
    24
 71
     2
 72
     6
 73
     3
 74
     0
 42
0.0000000001
 43
0.0000000001
 40
0.0
 40
0.0
 40
0.0
 40
1.0
 40
1.0
 40
1.0
 10
10.73933799999736
 20
30.82557110150886
 30
0.0
 10
10.73933799999736
 20
30.67792860150885
 30
0.0
 10
10.73933799999736
 20
30.53028610150885
 30
0.0
  0
SPLINE
  5
104
330
1F
100
AcDbEntity
  8
DEFAULT
100
AcDbSpline
210
0.0
220
0.0
230
1.0
 70
    24
 71
     2
 72
     6
 73
     3
 74
     0
 42
0.0000000001
 43
0.0000000001
 40
0.0
 40
0.0
 40
0.0
 40
1.0
 40
1.0
 40
1.0
 10
-1.279528000002642
 20
46.16732410150885
 30
0.0
 10
-1.279528000002642
 20
46.01968160150885
 30
0.0
 10
-1.279528000002642
 20
45.87203910150885
 30
0.0
  0
SPLINE
  5
105
330
1F
100
AcDbEntity
  8
DEFAULT
100
AcDbSpline
210
0.0
220
0.0
230
1.0
 70
    24
 71
     2
 72
     6
 73
     3
 74
     0
 42
0.0000000001
 43
0.0000000001
 40
0.0
 40
0.0
 40
0.0
 40
1.0
 40
1.0
 40
1.0
 10
13.29839299999742
 20
29.62477510150885
 30
0.0
 10
13.29839299999742
 20
29.47713260150885
 30
0.0
 10
13.29839299999742
 20
29.32949010150885
 30
0.0
  0
ARC
  5
106
330
1F
100
AcDbEntity
  8
DEFAULT
100
AcDbCircle
 10
12.94406199999742
 20
50.52524610150884
 30
0.0
 40
0.5364174192258131
100
AcDbArc
 50
313.954567372508
 51
17.68133024190298
  0
ARC
  5
107
330
1F
100
AcDbEntity
  8
DEFAULT
100
AcDbCircle
 10
-1.220472000002587
 20
33.52994110150884
 30
0.0
 40
0.0590555000000004
100
AcDbArc
 50
90.0
 51
180.0
  0
SPLINE
  5
108
330
1F
100
AcDbEntity
  8
DEFAULT
100
AcDbSpline
210
0.0
220
0.0
230
1.0
 70
     8
 71
     3
 72
     8
 73
     4
 74
     0
 42
0.0000000001
 43
0.0000000001
 40
0.0
 40
0.0
 40
0.0
 40
0.0
 40
1.0
 40
1.0
 40
1.0
 40
1.0
 10
20.7854759143774
 20
39.99149195876885
 30
0.0
 10
20.78269791336743
 20
39.98012724164884
 30
0.0
 10
20.7788729373874
 20
39.96899277250886
 30
0.0
 10
20.77406731341739
 20
39.95831196809884
 30
0.0
  0
ARC
  5
109
330
1F
100
AcDbEntity
  8
DEFAULT
100
AcDbCircle
 10
0.9251969999974108
 20
33.98269710150885
 30
0.0
 40
0.5364172339838719
100
AcDbArc
 50
270.2356277291128
 51
334.043808538358
  0
ARC
  5
10A
330
1F
100
AcDbEntity
  8
DEFAULT
100
AcDbCircle
 10
13.06217199999742
 20
51.27328610150884
 30
0.0
 40
0.2362210042417892
100
AcDbArc
 50
0.0
 51
85.33957013679534
  0
SPLINE
  5
10B
330
1F
100
AcDbEntity
  8
DEFAULT
100
AcDbSpline
210
0.0
220
0.0
230
1.0
 70
    24
 71
     2
 72
     6
 73
     3
 74
     0
 42
0.0000000001
 43
0.0000000001
 40
0.0
 40
0.0
 40
0.0
 40
1.0
 40
1.0
 40
1.0
 10
-1.22047100000259
 20
46.22637910150885
 30
0.0
 10
-0.329807000002603
 20
46.22637910150885
 30
0.0
 10
0.5608569999973838
 20
46.22637910150885
 30
0.0
  0
SPLINE
  5
10C
330
1F
100
AcDbEntity
  8
DEFAULT
100
AcDbSpline
210
0.0
220
0.0
230
1.0
 70
    24
 71
     2
 72
     6
 73
     3
 74
     0
 42
0.0000000001
 43
0.0000000001
 40
0.0
 40
0.0
 40
0.0
 40
1.0
 40
1.0
 40
1.0
 10
12.31871799999738
 20
30.43690110150885
 30
0.0
 10
11.52902799999737
 20
30.43690110150885
 30
0.0
 10
10.73933799999736
 20
30.43690110150885
 30
0.0
  0
SPLINE
  5
10D
330
1F
100
AcDbEntity
  8
DEFAULT
100
AcDbSpline
210
0.0
220
0.0
230
1.0
 70
     8
 71
     3
 72
     9
 73
     5
 74
     0
 42
0.0000000001
 43
0.0000000001
 40
0.0
 40
0.0
 40
0.0
 40
0.0
 40
1.0
 40
2.0
 40
2.0
 40
2.0
 40
2.0
 10
0.9580520872829652
 20
2.798339719737001
 30
0.0
 10
0.8816097679963946
 20
2.775795252672452
 30
0.0
 10
0.7229785764085932
 20
2.764994933903381
 30
0.0
 10
0.5645482784811975
 20
2.765340678883916
 30
0.0
 10
0.4853435406179756
 20
2.768676004816996
 30
0.0
  0
ARC
  5
10E
330
1F
100
AcDbEntity
  8
DEFAULT
100
AcDbCircle
 10
20.71298300000001
 20
1.634804000000003
 30
0.0
 40
0.0600002755487352
100
AcDbArc
 50
270.0
 51
357.9999895230753
  0
CIRCLE
  5
10F
330
1F
100
AcDbEntity
  8
DEFAULT
100
AcDbCircle
 10
19.44693199999995
 20
0.0
 30
0.0
 40
1.0
  0
SPLINE
  5
110
330
1F
100
AcDbEntity
  8
DEFAULT
100
AcDbSpline
210
0.0
220
0.0
230
1.0
 70
     8
 71
     3
 72
     8
 73
     4
 74
     0
 42
0.0000000001
 43
0.0000000001
 40
0.0
 40
0.0
 40
0.0
 40
0.0
 40
1.0
 40
1.0
 40
1.0
 40
1.0
 10
20.80801299999996
 20
2.706040000000002
 30
0.0
 10
17.59354293212982
 20
3.419708669241643
 30
0.0
 10
14.3396284335405
 20
4.018147864471345
 30
0.0
 10
11.04844575969997
 20
4.219504144308999
 30
0.0
  0
SPLINE
  5
111
330
1F
100
AcDbEntity
  8
DEFAULT
100
AcDbSpline
210
0.0
220
0.0
230
1.0
 70
     8
 71
     3
 72
     9
 73
     5
 74
     0
 42
0.0000000001
 43
0.0000000001
 40
0.0
 40
0.0
 40
0.0
 40
0.0
 40
1.0
 40
2.0
 40
2.0
 40
2.0
 40
2.0
 10
0.9580520872829652
 20
2.798339719737001
 30
0.0
 10
2.282812469836301
 20
3.171451471676022
 30
0.0
 10
4.964698925459402
 20
3.789093426875127
 30
0.0
 10
7.686822184492598
 20
4.223677452697515
 30
0.0
 10
9.062534626520005
 20
4.289667635103001
 30
0.0
  0
SPLINE
  5
112
330
1F
100
AcDbEntity
  8
DEFAULT
100
AcDbSpline
210
0.0
220
0.0
230
1.0
 70
    24
 71
     2
 72
     6
 73
     3
 74
     0
 42
0.0000000001
 43
0.0000000001
 40
0.0
 40
0.0
 40
0.0
 40
1.0
 40
1.0
 40
1.0
 10
20.02632099999994
 20
2.41677
 30
0.0
 10
20.04048999999998
 20
2.024739999999994
 30
0.0
 10
20.05465900000002
 20
1.632709999999989
 30
0.0
  0
ARC
  5
113
330
1F
100
AcDbEntity
  8
DEFAULT
100
AcDbCircle
 10
0.5026421514209005
 20
1.634804006800664
 30
0.0
 40
0.0599998623429707
100
AcDbArc
 50
182.5715586997538
 51
270.0041525966939
  0
SPLINE
  5
114
330
1F
100
AcDbEntity
  8
DEFAULT
100
AcDbSpline
210
0.0
220
0.0
230
1.0
 70
    24
 71
     2
 72
     6
 73
     3
 74
     0
 42
0.0000000001
 43
0.0000000001
 40
0.0
 40
0.0
 40
0.0
 40
1.0
 40
1.0
 40
1.0
 10
0.5026464999999689
 20
1.574804144615271
 30
0.0
 10
0.9561067499999751
 20
1.574804072307636
 30
0.0
 10
1.409566999999981
 20
1.574804
 30
0.0
  0
SPLINE
  5
115
330
1F
100
AcDbEntity
  8
DEFAULT
100
AcDbSpline
210
0.0
220
0.0
230
1.0
 70
    24
 71
     2
 72
     6
 73
     3
 74
     0
 42
0.0000000001
 43
0.0000000001
 40
0.0
 40
0.0
 40
0.0
 40
1.0
 40
1.0
 40
1.0
 10
0.6397640000000138
 20
1.574804
 30
0.0
 10
0.6397640000000138
 20
1.515748500000001
 30
0.0
 10
0.6397640000000138
 20
1.456693000000001
 30
0.0
  0
SPLINE
  5
116
330
1F
100
AcDbEntity
  8
DEFAULT
100
AcDbSpline
210
0.0
220
0.0
230
1.0
 70
     8
 71
     3
 72
     9
 73
     5
 74
     0
 42
0.0000000001
 43
0.0000000001
 40
0.0
 40
0.0
 40
0.0
 40
0.0
 40
1.0
 40
2.0
 40
2.0
 40
2.0
 40
2.0
 10
12.38269700000001
 20
2.600594999999998
 30
0.0
 10
11.91151433088908
 20
2.907365886724548
 30
0.0
 10
10.92430310103896
 20
3.440933014300441
 30
0.0
 10
9.870679470064147
 20
3.854815095616431
 30
0.0
 10
9.30980199999999
 20
3.921478999999991
 30
0.0
  0
SPLINE
  5
117
330
1F
100
AcDbEntity
  8
DEFAULT
100
AcDbSpline
210
0.0
220
0.0
230
1.0
 70
    24
 71
     2
 72
     6
 73
     3
 74
     0
 42
0.0000000001
 43
0.0000000001
 40
0.0
 40
0.0
 40
0.0
 40
1.0
 40
1.0
 40
1.0
 10
13.22949499999999
 20
1.574804
 30
0.0
 10
13.22949499999999
 20
1.515748500000001
 30
0.0
 10
13.22949499999999
 20
1.456693000000001
 30
0.0
  0
SPLINE
  5
118
330
1F
100
AcDbEntity
  8
DEFAULT
100
AcDbSpline
210
0.0
220
0.0
230
1.0
 70
    24
 71
     2
 72
     6
 73
     3
 74
     0
 42
0.0000000001
 43
0.0000000001
 40
0.0
 40
0.0
 40
0.0
 40
1.0
 40
1.0
 40
1.0
 10
19.83571099999995
 20
1.441068000000001
 30
0.0
 10
19.83571099999995
 20
1.360298
 30
0.0
 10
19.83571099999995
 20
1.279527999999999
 30
0.0
  0
SPLINE
  5
119
330
1F
100
AcDbEntity
  8
DEFAULT
100
AcDbSpline
210
0.0
220
0.0
230
1.0
 70
     8
 71
     3
 72
     9
 73
     5
 74
     0
 42
0.0000000001
 43
0.0000000001
 40
0.0
 40
0.0
 40
0.0
 40
0.0
 40
1.0
 40
2.0
 40
2.0
 40
2.0
 40
2.0
 10
9.05512699999997
 20
3.920969999999997
 30
0.0
 10
7.783033344219348
 20
3.861311733474992
 30
0.0
 10
5.265103794911681
 20
3.469277630728996
 30
0.0
 10
2.780952411945805
 20
2.917788578833225
 30
0.0
 10
1.552170999999987
 20
2.587086999999997
 30
0.0
  0
SPLINE
  5
11A
330
1F
100
AcDbEntity
  8
DEFAULT
100
AcDbSpline
210
0.0
220
0.0
230
1.0
 70
    24
 71
     2
 72
     6
 73
     3
 74
     0
 42
0.0000000001
 43
0.0000000001
 40
0.0
 40
0.0
 40
0.0
 40
1.0
 40
1.0
 40
1.0
 10
1.210629999999981
 20
1.574804
 30
0.0
 10
1.210629999999981
 20
1.515748500000001
 30
0.0
 10
1.210629999999981
 20
1.456693000000001
 30
0.0
  0
SPLINE
  5
11B
330
1F
100
AcDbEntity
  8
DEFAULT
100
AcDbSpline
210
0.0
220
0.0
230
1.0
 70
     8
 71
     3
 72
    10
 73
     6
 74
     0
 42
0.0000000001
 43
0.0000000001
 40
0.0
 40
0.0
 40
0.0
 40
0.0
 40
0.4240323129197
 40
0.7689249100014
 40
1.0
 40
1.0
 40
1.0
 40
1.0
 10
9.101021157959963
 20
4.007722273358993
 30
0.0
 10
9.101230022729965
 20
3.992828443516999
 30
0.0
 10
9.097754429149973
 20
3.965724690269994
 30
0.0
 10
9.082947281919985
 20
3.932656798194003
 30
0.0
 10
9.063215540519991
 20
3.921511910836003
 30
0.0
 10
9.05512542863994
 20
3.920991993606989
 30
0.0
  0
SPLINE
  5
11C
330
1F
100
AcDbEntity
  8
DEFAULT
100
AcDbSpline
210
0.0
220
0.0
230
1.0
 70
    24
 71
     2
 72
     6
 73
     3
 74
     0
 42
0.0000000001
 43
0.0000000001
 40
0.0
 40
0.0
 40
0.0
 40
1.0
 40
1.0
 40
1.0
 10
19.72239400000001
 20
1.606985999999992
 30
0.0
 10
19.72247049999999
 20
1.606846999999995
 30
0.0
 10
19.72254699999996
 20
1.606707999999998
 30
0.0
  0
SPLINE
  5
11D
330
1F
100
AcDbEntity
  8
DEFAULT
100
AcDbSpline
210
0.0
220
0.0
230
1.0
 70
     8
 71
     3
 72
    11
 73
     7
 74
     0
 42
0.0000000001
 43
0.0000000001
 40
0.0
 40
0.0
 40
0.0
 40
0.0
 40
0.2489561854195
 40
0.4983553878348
 40
0.7485815498319
 40
1.0
 40
1.0
 40
1.0
 40
1.0
 10
19.88490653060001
 20
2.58616831510399
 30
0.0
 10
19.90405338346
 20
2.581919862759989
 30
0.0
 10
19.94125757042002
 20
2.566992837329991
 30
0.0
 10
19.98679734757002
 20
2.527931543175001
 30
0.0
 10
20.01747138870996
 20
2.476119547018996
 30
0.0
 10
20.02558994765002
 20
2.436563151535992
 30
0.0
 10
20.02632094551996
 20
2.416770141019995
 30
0.0
  0
CIRCLE
  5
11E
330
1F
100
AcDbEntity
  8
DEFAULT
100
AcDbCircle
 10
19.44693199999995
 20
0.0
 30
0.0
 40
1.0625
  0
SPLINE
  5
11F
330
1F
100
AcDbEntity
  8
DEFAULT
100
AcDbSpline
210
0.0
220
0.0
230
1.0
 70
    24
 71
     2
 72
     6
 73
     3
 74
     0
 42
0.0000000001
 43
0.0000000001
 40
0.0
 40
0.0
 40
0.0
 40
1.0
 40
1.0
 40
1.0
 10
1.002612999997382
 20
47.12676810150884
 30
0.0
 10
2.209423999997398
 20
46.31587010150884
 30
0.0
 10
3.416234999997414
 20
45.50497210150884
 30
0.0
  0
SPLINE
  5
120
330
1F
100
AcDbEntity
  8
DEFAULT
100
AcDbSpline
210
0.0
220
0.0
230
1.0
 70
    24
 71
     2
 72
     6
 73
     3
 74
     0
 42
0.0000000001
 43
0.0000000001
 40
0.0
 40
0.0
 40
0.0
 40
1.0
 40
1.0
 40
1.0
 10
12.01886499999739
 20
29.71816010150884
 30
0.0
 10
12.01886499999739
 20
30.07753060150885
 30
0.0
 10
12.01886499999739
 20
30.43690110150885
 30
0.0
  0
ARC
  5
121
330
1F
100
AcDbEntity
  8
DEFAULT
100
AcDbCircle
 10
13.06217199999742
 20
49.77720510150884
 30
0.0
 40
0.2362211281595755
100
AcDbArc
 50
292.0643577296231
 51
0.0
  0
CIRCLE
  5
122
330
1F
100
AcDbEntity
  8
DEFAULT
100
AcDbCircle
 10
19.44693199999995
 20
0.0
 30
0.0
 40
1.279528000000001
  0
ARC
  5
123
330
1F
100
AcDbEntity
  8
DEFAULT
100
AcDbCircle
 10
19.85133599999995
 20
1.441068000000001
 30
0.0
 40
0.015625
100
AcDbArc
 50
90.0
 51
180.0
  0
SPLINE
  5
124
330
1F
100
AcDbEntity
  8
DEFAULT
100
AcDbSpline
210
0.0
220
0.0
230
1.0
 70
    24
 71
     2
 72
     6
 73
     3
 74
     0
 42
0.0000000001
 43
0.0000000001
 40
0.0
 40
0.0
 40
0.0
 40
1.0
 40
1.0
 40
1.0
 10
20.908546
 20
1.441068000000001
 30
0.0
 10
20.908546
 20
0.9929814999999991
 30
0.0
 10
20.908546
 20
0.5448949999999968
 30
0.0
  0
SPLINE
  5
125
330
1F
100
AcDbEntity
  8
DEFAULT
100
AcDbSpline
210
0.0
220
0.0
230
1.0
 70
    24
 71
     2
 72
     6
 73
     3
 74
     0
 42
0.0000000001
 43
0.0000000001
 40
0.0
 40
0.0
 40
0.0
 40
1.0
 40
1.0
 40
1.0
 10
9.101020999999946
 20
4.007722000000001
 30
0.0
 10
9.099089999999961
 20
4.117682500000001
 30
0.0
 10
9.097158999999976
 20
4.227643
 30
0.0
  0
ARC
  5
126
330
1F
100
AcDbEntity
  8
DEFAULT
100
AcDbCircle
 10
9.417782999999986
 20
-87.525449
 30
0.0
 40
90.00000008861713
100
AcDbArc
 50
83.77635464235605
 51
87.43672945249743
  0
CIRCLE
  5
127
330
1F
100
AcDbEntity
  8
DEFAULT
100
AcDbCircle
 10
0.0
 20
0.0
 30
0.0
 40
1.0
  0
CIRCLE
  5
128
330
1F
100
AcDbEntity
  8
DEFAULT
100
AcDbCircle
 10
0.0
 20
0.0
 30
0.0
 40
1.279528000000001
  0
SPLINE
  5
129
330
1F
100
AcDbEntity
  8
DEFAULT
100
AcDbSpline
210
0.0
220
0.0
230
1.0
 70
     8
 71
     3
 72
     9
 73
     5
 74
     0
 42
0.0000000001
 43
0.0000000001
 40
0.0
 40
0.0
 40
0.0
 40
0.0
 40
1.000000115485941
 40
2.0
 40
2.0
 40
2.0
 40
2.0
 10
12.38205799999997
 20
2.60146499999999
 30
0.0
 10
12.39910946089151
 20
2.574127984616013
 30
0.0
 10
12.41585814072045
 20
2.511463308169638
 30
0.0
 10
12.42334722027431
 20
2.44789504975401
 30
0.0
 10
12.42477450000001
 20
2.415829000000002
 30
0.0
  0
SPLINE
  5
12A
330
1F
100
AcDbEntity
  8
DEFAULT
100
AcDbSpline
210
0.0
220
0.0
230
1.0
 70
    24
 71
     2
 72
     6
 73
     3
 74
     0
 42
0.0000000001
 43
0.0000000001
 40
0.0
 40
0.0
 40
0.0
 40
1.0
 40
1.0
 40
1.0
 10
12.42477450000001
 20
2.415829000000002
 30
0.0
 10
12.44256071071118
 20
2.023956498217061
 30
0.0
 10
12.46034692142234
 20
1.632083996434119
 30
0.0
  0
ARC
  5
12B
330
1F
100
AcDbEntity
  8
DEFAULT
100
AcDbCircle
 10
12.52028508236708
 20
1.63480392134403
 30
0.0
 40
0.0599998427410689
100
AcDbArc
 50
182.598234190645
 51
269.9975340146328
  0
SPLINE
  5
12C
330
1F
100
AcDbEntity
  8
DEFAULT
100
AcDbSpline
210
0.0
220
0.0
230
1.0
 70
    24
 71
     2
 72
     6
 73
     3
 74
     0
 42
0.0000000001
 43
0.0000000001
 40
0.0
 40
0.0
 40
0.0
 40
1.0
 40
1.0
 40
1.0
 10
12.52028250000001
 20
1.574804078658531
 30
0.0
 10
12.93583824999999
 20
1.574804088336712
 30
0.0
 10
13.35139399999997
 20
1.574804098014894
 30
0.0
  0
ARC
  5
12D
330
1F
100
AcDbEntity
  8
DEFAULT
100
AcDbCircle
 10
13.35139389779107
 20
1.634804423377844
 30
0.0
 40
0.0600003253630366
100
AcDbArc
 50
270.0000976017901
 51
357.6001198212138
  0
SPLINE
  5
12E
330
1F
100
AcDbEntity
  8
DEFAULT
100
AcDbSpline
210
0.0
220
0.0
230
1.0
 70
    24
 71
     2
 72
     6
 73
     3
 74
     0
 42
0.0000000001
 43
0.0000000001
 40
0.0
 40
0.0
 40
0.0
 40
1.0
 40
1.0
 40
1.0
 10
13.41134159792898
 20
1.632291995896409
 30
0.0
 10
13.43427229896446
 20
2.180653997948205
 30
0.0
 10
13.45720299999994
 20
2.729016000000001
 30
0.0
  0
SPLINE
  5
12F
330
1F
100
AcDbEntity
  8
DEFAULT
100
AcDbSpline
210
0.0
220
0.0
230
1.0
 70
     8
 71
     3
 72
     9
 73
     5
 74
     0
 42
0.0000000001
 43
0.0000000001
 40
0.0
 40
0.0
 40
0.0
 40
0.0
 40
0.9999377902530446
 40
2.0
 40
2.0
 40
2.0
 40
2.0
 10
13.45720299999994
 20
2.729016000000001
 30
0.0
 10
13.45739892508379
 20
2.739728213790485
 30
0.0
 10
13.45306679464102
 20
2.761353775542503
 30
0.0
 10
13.43940082118979
 20
2.778628490951661
 30
0.0
 10
13.43125099999997
 20
2.785572999999999
 30
0.0
  0
ARC
  5
130
330
1F
100
AcDbEntity
  8
DEFAULT
100
AcDbCircle
 10
20.892921
 20
1.441068000000001
 30
0.0
 40
0.015625
100
AcDbArc
 50
0.0
 51
90.0
  0
SPLINE
  5
131
330
1F
100
AcDbEntity
  8
DEFAULT
100
AcDbSpline
210
0.0
220
0.0
230
1.0
 70
    24
 71
     2
 72
     6
 73
     3
 74
     0
 42
0.0000000001
 43
0.0000000001
 40
0.0
 40
0.0
 40
0.0
 40
1.0
 40
1.0
 40
1.0
 10
11.486988
 20
1.163733999999991
 30
0.0
 10
7.94772549999999
 20
1.163733999999991
 30
0.0
 10
4.408462999999983
 20
1.163733999999991
 30
0.0
  0
SPLINE
  5
132
330
1F
100
AcDbEntity
  8
DEFAULT
100
AcDbSpline
210
0.0
220
0.0
230
1.0
 70
     8
 71
     3
 72
     8
 73
     4
 74
     0
 42
0.0000000001
 43
0.0000000001
 40
0.0
 40
0.0
 40
0.0
 40
0.0
 40
1.0
 40
1.0
 40
1.0
 40
1.0
 10
0.454540178180423
 20
34.20205415541885
 30
0.0
 10
0.4585999034484303
 20
34.20584865693884
 30
0.0
 10
0.4628228095393752
 20
34.20945968230885
 30
0.0
 10
0.4671912956004007
 20
34.21286845357885
 30
0.0
  0
SPLINE
  5
133
330
1F
100
AcDbEntity
  8
DEFAULT
100
AcDbSpline
210
0.0
220
0.0
230
1.0
 70
     8
 71
     3
 72
     8
 73
     4
 74
     0
 42
0.0000000001
 43
0.0000000001
 40
0.0
 40
0.0
 40
0.0
 40
0.0
 40
1.0
 40
1.0
 40
1.0
 40
1.0
 10
11.5839519999974
 20
48.15819410150885
 30
0.0
 10
11.92009257866175
 20
49.07545355000131
 30
0.0
 10
12.25449502739639
 20
49.99342600492288
 30
0.0
 10
12.5923736711074
 20
50.90997226969883
 30
0.0
  0
SPLINE
  5
134
330
1F
100
AcDbEntity
  8
DEFAULT
100
AcDbSpline
210
0.0
220
0.0
230
1.0
 70
    24
 71
     2
 72
     6
 73
     3
 74
     0
 42
0.0000000001
 43
0.0000000001
 40
0.0
 40
0.0
 40
0.0
 40
1.0
 40
1.0
 40
1.0
 10
14.83579499999996
 20
1.163733999999991
 30
0.0
 10
14.15813699999995
 20
1.163733999999991
 30
0.0
 10
13.48047899999995
 20
1.163733999999991
 30
0.0
  0
SPLINE
  5
135
330
1F
100
AcDbEntity
  8
DEFAULT
100
AcDbSpline
210
0.0
220
0.0
230
1.0
 70
    24
 71
     2
 72
     6
 73
     3
 74
     0
 42
0.0000000001
 43
0.0000000001
 40
0.0
 40
0.0
 40
0.0
 40
1.0
 40
1.0
 40
1.0
 10
8.618946999999935
 20
1.282562999999996
 30
0.0
 10
9.027088499999934
 20
1.282562999999996
 30
0.0
 10
9.435229999999933
 20
1.282562999999996
 30
0.0
  0
ARC
  5
136
330
1F
100
AcDbEntity
  8
DEFAULT
100
AcDbCircle
 10
4.396280999999931
 20
0.9195819999999912
 30
0.0
 40
0.2441518217144169
100
AcDbArc
 50
90.0
 51
209.9997773345846
  0
SPLINE
  5
137
330
1F
100
AcDbEntity
  8
DEFAULT
100
AcDbSpline
210
0.0
220
0.0
230
1.0
 70
    24
 71
     2
 72
     6
 73
     3
 74
     0
 42
0.0000000001
 43
0.0000000001
 40
0.0
 40
0.0
 40
0.0
 40
1.0
 40
1.0
 40
1.0
 10
15.05941899999993
 20
0.797506999999996
 30
0.0
 10
15.02080199999995
 20
0.7306204999999935
 30
0.0
 10
14.98218499999996
 20
0.6637339999999909
 30
0.0
  0
SPLINE
  5
138
330
1F
100
AcDbEntity
  8
DEFAULT
100
AcDbSpline
210
0.0
220
0.0
230
1.0
 70
    24
 71
     2
 72
     6
 73
     3
 74
     0
 42
0.0000000001
 43
0.0000000001
 40
0.0
 40
0.0
 40
0.0
 40
1.0
 40
1.0
 40
1.0
 10
4.184838999999954
 20
0.797506999999996
 30
0.0
 10
4.22345599999997
 20
0.7306204999999935
 30
0.0
 10
4.262072999999987
 20
0.6637339999999909
 30
0.0
  0
SPLINE
  5
139
330
1F
100
AcDbEntity
  8
DEFAULT
100
AcDbSpline
210
0.0
220
0.0
230
1.0
 70
    24
 71
     2
 72
     6
 73
     3
 74
     0
 42
0.0000000001
 43
0.0000000001
 40
0.0
 40
0.0
 40
0.0
 40
1.0
 40
1.0
 40
1.0
 10
14.98218499999996
 20
0.6637339999999909
 30
0.0
 10
14.23133199999995
 20
0.6637339999999909
 30
0.0
 10
13.48047899999995
 20
0.6637339999999909
 30
0.0
  0
SPLINE
  5
13A
330
1F
100
AcDbEntity
  8
DEFAULT
100
AcDbSpline
210
0.0
220
0.0
230
1.0
 70
     8
 71
     3
 72
     9
 73
     5
 74
     0
 42
0.0000000001
 43
0.0000000001
 40
0.0
 40
0.0
 40
0.0
 40
0.0
 40
0.4526822822758
 40
1.0
 40
1.0
 40
1.0
 40
1.0
 10
10.64825325432997
 20
1.164433499139989
 30
0.0
 10
10.46673296071998
 20
1.195015040589993
 30
0.0
 10
10.06443749264997
 20
1.254707246669994
 30
0.0
 10
9.657756998809987
 20
1.282563279769988
 30
0.0
 10
9.435229755779972
 20
1.282563279769988
 30
0.0
  0
ARC
  5
13B
330
1F
100
AcDbEntity
  8
DEFAULT
100
AcDbCircle
 10
14.84797799999996
 20
0.9195819999999912
 30
0.0
 40
0.2441513887009997
100
AcDbArc
 50
330.0001053293281
 51
90.0
  0
SPLINE
  5
13C
330
1F
100
AcDbEntity
  8
DEFAULT
100
AcDbSpline
210
0.0
220
0.0
230
1.0
 70
     8
 71
     3
 72
    16
 73
    12
 74
     0
 42
0.0000000001
 43
0.0000000001
 40
0.0
 40
0.0
 40
0.0
 40
0.0
 40
0.08036318855295
 40
0.1650120153995
 40
0.2570413384004
 40
0.3594431207832
 40
0.4745568832878
 40
0.6038766267263
 40
0.7478665488324
 40
0.9075021814449
 40
1.0
 40
1.0
 40
1.0
 40
1.0
 10
9.93538612384998
 20
1.791111326699991
 30
0.0
 10
10.00253139538995
 20
1.785033517439999
 30
0.0
 10
10.14020876562995
 20
1.770348232410001
 30
0.0
 10
10.35396891135997
 20
1.74177843631999
 30
0.0
 10
10.58531200385994
 20
1.705651732020002
 30
0.0
 10
10.84113179940994
 20
1.660923279480002
 30
0.0
 10
11.12698564830998
 20
1.60653292856999
 30
0.0
 10
11.44634030526993
 20
1.541695092599994
 30
0.0
 10
11.80153830996994
 20
1.465779704580001
 30
0.0
 10
12.12589356997
 20
1.393427157219989
 30
0.0
 10
12.33205606597994
 20
1.346096263459998
 30
0.0
 10
12.40765094448
 20
1.328568787189994
 30
0.0
  0
ARC
  5
13D
330
1F
100
AcDbEntity
  8
DEFAULT
100
AcDbCircle
 10
18.40362599999742
 20
41.04942910150885
 30
0.0
 40
0.2362205042417886
100
AcDbArc
 50
94.66042986320477
 51
180.0
  0
ARC
  5
13E
330
1F
100
AcDbEntity
  8
DEFAULT
100
AcDbCircle
 10
18.40362599999742
 20
39.55334810150885
 30
0.0
 40
0.2362205042417886
100
AcDbArc
 50
180.0
 51
265.3395701367952
  0
CIRCLE
  5
13F
330
1F
100
AcDbEntity
  8
DEFAULT
100
AcDbCircle
 10
9.622129999997355
 20
40.30138810150885
 30
0.0
 40
6.908685000000002
  0
SPLINE
  5
140
330
1F
100
AcDbEntity
  8
DEFAULT
100
AcDbSpline
210
0.0
220
0.0
230
1.0
 70
    24
 71
     2
 72
     6
 73
     3
 74
     0
 42
0.0000000001
 43
0.0000000001
 40
0.0
 40
0.0
 40
0.0
 40
1.0
 40
1.0
 40
1.0
 10
-1.279528000002642
 20
34.34206710150885
 30
0.0
 10
-1.279528000002642
 20
33.98269710150885
 30
0.0
 10
-1.279528000002642
 20
33.62332710150885
 30
0.0
  0
SPLINE
  5
141
330
1F
100
AcDbEntity
  8
DEFAULT
100
AcDbSpline
210
0.0
220
0.0
230
1.0
 70
    24
 71
     2
 72
     6
 73
     3
 74
     0
 42
0.0000000001
 43
0.0000000001
 40
0.0
 40
0.0
 40
0.0
 40
1.0
 40
1.0
 40
1.0
 10
1.240156999999954
 20
0.3149609999999967
 30
0.0
 10
1.259842499999962
 20
0.3149609999999967
 30
0.0
 10
1.279527999999971
 20
0.3149609999999967
 30
0.0
  0
SPLINE
  5
142
330
1F
100
AcDbEntity
  8
DEFAULT
100
AcDbSpline
210
0.0
220
0.0
230
1.0
 70
    24
 71
     2
 72
     6
 73
     3
 74
     0
 42
0.0000000001
 43
0.0000000001
 40
0.0
 40
0.0
 40
0.0
 40
1.0
 40
1.0
 40
1.0
 10
13.25902199999996
 20
0.3149609999999967
 30
0.0
 10
13.27870749999997
 20
0.3149609999999967
 30
0.0
 10
13.29839299999998
 20
0.3149609999999967
 30
0.0
  0
SPLINE
  5
143
330
1F
100
AcDbEntity
  8
DEFAULT
100
AcDbSpline
210
0.0
220
0.0
230
1.0
 70
    24
 71
     2
 72
     6
 73
     3
 74
     0
 42
0.0000000001
 43
0.0000000001
 40
0.0
 40
0.0
 40
0.0
 40
1.0
 40
1.0
 40
1.0
 10
10.62212899999997
 20
4.307419999999993
 30
0.0
 10
10.62212899999997
 20
7.199576999999991
 30
0.0
 10
10.62212899999997
 20
10.09173399999999
 30
0.0
  0
ARC
  5
144
330
1F
100
AcDbEntity
  8
DEFAULT
100
AcDbCircle
 10
20.37212999999736
 20
40.30138810150885
 30
0.0
 40
0.5364170468547508
100
AcDbArc
 50
315.8309065085173
 51
44.16916791581688
  0
SPLINE
  5
145
330
1F
100
AcDbEntity
  8
DEFAULT
100
AcDbSpline
210
0.0
220
0.0
230
1.0
 70
    24
 71
     2
 72
     6
 73
     3
 74
     0
 42
0.0000000001
 43
0.0000000001
 40
0.0
 40
0.0
 40
0.0
 40
1.0
 40
1.0
 40
1.0
 10
10.95636499999739
 20
51.50872610150886
 30
0.0
 10
12.01886499999739
 20
51.50872610150886
 30
0.0
 10
13.08136499999739
 20
51.50872610150886
 30
0.0
  0
ARC
  5
146
330
1F
100
AcDbEntity
  8
DEFAULT
100
AcDbCircle
 10
20.49023999999736
 20
39.55334710150885
 30
0.0
 40
0.2362200058949277
100
AcDbArc
 50
274.6604495706473
 51
0.0
  0
POLYLINE
  5
147
330
1F
100
AcDbEntity
  8
DEFAULT
100
AcDb2dPolyline
 66
     1
 10
0.0
 20
0.0
 30
0.0
  0
VERTEX
  5
149
330
147
100
AcDbEntity
  8
DEFAULT
100
AcDbVertex
100
AcDb2dVertex
 10
8.747128999999973
 20
17.75319599999999
 30
0.0
  0
VERTEX
  5
14A
330
147
100
AcDbEntity
  8
DEFAULT
100
AcDbVertex
100
AcDb2dVertex
 10
10.49712899999997
 20
17.75319599999999
 30
0.0
  0
SEQEND
  5
148
330
147
100
AcDbEntity
  8
DEFAULT
  0
SPLINE
  5
14B
330
1F
100
AcDbEntity
  8
DEFAULT
100
AcDbSpline
210
0.0
220
0.0
230
1.0
 70
    24
 71
     2
 72
     6
 73
     3
 74
     0
 42
0.0000000001
 43
0.0000000001
 40
0.0
 40
0.0
 40
0.0
 40
1.0
 40
1.0
 40
1.0
 10
12.54581999999994
 20
1.279527999999999
 30
0.0
 10
12.28234249999997
 20
1.279527999999999
 30
0.0
 10
12.01886500000001
 20
1.279527999999999
 30
0.0
  0
SPLINE
  5
14C
330
1F
100
AcDbEntity
  8
DEFAULT
100
AcDbSpline
210
0.0
220
0.0
230
1.0
 70
     8
 71
     3
 72
     9
 73
     5
 74
     0
 42
0.0000000001
 43
0.0000000001
 40
0.0
 40
0.0
 40
0.0
 40
0.0
 40
1.0
 40
2.0
 40
2.0
 40
2.0
 40
2.0
 10
1.409603999999945
 20
1.574804
 30
0.0
 10
1.420397244777291
 20
1.574990467893471
 30
0.0
 10
1.441892352119112
 20
1.58041636949865
 30
0.0
 10
1.458528351373729
 20
1.595120343005945
 30
0.0
 10
1.464743999999996
 20
1.603955999999997
 30
0.0
  0
SPLINE
  5
14D
330
1F
100
AcDbEntity
  8
DEFAULT
100
AcDbSpline
210
0.0
220
0.0
230
1.0
 70
     8
 71
     3
 72
     9
 73
     5
 74
     0
 42
0.0000000001
 43
0.0000000001
 40
0.0
 40
0.0
 40
0.0
 40
0.0
 40
1.0
 40
2.0
 40
2.0
 40
2.0
 40
2.0
 10
1.464743999999996
 20
1.603955999999997
 30
0.0
 10
1.508851797999341
 20
1.689077144698913
 30
0.0
 10
1.627550598238827
 20
1.845994617982839
 30
0.0
 10
1.806956824348731
 20
1.931692016828237
 30
0.0
 10
1.93693751723697
 20
1.948920408199996
 30
0.0
  0
SPLINE
  5
14E
330
1F
100
AcDbEntity
  8
DEFAULT
100
AcDbSpline
210
0.0
220
0.0
230
1.0
 70
    24
 71
     2
 72
     6
 73
     3
 74
     0
 42
0.0000000001
 43
0.0000000001
 40
0.0
 40
0.0
 40
0.0
 40
1.0
 40
1.0
 40
1.0
 10
20.65756299999998
 20
1.574804
 30
0.0
 10
20.65756299999998
 20
1.515748500000001
 30
0.0
 10
20.65756299999998
 20
1.456693000000001
 30
0.0
  0
SPLINE
  5
14F
330
1F
100
AcDbEntity
  8
DEFAULT
100
AcDbSpline
210
0.0
220
0.0
230
1.0
 70
    24
 71
     2
 72
     6
 73
     3
 74
     0
 42
0.0000000001
 43
0.0000000001
 40
0.0
 40
0.0
 40
0.0
 40
1.0
 40
1.0
 40
1.0
 10
12.65862900000002
 20
1.574804
 30
0.0
 10
12.65862900000002
 20
1.515748500000001
 30
0.0
 10
12.65862900000002
 20
1.456693000000001
 30
0.0
  0
SPLINE
  5
150
330
1F
100
AcDbEntity
  8
DEFAULT
100
AcDbSpline
210
0.0
220
0.0
230
1.0
 70
     8
 71
     3
 72
     9
 73
     5
 74
     0
 42
0.0000000001
 43
0.0000000001
 40
0.0
 40
0.0
 40
0.0
 40
0.0
 40
1.0
 40
2.0
 40
2.0
 40
2.0
 40
2.0
 10
8.630130000000008
 20
4.308345222177593
 30
0.0
 10
7.249478464699109
 20
4.272404215957124
 30
0.0
 10
4.559745392396962
 20
3.849709083087419
 30
0.0
 10
1.917115359361446
 20
3.216641134994376
 30
0.0
 10
0.4868669999999611
 20
2.797450999999995
 30
0.0
  0
SPLINE
  5
151
330
1F
100
AcDbEntity
  8
DEFAULT
100
AcDbSpline
210
0.0
220
0.0
230
1.0
 70
    24
 71
     2
 72
     6
 73
     3
 74
     0
 42
0.0000000001
 43
0.0000000001
 40
0.0
 40
0.0
 40
0.0
 40
1.0
 40
1.0
 40
1.0
 10
0.4868619999999737
 20
2.797449
 30
0.0
 10
0.4868644999999674
 20
2.797449999999998
 30
0.0
 10
0.4868669999999611
 20
2.797450999999995
 30
0.0
  0
SPLINE
  5
152
330
1F
100
AcDbEntity
  8
DEFAULT
100
AcDbSpline
210
0.0
220
0.0
230
1.0
 70
    24
 71
     2
 72
     6
 73
     3
 74
     0
 42
0.0000000001
 43
0.0000000001
 40
0.0
 40
0.0
 40
0.0
 40
1.0
 40
1.0
 40
1.0
 10
9.235801999999978
 20
4.007722000000001
 30
0.0
 10
9.233874499999985
 20
4.117683
 30
0.0
 10
9.231946999999991
 20
4.227643999999998
 30
0.0
  0
CIRCLE
  5
153
330
1F
100
AcDbEntity
  8
DEFAULT
100
AcDbCircle
 10
12.01886500000001
 20
0.0
 30
0.0
 40
1.279528000000001
  0
ARC
  5
154
330
1F
100
AcDbEntity
  8
DEFAULT
100
AcDbCircle
 10
10.79839299999742
 20
50.97800210150884
 30
0.0
 40
0.0590554999999986
100
AcDbArc
 50
180.0
 51
270.0
  0
SPLINE
  5
155
330
1F
100
AcDbEntity
  8
DEFAULT
100
AcDbSpline
210
0.0
220
0.0
230
1.0
 70
    24
 71
     2
 72
     6
 73
     3
 74
     0
 42
0.0000000001
 43
0.0000000001
 40
0.0
 40
0.0
 40
0.0
 40
1.0
 40
1.0
 40
1.0
 10
12.65307199999739
 20
32.79205110150885
 30
0.0
 10
13.0514729999974
 20
31.39331660150884
 30
0.0
 10
13.44987399999741
 20
29.99458210150884
 30
0.0
  0
SPLINE
  5
156
330
1F
100
AcDbEntity
  8
DEFAULT
100
AcDbSpline
210
0.0
220
0.0
230
1.0
 70
     8
 71
     3
 72
     8
 73
     4
 74
     0
 42
0.0000000001
 43
0.0000000001
 40
0.0
 40
0.0
 40
0.0
 40
0.0
 40
1.0
 40
1.0
 40
1.0
 40
1.0
 10
20.7888492893274
 20
40.00868309031885
 30
0.0
 10
20.7879920800674
 20
40.00291377161885
 30
0.0
 10
20.78686485846742
 20
39.99717408652884
 30
0.0
 10
20.7854759143774
 20
39.99149195876885
 30
0.0
  0
SPLINE
  5
157
330
1F
100
AcDbEntity
  8
DEFAULT
100
AcDbSpline
210
0.0
220
0.0
230
1.0
 70
    24
 71
     2
 72
     6
 73
     3
 74
     0
 42
0.0000000001
 43
0.0000000001
 40
0.0
 40
0.0
 40
0.0
 40
1.0
 40
1.0
 40
1.0
 10
10.73933799999736
 20
30.43690110150885
 30
0.0
 10
10.73933799999736
 20
30.07753060150885
 30
0.0
 10
10.73933799999736
 20
29.71816010150884
 30
0.0
  0
ARC
  5
158
330
1F
100
AcDbEntity
  8
DEFAULT
100
AcDbCircle
 10
0.9251969999974108
 20
33.98269710150885
 30
0.0
 40
0.5364172172617838
100
AcDbArc
 50
97.96885089089
 51
161.6593900687278
  0
SPLINE
  5
159
330
1F
100
AcDbEntity
  8
DEFAULT
100
AcDbSpline
210
0.0
220
0.0
230
1.0
 70
     8
 71
     3
 72
     9
 73
     5
 74
     0
 42
0.0000000001
 43
0.0000000001
 40
0.0
 40
0.0
 40
0.0
 40
0.0
 40
0.3328530646196
 40
1.0
 40
1.0
 40
1.0
 40
1.0
 10
20.64229461871741
 20
40.75230391651884
 30
0.0
 10
20.6480335287074
 20
40.75101147049885
 30
0.0
 10
20.66509931542737
 20
40.74632645874884
 30
0.0
 10
20.68136757397735
 20
40.73928342996885
 30
0.0
 10
20.69169423319738
 20
40.73362674201884
 30
0.0
  0
SPLINE
  5
15A
330
1F
100
AcDbEntity
  8
DEFAULT
100
AcDbSpline
210
0.0
220
0.0
230
1.0
 70
    24
 71
     2
 72
     6
 73
     3
 74
     0
 42
0.0000000001
 43
0.0000000001
 40
0.0
 40
0.0
 40
0.0
 40
1.0
 40
1.0
 40
1.0
 10
0.5608569999973838
 20
47.01378010150884
 30
0.0
 10
-0.329807000002603
 20
47.01378010150884
 30
0.0
 10
-1.22047100000259
 20
47.01378010150884
 30
0.0
  0
ARC
  5
15B
330
1F
100
AcDbEntity
  8
DEFAULT
100
AcDbCircle
 10
20.37212999999736
 20
40.30138810150885
 30
0.0
 40
0.5364173235713225
100
AcDbArc
 50
54.31676174241012
 51
118.0322062828517
  0
ARC
  5
15C
330
1F
100
AcDbEntity
  8
DEFAULT
100
AcDbCircle
 10
10.97555799999736
 20
29.32949010150885
 30
0.0
 40
0.2362205042417904
100
AcDbArc
 50
180.0
 51
265.3395701367957
  0
LINE
  5
15D
330
1F
100
AcDbEntity
  8
DEFAULT
100
AcDbLine
 10
20.60737399999744
 20
39.84596610150885
 30
0.0
 11
17.70260931969665
 21
39.73937923688779
 31
0.0
  0
SPLINE
  5
15E
330
1F
100
AcDbEntity
  8
DEFAULT
100
AcDbSpline
210
0.0
220
0.0
230
1.0
 70
    24
 71
     2
 72
     6
 73
     3
 74
     0
 42
0.0000000001
 43
0.0000000001
 40
0.0
 40
0.0
 40
0.0
 40
1.0
 40
1.0
 40
1.0
 10
20.72645999999736
 20
39.84863210150884
 30
0.0
 10
20.72645999999736
 20
39.70098960150884
 30
0.0
 10
20.72645999999736
 20
39.55334710150885
 30
0.0
  0
SPLINE
  5
15F
330
1F
100
AcDbEntity
  8
DEFAULT
100
AcDbSpline
210
0.0
220
0.0
230
1.0
 70
     8
 71
     3
 72
     9
 73
     5
 74
     0
 42
0.0000000001
 43
0.0000000001
 40
0.0
 40
0.0
 40
0.0
 40
0.0
 40
0.6355962817661
 40
1.0
 40
1.0
 40
1.0
 40
1.0
 10
12.5923736711074
 20
50.90997226969883
 30
0.0
 10
12.59698938029737
 20
50.91914423323887
 30
0.0
 10
12.60543637204739
 20
50.93300685889885
 30
0.0
 10
12.61555413741735
 20
50.94562474306885
 30
0.0
 10
12.61944546286736
 20
50.95004061261885
 30
0.0
  0
SPLINE
  5
160
330
1F
100
AcDbEntity
  8
DEFAULT
100
AcDbSpline
210
0.0
220
0.0
230
1.0
 70
     8
 71
     3
 72
     9
 73
     5
 74
     0
 42
0.0000000001
 43
0.0000000001
 40
0.0
 40
0.0
 40
0.0
 40
0.0
 40
0.4935380173814
 40
1.0
 40
1.0
 40
1.0
 40
1.0
 10
20.69168574062741
 20
39.86914493490885
 30
0.0
 10
20.68136391326743
 20
39.86349157628885
 30
0.0
 10
20.6593839821474
 20
39.85397596557884
 30
0.0
 10
20.63594791415738
 20
39.84876468163885
 30
0.0
 10
20.62396429275736
 20
39.84727924113885
 30
0.0
  0
SPLINE
  5
161
330
1F
100
AcDbEntity
  8
DEFAULT
100
AcDbSpline
210
0.0
220
0.0
230
1.0
 70
     8
 71
     3
 72
    10
 73
     6
 74
     0
 42
0.0000000001
 43
0.0000000001
 40
0.0
 40
0.0
 40
0.0
 40
0.0
 40
0.3333977887844
 40
0.6666153179594
 40
1.0
 40
1.0
 40
1.0
 40
1.0
 10
20.78884720494739
 20
40.59410739312885
 30
0.0
 10
20.79840846312743
 20
40.52954281535885
 30
0.0
 10
20.81121228676739
 20
40.39941846157885
 30
0.0
 10
20.81121248523743
 20
40.20336704880884
 30
0.0
 10
20.79840991937738
 20
40.07324516752885
 30
0.0
 10
20.78884929554738
 20
40.00868308969885
 30
0.0
  0
SPLINE
  5
162
330
1F
100
AcDbEntity
  8
DEFAULT
100
AcDbSpline
210
0.0
220
0.0
230
1.0
 70
     8
 71
     3
 72
    10
 73
     6
 74
     0
 42
0.0000000001
 43
0.0000000001
 40
0.0
 40
0.0
 40
0.0
 40
0.0
 40
0.3333963920218
 40
0.6666152796276
 40
1.0
 40
1.0
 40
1.0
 40
1.0
 10
0.7601199702884287
 20
33.50094258148884
 30
0.0
 10
0.7144350499203824
 20
33.54755608113885
 30
0.0
 10
0.6275918090793766
 20
33.64530263257885
 30
0.0
 10
0.5123560059533929
 20
33.80391075662885
 30
0.0
 10
0.4462298834433795
 20
33.91670646188885
 30
0.0
 10
0.4160160659313874
 20
33.97455762668885
 30
0.0
  0
SPLINE
  5
163
330
1F
100
AcDbEntity
  8
DEFAULT
100
AcDbSpline
210
0.0
220
0.0
230
1.0
 70
    24
 71
     2
 72
     6
 73
     3
 74
     0
 42
0.0000000001
 43
0.0000000001
 40
0.0
 40
0.0
 40
0.0
 40
1.0
 40
1.0
 40
1.0
 10
10.79839499999741
 20
50.13154510150885
 30
0.0
 10
11.5522739999974
 20
50.13154510150885
 30
0.0
 10
12.30615299999738
 20
50.13154510150885
 30
0.0
  0
ARC
  5
164
330
1F
100
AcDbEntity
  8
DEFAULT
100
AcDbCircle
 10
0.0
 20
0.0
 30
0.0
 40
1.279527939310224
100
AcDbArc
 50
15.76206956729271
 51
18.57560333516714
  0
ARC
  5
165
330
1F
100
AcDbEntity
  8
DEFAULT
100
AcDbCircle
 10
13.24425999999994
 20
0.5448949999999968
 30
0.0
 40
0.2362201456744931
100
AcDbArc
 50
283.2478113805399
 51
359.9999999999999
  0
SPLINE
  5
166
330
1F
100
AcDbEntity
  8
DEFAULT
100
AcDbSpline
210
0.0
220
0.0
230
1.0
 70
     8
 71
     3
 72
    11
 73
     7
 74
     0
 42
0.0000000001
 43
0.0000000001
 40
0.0
 40
0.0
 40
0.0
 40
0.0
 40
0.2500394730186
 40
0.5003140864778
 40
0.7504418471957
 40
1.0
 40
1.0
 40
1.0
 40
1.0
 10
13.44987436557739
 20
29.99458220808884
 30
0.0
 10
13.45473696220739
 20
29.97767154625885
 30
0.0
 10
13.45969946271737
 20
29.94226001379884
 30
0.0
 10
13.45218927808742
 20
29.88932290040884
 30
0.0
 10
13.43043408557742
 20
29.84047526825886
 30
0.0
 10
13.40762776447741
 20
29.81315134656884
 30
0.0
 10
13.3945730204274
 20
29.80129990260885
 30
0.0
  0
SPLINE
  5
167
330
1F
100
AcDbEntity
  8
DEFAULT
100
AcDbSpline
210
0.0
220
0.0
230
1.0
 70
     8
 71
     3
 72
     8
 73
     4
 74
     0
 42
0.0000000001
 43
0.0000000001
 40
0.0
 40
0.0
 40
0.0
 40
0.0
 40
1.0
 40
1.0
 40
1.0
 40
1.0
 10
13.3945730204274
 20
29.80129990260885
 30
0.0
 10
13.38156207847737
 20
29.78948822335884
 30
0.0
 10
13.36689770568739
 20
29.77945946246885
 30
0.0
 10
13.35122674432739
 20
29.77166335887385
 30
0.0
  0
SPLINE
  5
168
330
1F
100
AcDbEntity
  8
DEFAULT
100
AcDbSpline
210
0.0
220
0.0
230
1.0
 70
     8
 71
     3
 72
    10
 73
     6
 74
     0
 42
0.0000000001
 43
0.0000000001
 40
0.0
 40
0.0
 40
0.0
 40
0.0
 40
0.3750985454465
 40
0.7499960074013
 40
1.0
 40
1.0
 40
1.0
 40
1.0
 10
13.35122674432739
 20
29.77166335887385
 30
0.0
 10
13.29277703761738
 20
29.74261865264884
 30
0.0
 10
13.1729782797874
 20
29.69023102184885
 30
0.0
 10
13.00725195786742
 20
29.63638309179885
 30
0.0
 10
12.90131668286739
 20
29.61130827866884
 30
0.0
 10
12.85866471454739
 20
29.60267070422886
 30
0.0
  0
SPLINE
  5
169
330
1F
100
AcDbEntity
  8
DEFAULT
100
AcDbSpline
210
0.0
220
0.0
230
1.0
 70
     8
 71
     3
 72
     8
 73
     4
 74
     0
 42
0.0000000001
 43
0.0000000001
 40
0.0
 40
0.0
 40
0.0
 40
0.0
 40
1.0
 40
1.0
 40
1.0
 40
1.0
 10
12.85866471454739
 20
29.60267070422886
 30
0.0
 10
12.83732551352739
 20
29.59834924042885
 30
0.0
 10
12.81591860385743
 20
29.59437673192885
 30
0.0
 10
12.7944576681474
 20
29.59075588904885
 30
0.0
  0
SPLINE
  5
16A
330
1F
100
AcDbEntity
  8
DEFAULT
100
AcDbSpline
210
0.0
220
0.0
230
1.0
 70
    24
 71
     2
 72
     6
 73
     3
 74
     0
 42
0.0000000001
 43
0.0000000001
 40
0.0
 40
0.0
 40
0.0
 40
1.0
 40
1.0
 40
1.0
 10
-1.279528000002642
 20
46.97945010150885
 30
0.0
 10
-1.279528000002642
 20
46.62007960150885
 30
0.0
 10
-1.279528000002642
 20
46.26070910150885
 30
0.0
  0
SPLINE
  5
16B
330
1F
100
AcDbEntity
  8
DEFAULT
100
AcDbSpline
210
0.0
220
0.0
230
1.0
 70
    24
 71
     2
 72
     6
 73
     3
 74
     0
 42
0.0000000001
 43
0.0000000001
 40
0.0
 40
0.0
 40
0.0
 40
1.0
 40
1.0
 40
1.0
 10
-1.279528000002642
 20
33.52994110150884
 30
0.0
 10
-1.279528000002642
 20
33.38229860150884
 30
0.0
 10
-1.279528000002642
 20
33.23465610150885
 30
0.0
  0
SPLINE
  5
16C
330
1F
100
AcDbEntity
  8
DEFAULT
100
AcDbSpline
210
0.0
220
0.0
230
1.0
 70
     8
 71
     3
 72
    11
 73
     7
 74
     0
 42
0.0000000001
 43
0.0000000001
 40
0.0
 40
0.0
 40
0.0
 40
0.0
 40
0.2497018616245
 40
0.4998288154303
 40
0.7499563046188
 40
1.0
 40
1.0
 40
1.0
 40
1.0
 10
13.39455264716742
 20
50.80149493538885
 30
0.0
 10
13.40761850686738
 20
50.78963738284885
 30
0.0
 10
13.43043576041737
 20
50.76230200266885
 30
0.0
 10
13.4521903122174
 20
50.71344684972884
 30
0.0
 10
13.4596986329974
 20
50.66051353110886
 30
0.0
 10
13.45473757121738
 20
50.62510722767884
 30
0.0
 10
13.44987429369735
 20
50.60819408498885
 30
0.0
  0
SPLINE
  5
16D
330
1F
100
AcDbEntity
  8
DEFAULT
100
AcDbSpline
210
0.0
220
0.0
230
1.0
 70
     8
 71
     3
 72
    11
 73
     7
 74
     0
 42
0.0000000001
 43
0.0000000001
 40
0.0
 40
0.0
 40
0.0
 40
0.0
 40
0.2716450853917
 40
0.5444638113227
 40
0.8177469840014
 40
1.0
 40
1.0
 40
1.0
 40
1.0
 10
12.7944576668574
 20
29.59075589490885
 30
0.0
 10
12.77720133348737
 20
29.58785301740885
 30
0.0
 10
12.74161726930743
 20
29.58683252793885
 30
0.0
 10
12.68991594600743
 20
29.59986489236884
 30
0.0
 10
12.64874507086739
 20
29.62363190110885
 30
0.0
 10
12.6272337590874
 20
29.64389757356885
 30
0.0
 10
12.61944597546739
 20
29.65273507539885
 30
0.0
  0
SPLINE
  5
16E
330
1F
100
AcDbEntity
  8
DEFAULT
100
AcDbSpline
210
0.0
220
0.0
230
1.0
 70
     8
 71
     3
 72
    10
 73
     6
 74
     0
 42
0.0000000001
 43
0.0000000001
 40
0.0
 40
0.0
 40
0.0
 40
0.0
 40
0.4281270848459
 40
0.8569829541399
 40
1.0
 40
1.0
 40
1.0
 40
1.0
 10
20.77406731341739
 20
39.95831196809884
 30
0.0
 10
20.76682768272735
 20
39.94222142922885
 30
0.0
 10
20.74788111643738
 20
39.91207391262886
 30
0.0
 10
20.71697415793739
 20
39.88424209360885
 30
0.0
 10
20.69685016231739
 20
39.87197353558885
 30
0.0
 10
20.69168574062741
 20
39.86914493490885
 30
0.0
  0
ARC
  5
16F
330
1F
100
AcDbEntity
  8
DEFAULT
100
AcDbCircle
 10
-1.043307000002642
 20
45.87203910150885
 30
0.0
 40
0.2362210042417925
100
AcDbArc
 50
180.0
 51
265.3395701367957
  0
SPLINE
  5
170
330
1F
100
AcDbEntity
  8
DEFAULT
100
AcDbSpline
210
0.0
220
0.0
230
1.0
 70
    24
 71
     2
 72
     6
 73
     3
 74
     0
 42
0.0000000001
 43
0.0000000001
 40
0.0
 40
0.0
 40
0.0
 40
1.0
 40
1.0
 40
1.0
 10
0.5269549999974288
 20
34.34206710150885
 30
0.0
 10
-0.3762865000026068
 20
34.34206710150885
 30
0.0
 10
-1.279528000002642
 20
34.34206710150885
 30
0.0
  0
ARC
  5
171
330
1F
100
AcDbEntity
  8
DEFAULT
100
AcDbCircle
 10
12.94406199999742
 20
50.52524610150884
 30
0.0
 40
0.5364171456702272
100
AcDbArc
 50
126.2593273272782
 51
190.068567333684
  0
SPLINE
  5
172
330
1F
100
AcDbEntity
  8
DEFAULT
100
AcDbSpline
210
0.0
220
0.0
230
1.0
 70
    24
 71
     2
 72
     6
 73
     3
 74
     0
 42
0.0000000001
 43
0.0000000001
 40
0.0
 40
0.0
 40
0.0
 40
1.0
 40
1.0
 40
1.0
 10
-0.0000000000026148
 20
33.62332710150885
 30
0.0
 10
-0.0000000000026148
 20
33.98269710150885
 30
0.0
 10
-0.0000000000026148
 20
34.34206710150885
 30
0.0
  0
SPLINE
  5
173
330
1F
100
AcDbEntity
  8
DEFAULT
100
AcDbSpline
210
0.0
220
0.0
230
1.0
 70
     8
 71
     3
 72
     8
 73
     4
 74
     0
 42
0.0000000001
 43
0.0000000001
 40
0.0
 40
0.0
 40
0.0
 40
0.0
 40
1.0
 40
1.0
 40
1.0
 40
1.0
 10
20.6073732856774
 20
40.75680992577885
 30
0.0
 10
20.61908857363738
 20
40.75640792148884
 30
0.0
 10
20.63080878088738
 20
40.75489061423885
 30
0.0
 10
20.64229461871741
 20
40.75230391651884
 30
0.0
  0
SPLINE
  5
174
330
1F
100
AcDbEntity
  8
DEFAULT
100
AcDbSpline
210
0.0
220
0.0
230
1.0
 70
    24
 71
     2
 72
     6
 73
     3
 74
     0
 42
0.0000000001
 43
0.0000000001
 40
0.0
 40
0.0
 40
0.0
 40
1.0
 40
1.0
 40
1.0
 10
-1.279528000002642
 20
34.73073710150885
 30
0.0
 10
-1.279528000002642
 20
34.58309510150885
 30
0.0
 10
-1.279528000002642
 20
34.43545310150886
 30
0.0
  0
SPLINE
  5
175
330
1F
100
AcDbEntity
  8
DEFAULT
100
AcDbSpline
210
0.0
220
0.0
230
1.0
 70
    24
 71
     2
 72
     6
 73
     3
 74
     0
 42
0.0000000001
 43
0.0000000001
 40
0.0
 40
0.0
 40
0.0
 40
1.0
 40
1.0
 40
1.0
 10
12.30615399999738
 20
30.47123110150885
 30
0.0
 10
11.5522744999974
 20
30.47123110150885
 30
0.0
 10
10.79839499999741
 20
30.47123110150885
 30
0.0
  0
ARC
  5
176
330
1F
100
AcDbEntity
  8
DEFAULT
100
AcDbCircle
 10
12.94406199999742
 20
30.07753110150885
 30
0.0
 40
0.5364171269626883
100
AcDbArc
 50
169.9322926763974
 51
233.7404372445394
  0
ARC
  5
177
330
1F
100
AcDbEntity
  8
DEFAULT
100
AcDbCircle
 10
1.043306999997412
 20
45.87203910150885
 30
0.0
 40
0.2362208002419728
100
AcDbArc
 50
274.6604298632045
 51
334.6269312573353
  0
SPLINE
  5
178
330
1F
100
AcDbEntity
  8
DEFAULT
100
AcDbSpline
210
0.0
220
0.0
230
1.0
 70
    24
 71
     2
 72
     6
 73
     3
 74
     0
 42
0.0000000001
 43
0.0000000001
 40
0.0
 40
0.0
 40
0.0
 40
1.0
 40
1.0
 40
1.0
 10
10.73933799999736
 20
29.62477510150885
 30
0.0
 10
10.73933799999736
 20
29.47713260150885
 30
0.0
 10
10.73933799999736
 20
29.32949010150885
 30
0.0
  0
SPLINE
  5
179
330
1F
100
AcDbEntity
  8
DEFAULT
100
AcDbSpline
210
0.0
220
0.0
230
1.0
 70
    24
 71
     2
 72
     6
 73
     3
 74
     0
 42
0.0000000001
 43
0.0000000001
 40
0.0
 40
0.0
 40
0.0
 40
1.0
 40
1.0
 40
1.0
 10
13.29839299999742
 20
51.27328610150884
 30
0.0
 10
13.29839299999742
 20
51.12564410150884
 30
0.0
 10
13.29839299999742
 20
50.97800210150884
 30
0.0
  0
SPLINE
  5
17A
330
1F
100
AcDbEntity
  8
DEFAULT
100
AcDbSpline
210
0.0
220
0.0
230
1.0
 70
    24
 71
     2
 72
     6
 73
     3
 74
     0
 42
0.0000000001
 43
0.0000000001
 40
0.0
 40
0.0
 40
0.0
 40
1.0
 40
1.0
 40
1.0
 10
10.73933799999736
 20
50.88461610150885
 30
0.0
 10
10.73933799999736
 20
50.52524610150886
 30
0.0
 10
10.73933799999736
 20
50.16587610150886
 30
0.0
  0
SPLINE
  5
17B
330
1F
100
AcDbEntity
  8
DEFAULT
100
AcDbSpline
210
0.0
220
0.0
230
1.0
 70
     8
 71
     3
 72
     9
 73
     5
 74
     0
 42
0.0000000001
 43
0.0000000001
 40
0.0
 40
0.0
 40
0.0
 40
0.0
 40
0.400659934113
 40
1.0
 40
1.0
 40
1.0
 40
1.0
 10
0.3943856528084098
 20
46.54380668675884
 30
0.0
 10
0.3946366635364029
 20
46.55553934371885
 30
0.0
 10
0.3979545680073784
 20
46.58476907031884
 30
0.0
 10
0.4079142639793645
 20
46.61268873466885
 30
0.0
 10
0.4160101911053857
 20
46.62820747053885
 30
0.0
  0
ARC
  5
17C
330
1F
100
AcDbEntity
  8
DEFAULT
100
AcDbCircle
 10
1.220471999997358
 20
33.52994110150884
 30
0.0
 40
0.0590554617686662
100
AcDbArc
 50
0.0
 51
40.3214756955514
  0
ARC
  5
17D
330
1F
100
AcDbEntity
  8
DEFAULT
100
AcDbCircle
 10
20.66740499999742
 20
39.84863210150884
 30
0.0
 40
0.0590553617749413
100
AcDbArc
 50
0.0
 51
36.98709771682563
  0
SPLINE
  5
17E
330
1F
100
AcDbEntity
  8
DEFAULT
100
AcDbSpline
210
0.0
220
0.0
230
1.0
 70
    24
 71
     2
 72
     6
 73
     3
 74
     0
 42
0.0000000001
 43
0.0000000001
 40
0.0
 40
0.0
 40
0.0
 40
1.0
 40
1.0
 40
1.0
 10
12.54581999999738
 20
50.88461610150885
 30
0.0
 10
11.64257899999737
 20
50.88461610150885
 30
0.0
 10
10.73933799999736
 20
50.88461610150885
 30
0.0
  0
SPLINE
  5
17F
330
1F
100
AcDbEntity
  8
DEFAULT
100
AcDbSpline
210
0.0
220
0.0
230
1.0
 70
    24
 71
     2
 72
     6
 73
     3
 74
     0
 42
0.0000000001
 43
0.0000000001
 40
0.0
 40
0.0
 40
0.0
 40
1.0
 40
1.0
 40
1.0
 10
3.416234999997414
 20
35.09780510150885
 30
0.0
 10
2.209423999997398
 20
34.28690660150885
 30
0.0
 10
1.002612999997382
 20
33.47600810150884
 30
0.0
  0
SPLINE
  5
180
330
1F
100
AcDbEntity
  8
DEFAULT
100
AcDbSpline
210
0.0
220
0.0
230
1.0
 70
     8
 71
     3
 72
    11
 73
     7
 74
     0
 42
0.0000000001
 43
0.0000000001
 40
0.0
 40
0.0
 40
0.0
 40
0.0
 40
0.182353338924
 40
0.4556180219686
 40
0.728260423691
 40
1.0
 40
1.0
 40
1.0
 40
1.0
 10
12.61944546286736
 20
50.95004061261885
 30
0.0
 10
12.62723707428739
 20
50.95888252008884
 30
0.0
 10
12.64875202390738
 20
50.97914994616885
 30
0.0
 10
12.68991678985742
 20
51.00290970942883
 30
0.0
 10
12.74160692253736
 20
51.01594093173885
 30
0.0
 10
12.77718451145739
 20
51.01492669604885
 30
0.0
 10
12.79444576741741
 20
51.01202247604884
 30
0.0
  0
SPLINE
  5
181
330
1F
100
AcDbEntity
  8
DEFAULT
100
AcDbSpline
210
0.0
220
0.0
230
1.0
 70
    24
 71
     2
 72
     6
 73
     3
 74
     0
 42
0.0000000001
 43
0.0000000001
 40
0.0
 40
0.0
 40
0.0
 40
1.0
 40
1.0
 40
1.0
 10
2.755703999997422
 20
44.59538910150884
 30
0.0
 10
1.61146699999739
 20
45.49263310150884
 30
0.0
 10
0.4672299999973575
 20
46.38987710150884
 30
0.0
  0
SPLINE
  5
182
330
1F
100
AcDbEntity
  8
DEFAULT
100
AcDbSpline
210
0.0
220
0.0
230
1.0
 70
     8
 71
     3
 72
     9
 73
     5
 74
     0
 42
0.0000000001
 43
0.0000000001
 40
0.0
 40
0.0
 40
0.0
 40
0.0
 40
0.6723904811073
 40
1.0
 40
1.0
 40
1.0
 40
1.0
 10
0.4545504093513841
 20
46.40071422434885
 30
0.0
 10
0.4457266859143942
 20
46.40896062857885
 30
0.0
 10
0.4337489866663873
 20
46.42251259887885
 30
0.0
 10
0.423876445550377
 20
46.43755607627885
 30
0.0
 10
0.4208786359884016
 20
46.44262265539885
 30
0.0
  0
SPLINE
  5
183
330
1F
100
AcDbEntity
  8
DEFAULT
100
AcDbSpline
210
0.0
220
0.0
230
1.0
 70
    24
 71
     2
 72
     6
 73
     3
 74
     0
 42
0.0000000001
 43
0.0000000001
 40
0.0
 40
0.0
 40
0.0
 40
1.0
 40
1.0
 40
1.0
 10
12.31871699999738
 20
50.16587610150886
 30
0.0
 10
11.52902749999737
 20
50.16587610150886
 30
0.0
 10
10.73933799999736
 20
50.16587610150886
 30
0.0
  0
SPLINE
  5
184
330
1F
100
AcDbEntity
  8
DEFAULT
100
AcDbSpline
210
0.0
220
0.0
230
1.0
 70
    24
 71
     2
 72
     6
 73
     3
 74
     0
 42
0.0000000001
 43
0.0000000001
 40
0.0
 40
0.0
 40
0.0
 40
1.0
 40
1.0
 40
1.0
 10
13.29839299999742
 20
30.53028610150885
 30
0.0
 10
13.29784149999739
 20
30.53028610150885
 30
0.0
 10
13.29728999999736
 20
30.53028610150885
 30
0.0
  0
ARC
  5
185
330
1F
100
AcDbEntity
  8
DEFAULT
100
AcDbCircle
 10
18.40362599999742
 20
39.55334710150885
 30
0.0
 40
0.2362200175715418
100
AcDbArc
 50
261.1583505459553
 51
265.3395504293518
  0
SPLINE
  5
186
330
1F
100
AcDbEntity
  8
DEFAULT
100
AcDbSpline
210
0.0
220
0.0
230
1.0
 70
     8
 71
     3
 72
     9
 73
     5
 74
     0
 42
0.0000000001
 43
0.0000000001
 40
0.0
 40
0.0
 40
0.0
 40
0.0
 40
0.2503757633505
 40
1.0
 40
1.0
 40
1.0
 40
1.0
 10
0.8173604801473857
 20
33.46085329612885
 30
0.0
 10
0.8120231128293653
 20
33.46328470310884
 30
0.0
 10
0.7911459808933614
 20
33.47397670206884
 30
0.0
 10
0.772377186932431
 20
33.48844760841885
 30
0.0
 10
0.7601199775074292
 20
33.50094258793885
 30
0.0
  0
ARC
  5
187
330
1F
100
AcDbEntity
  8
DEFAULT
100
AcDbCircle
 10
1.043306999997412
 20
34.73073710150885
 30
0.0
 40
0.2362208002419703
100
AcDbArc
 50
25.37306874266321
 51
85.3395701367955
  0
ARC
  5
188
330
1F
100
AcDbEntity
  8
DEFAULT
100
AcDbCircle
 10
-1.220472000002587
 20
34.43545310150886
 30
0.0
 40
0.0590560000000009
100
AcDbArc
 50
180.0
 51
270.0
  0
ARC
  5
189
330
1F
100
AcDbEntity
  8
DEFAULT
100
AcDbCircle
 10
13.06217199999742
 20
30.82557110150886
 30
0.0
 40
0.2362212158982621
100
AcDbArc
 50
0.0
 51
67.93618295880017
  0
SPLINE
  5
18A
330
1F
100
AcDbEntity
  8
DEFAULT
100
AcDbSpline
210
0.0
220
0.0
230
1.0
 70
    24
 71
     2
 72
     6
 73
     3
 74
     0
 42
0.0000000001
 43
0.0000000001
 40
0.0
 40
0.0
 40
0.0
 40
1.0
 40
1.0
 40
1.0
 10
13.29839299999742
 20
50.07249010150885
 30
0.0
 10
13.29839299999742
 20
49.92484760150884
 30
0.0
 10
13.29839299999742
 20
49.77720510150884
 30
0.0
  0
SPLINE
  5
18B
330
1F
100
AcDbEntity
  8
DEFAULT
100
AcDbSpline
210
0.0
220
0.0
230
1.0
 70
    24
 71
     2
 72
     6
 73
     3
 74
     0
 42
0.0000000001
 43
0.0000000001
 40
0.0
 40
0.0
 40
0.0
 40
1.0
 40
1.0
 40
1.0
 10
8.547128999999927
 20
10.84173399999999
 30
0.0
 10
8.547128999999927
 20
10.504234
 30
0.0
 10
8.547128999999927
 20
10.16673400000001
 30
0.0
  0
SPLINE
  5
18C
330
1F
100
AcDbEntity
  8
DEFAULT
100
AcDbSpline
210
0.0
220
0.0
230
1.0
 70
    24
 71
     2
 72
     6
 73
     3
 74
     0
 42
0.0000000001
 43
0.0000000001
 40
0.0
 40
0.0
 40
0.0
 40
1.0
 40
1.0
 40
1.0
 10
8.622128999999973
 20
4.308027999999993
 30
0.0
 10
8.622128999999973
 20
7.199880999999991
 30
0.0
 10
8.622128999999973
 20
10.09173399999999
 30
0.0
  0
SPLINE
  5
18D
330
1F
100
AcDbEntity
  8
DEFAULT
100
AcDbSpline
210
0.0
220
0.0
230
1.0
 70
    24
 71
     2
 72
     6
 73
     3
 74
     0
 42
0.0000000001
 43
0.0000000001
 40
0.0
 40
0.0
 40
0.0
 40
1.0
 40
1.0
 40
1.0
 10
8.747128999999973
 20
17.75319599999999
 30
0.0
 10
8.747128999999973
 20
14.34746499999999
 30
0.0
 10
8.747128999999973
 20
10.941734
 30
0.0
  0
SPLINE
  5
18E
330
1F
100
AcDbEntity
  8
DEFAULT
100
AcDbSpline
210
0.0
220
0.0
230
1.0
 70
    24
 71
     2
 72
     6
 73
     3
 74
     0
 42
0.0000000001
 43
0.0000000001
 40
0.0
 40
0.0
 40
0.0
 40
1.0
 40
1.0
 40
1.0
 10
8.622128999999973
 20
10.09173399999999
 30
0.0
 10
8.58462899999995
 20
10.129234
 30
0.0
 10
8.547128999999927
 20
10.16673400000001
 30
0.0
  0
SPLINE
  5
18F
330
1F
100
AcDbEntity
  8
DEFAULT
100
AcDbSpline
210
0.0
220
0.0
230
1.0
 70
    24
 71
     2
 72
     6
 73
     3
 74
     0
 42
0.0000000001
 43
0.0000000001
 40
0.0
 40
0.0
 40
0.0
 40
1.0
 40
1.0
 40
1.0
 10
10.49712899999997
 20
17.75319599999999
 30
0.0
 10
10.49712899999997
 20
14.34746499999999
 30
0.0
 10
10.49712899999997
 20
10.941734
 30
0.0
  0
CIRCLE
  5
190
330
1F
100
AcDbEntity
  8
DEFAULT
100
AcDbCircle
 10
9.622129999997355
 20
40.30138810150885
 30
0.0
 40
8.099999999999998
  0
SPLINE
  5
191
330
1F
100
AcDbEntity
  8
DEFAULT
100
AcDbSpline
210
0.0
220
0.0
230
1.0
 70
    24
 71
     2
 72
     6
 73
     3
 74
     0
 42
0.0000000001
 43
0.0000000001
 40
0.0
 40
0.0
 40
0.0
 40
1.0
 40
1.0
 40
1.0
 10
10.69712899999996
 20
10.84173399999999
 30
0.0
 10
10.69712899999996
 20
10.504234
 30
0.0
 10
10.69712899999996
 20
10.16673400000001
 30
0.0
  0
SPLINE
  5
192
330
1F
100
AcDbEntity
  8
DEFAULT
100
AcDbSpline
210
0.0
220
0.0
230
1.0
 70
    24
 71
     2
 72
     6
 73
     3
 74
     0
 42
0.0000000001
 43
0.0000000001
 40
0.0
 40
0.0
 40
0.0
 40
1.0
 40
1.0
 40
1.0
 10
0.5269549999974288
 20
46.26070910150885
 30
0.0
 10
-0.3762865000026068
 20
46.26070910150885
 30
0.0
 10
-1.279528000002642
 20
46.26070910150885
 30
0.0
  0
ARC
  5
193
330
1F
100
AcDbEntity
  8
DEFAULT
100
AcDbCircle
 10
1.043306999997412
 20
33.23465610150885
 30
0.0
 40
0.2362210042417907
100
AcDbArc
 50
274.6604298632045
 51
0.0
  0
ARC
  5
194
330
1F
100
AcDbEntity
  8
DEFAULT
100
AcDbCircle
 10
20.37212999999736
 20
40.30138810150885
 30
0.0
 40
0.5364170229674708
100
AcDbArc
 50
241.9682712379578
 51
305.8009242109369
  0
ARC
  5
195
330
1F
100
AcDbEntity
  8
DEFAULT
100
AcDbCircle
 10
-1.220472000002587
 20
47.07283510150884
 30
0.0
 40
0.0590555000000004
100
AcDbArc
 50
180.0
 51
270.0
  0
SPLINE
  5
196
330
1F
100
AcDbEntity
  8
DEFAULT
100
AcDbSpline
210
0.0
220
0.0
230
1.0
 70
     8
 71
     3
 72
     8
 73
     4
 74
     0
 42
0.0000000001
 43
0.0000000001
 40
0.0
 40
0.0
 40
0.0
 40
0.0
 40
1.0
 40
1.0
 40
1.0
 40
1.0
 10
20.77405604025739
 20
40.64448945353885
 30
0.0
 10
20.78126890252736
 20
40.62846559003884
 30
0.0
 10
20.78627526068738
 20
40.61142019005885
 30
0.0
 10
20.78884719481744
 20
40.59410739207884
 30
0.0
  0
ARC
  5
197
330
1F
100
AcDbEntity
  8
DEFAULT
100
AcDbCircle
 10
10.79839299999742
 20
30.53028610150885
 30
0.0
 40
0.0590549999999981
100
AcDbArc
 50
180.0
 51
270.0
  0
SPLINE
  5
198
330
1F
100
AcDbEntity
  8
DEFAULT
100
AcDbSpline
210
0.0
220
0.0
230
1.0
 70
    24
 71
     2
 72
     6
 73
     3
 74
     0
 42
0.0000000001
 43
0.0000000001
 40
0.0
 40
0.0
 40
0.0
 40
1.0
 40
1.0
 40
1.0
 10
-1.22047100000259
 20
33.58899610150884
 30
0.0
 10
-0.329807000002603
 20
33.58899610150884
 30
0.0
 10
0.5608569999973838
 20
33.58899610150884
 30
0.0
  0
ARC
  5
199
330
1F
100
AcDbEntity
  8
DEFAULT
100
AcDbCircle
 10
-1.043307000002642
 20
34.73073710150885
 30
0.0
 40
0.2362210042417907
100
AcDbArc
 50
94.6604298632045
 51
180.0
  0
SPLINE
  5
19A
330
1F
100
AcDbEntity
  8
DEFAULT
100
AcDbSpline
210
0.0
220
0.0
230
1.0
 70
    24
 71
     2
 72
     6
 73
     3
 74
     0
 42
0.0000000001
 43
0.0000000001
 40
0.0
 40
0.0
 40
0.0
 40
1.0
 40
1.0
 40
1.0
 10
20.72645999999736
 20
41.04942910150885
 30
0.0
 10
20.72645999999736
 20
40.90178660150885
 30
0.0
 10
20.72645999999736
 20
40.75414410150884
 30
0.0
  0
ARC
  5
19B
330
1F
100
AcDbEntity
  8
DEFAULT
100
AcDbCircle
 10
10.97555799999736
 20
51.27328610150884
 30
0.0
 40
0.2362205042417886
100
AcDbArc
 50
94.66042986320434
 51
180.0
  0
ARC
  5
19C
330
1F
100
AcDbEntity
  8
DEFAULT
100
AcDbCircle
 10
0.9251969999974108
 20
46.62008010150885
 30
0.0
 40
0.5364172571777788
100
AcDbArc
 50
99.74285866402742
 51
188.1418695196075
  0
SPLINE
  5
19D
330
1F
100
AcDbEntity
  8
DEFAULT
100
AcDbSpline
210
0.0
220
0.0
230
1.0
 70
    24
 71
     2
 72
     6
 73
     3
 74
     0
 42
0.0000000001
 43
0.0000000001
 40
0.0
 40
0.0
 40
0.0
 40
1.0
 40
1.0
 40
1.0
 10
12.57972299999739
 20
50.91894610150884
 30
0.0
 10
11.6890589999974
 20
50.91894610150884
 30
0.0
 10
10.79839499999741
 20
50.91894610150884
 30
0.0
  0
SPLINE
  5
19E
330
1F
100
AcDbEntity
  8
DEFAULT
100
AcDbSpline
210
0.0
220
0.0
230
1.0
 70
    24
 71
     2
 72
     6
 73
     3
 74
     0
 42
0.0000000001
 43
0.0000000001
 40
0.0
 40
0.0
 40
0.0
 40
1.0
 40
1.0
 40
1.0
 10
-1.062500000002615
 20
34.96617710150885
 30
0.0
 10
-0.0000000000026148
 20
34.96617710150885
 30
0.0
 10
1.062499999997385
 20
34.96617710150885
 30
0.0
  0
ARC
  5
19F
330
1F
100
AcDbEntity
  8
DEFAULT
100
AcDbCircle
 10
-1.043307000002642
 20
47.36812010150885
 30
0.0
 40
0.2362210042417925
100
AcDbArc
 50
94.6604298632043
 51
180.0
  0
SPLINE
  5
1A0
330
1F
100
AcDbEntity
  8
DEFAULT
100
AcDbSpline
210
0.0
220
0.0
230
1.0
 70
    24
 71
     2
 72
     6
 73
     3
 74
     0
 42
0.0000000001
 43
0.0000000001
 40
0.0
 40
0.0
 40
0.0
 40
1.0
 40
1.0
 40
1.0
 10
1.46161399999994
 20
1.441068000000001
 30
0.0
 10
1.46161399999994
 20
0.9929814999999991
 30
0.0
 10
1.46161399999994
 20
0.5448949999999968
 30
0.0
  0
SPLINE
  5
1A1
330
1F
100
AcDbEntity
  8
DEFAULT
100
AcDbSpline
210
0.0
220
0.0
230
1.0
 70
     8
 71
     3
 72
     8
 73
     4
 74
     0
 42
0.0000000001
 43
0.0000000001
 40
0.0
 40
0.0
 40
0.0
 40
0.0
 40
0.9854228229731457
 40
0.9854228229731457
 40
0.9854228229731457
 40
0.9854228229731457
 10
15.78501510263698
 20
19.55780300489074
 30
0.0
 10
14.49204821801516
 20
19.53721208291989
 30
0.0
 10
12.70390283246661
 20
19.23901927697121
 30
0.0
 10
10.49538619893497
 20
17.75319599999999
 30
0.0
  0
SPLINE
  5
1A2
330
1F
100
AcDbEntity
  8
DEFAULT
100
AcDbSpline
210
0.0
220
0.0
230
1.0
 70
     8
 71
     3
 72
     8
 73
     4
 74
     0
 42
0.0000000001
 43
0.0000000001
 40
0.0
 40
0.0
 40
0.0
 40
0.0
 40
0.9854228229731458
 40
0.9854228229731458
 40
0.9854228229731458
 40
0.9854228229731458
 10
3.459243897362967
 20
19.55780300489074
 30
0.0
 10
4.752210781984786
 20
19.53721208291989
 30
0.0
 10
6.540356167533275
 20
19.23901927697121
 30
0.0
 10
8.748872801064977
 20
17.75319599999999
 30
0.0
  0
ARC
  5
1A3
330
1F
100
AcDbEntity
  8
DEFAULT
100
AcDbCircle
 10
10.79839299999742
 20
29.62477510150885
 30
0.0
 40
0.0590549999999981
100
AcDbArc
 50
90.0
 51
180.0
  0
SPLINE
  5
1A4
330
1F
100
AcDbEntity
  8
DEFAULT
100
AcDbSpline
210
0.0
220
0.0
230
1.0
 70
    24
 71
     2
 72
     6
 73
     3
 74
     0
 42
0.0000000001
 43
0.0000000001
 40
0.0
 40
0.0
 40
0.0
 40
1.0
 40
1.0
 40
1.0
 10
0.4671909999973991
 20
34.21286810150885
 30
0.0
 10
1.611447499997411
 20
35.11012760150885
 30
0.0
 10
2.755703999997422
 20
36.00738710150885
 30
0.0
  0
ARC
  5
1A5
330
1F
100
AcDbEntity
  8
DEFAULT
100
AcDbCircle
 10
20.49023999999736
 20
41.04942910150885
 30
0.0
 40
0.2362200058949277
100
AcDbArc
 50
0.0
 51
85.33955042935268
  0
SPLINE
  5
1A6
330
1F
100
AcDbEntity
  8
DEFAULT
100
AcDbSpline
210
0.0
220
0.0
230
1.0
 70
     8
 71
     3
 72
     9
 73
     5
 74
     0
 42
0.0000000001
 43
0.0000000001
 40
0.0
 40
0.0
 40
0.0
 40
0.0
 40
0.3275070810799
 40
1.0
 40
1.0
 40
1.0
 40
1.0
 10
0.4208803211723762
 20
34.16015600488885
 30
0.0
 10
0.4238763861624193
 20
34.16521948083884
 30
0.0
 10
0.4337456733453564
 20
34.18025884464885
 30
0.0
 10
0.4457181842603859
 20
34.19380850649885
 30
0.0
 10
0.454540178180423
 20
34.20205415541885
 30
0.0
  0
SPLINE
  5
1A7
330
1F
100
AcDbEntity
  8
DEFAULT
100
AcDbSpline
210
0.0
220
0.0
230
1.0
 70
    24
 71
     2
 72
     6
 73
     3
 74
     0
 42
0.0000000001
 43
0.0000000001
 40
0.0
 40
0.0
 40
0.0
 40
1.0
 40
1.0
 40
1.0
 10
1.279527999999971
 20
0.3149609999999967
 30
0.0
 10
1.279527999999971
 20
0.1574804999999984
 30
0.0
 10
1.279527999999971
 20
0.0
 30
0.0
  0
SPLINE
  5
1A8
330
1F
100
AcDbEntity
  8
DEFAULT
100
AcDbSpline
210
0.0
220
0.0
230
1.0
 70
    24
 71
     2
 72
     6
 73
     3
 74
     0
 42
0.0000000001
 43
0.0000000001
 40
0.0
 40
0.0
 40
0.0
 40
1.0
 40
1.0
 40
1.0
 10
12.423269
 20
1.456693000000001
 30
0.0
 10
12.94406149999998
 20
1.456693000000001
 30
0.0
 10
13.46485399999995
 20
1.456693000000001
 30
0.0
  0
ARC
  5
1A9
330
1F
100
AcDbEntity
  8
DEFAULT
100
AcDbCircle
 10
0.9251969999974108
 20
33.98269710150885
 30
0.0
 40
0.5364176929571642
100
AcDbArc
 50
171.8583419509514
 51
260.257054140064
  0
ENDSEC
  0
SECTION
  2
OBJECTS
  0
DICTIONARY
  5
C
330
0
100
AcDbDictionary
281
     1
  3
ACAD_GROUP
350
D
  3
ACAD_LAYOUT
350
1A
  3
ACAD_MLEADERSTYLE
350
1AB
  3
ACAD_MLINESTYLE
350
17
  3
ACAD_PLOTSETTINGS
350
19
  3
ACAD_PLOTSTYLENAME
350
E
  3
ACAD_SCALELIST
350
3B
  3
ACAD_TABLESTYLE
350
1AA
  3
ACAD_VISUALSTYLE
350
2A
  0
DICTIONARY
  5
D
102
{ACAD_REACTORS
330
C
102
}
330
C
100
AcDbDictionary
281
     1
  0
DICTIONARY
  5
1A
102
{ACAD_REACTORS
330
C
102
}
330
C
100
AcDbDictionary
281
     1
  3
Layout1
350
1E
  3
Layout2
350
26
  3
Model
350
22
  0
DICTIONARY
  5
1AB
102
{ACAD_REACTORS
330
C
102
}
330
C
100
AcDbDictionary
281
     1
  0
DICTIONARY
  5
17
102
{ACAD_REACTORS
330
C
102
}
330
C
100
AcDbDictionary
281
     1
  3
Standard
350
18
  0
DICTIONARY
  5
19
102
{ACAD_REACTORS
330
C
102
}
330
C
100
AcDbDictionary
281
     1
  0
ACDBDICTIONARYWDFLT
  5
E
102
{ACAD_REACTORS
330
C
102
}
330
C
100
AcDbDictionary
281
     1
  3
Normal
350
F
100
AcDbDictionaryWithDefault
340
F
  0
DICTIONARY
  5
3B
102
{ACAD_REACTORS
330
C
102
}
330
C
100
AcDbDictionary
281
     1
  3
A0
350
3C
  3
A1
350
3D
  3
A2
350
3E
  3
A3
350
3F
  3
A4
350
40
  3
A5
350
41
  3
A6
350
42
  3
A7
350
43
  3
A8
350
44
  3
A9
350
45
  3
B0
350
46
  3
B1
350
47
  3
B2
350
48
  3
B3
350
49
  3
B4
350
4A
  3
B5
350
4B
  3
B6
350
4C
  3
B7
350
4D
  3
B8
350
4E
  3
B9
350
4F
  3
C0
350
50
  3
C1
350
51
  3
C2
350
52
  3
C3
350
53
  3
C4
350
54
  3
C5
350
55
  3
C6
350
56
  3
C7
350
57
  3
C8
350
58
  3
C9
350
59
  3
D0
350
5A
  3
D1
350
5B
  3
D2
350
5C
  0
DICTIONARY
  5
1AA
102
{ACAD_REACTORS
330
C
102
}
330
C
100
AcDbDictionary
281
     1
  0
DICTIONARY
  5
2A
102
{ACAD_REACTORS
330
C
102
}
330
C
100
AcDbDictionary
281
     1
  3
2dWireframe
350
2F
  3
3D Hidden
350
31
  3
3dWireframe
350
30
  3
Basic
350
32
  3
Brighten
350
36
  3
ColorChange
350
3A
  3
Conceptual
350
34
  3
Dim
350
35
  3
Facepattern
350
39
  3
Flat
350
2B
  3
FlatWithEdges
350
2C
  3
Gouraud
350
2D
  3
GouraudWithEdges
350
2E
  3
Linepattern
350
38
  3
Realistic
350
33
  3
Thicken
350
37
  0
LAYOUT
  5
1E
102
{ACAD_REACTORS
330
1A
102
}
330
1A
100
AcDbPlotSettings
  1

  2
none_device
  4

  6

 40
0.0
 41
0.0
 42
0.0
 43
0.0
 44
0.0
 45
0.0
 46
0.0
 47
0.0
 48
0.0
 49
0.0
140
0.0
141
0.0
142
1.0
143
1.0
 70
   688
 72
     0
 73
     0
 74
     5
  7

 75
    16
 76
     0
 77
     2
 78
   300
147
1.0
148
0.0
149
0.0
100
AcDbLayout
  1
Layout1
 70
     1
 71
     1
 10
0.0
 20
0.0
 11
12.0
 21
9.0
 12
0.0
 22
0.0
 32
0.0
 14
1.000000000000000E+20
 24
1.000000000000000E+20
 34
1.000000000000000E+20
 15
-1.000000000000000E+20
 25
-1.000000000000000E+20
 35
-1.000000000000000E+20
146
0.0
 13
0.0
 23
0.0
 33
0.0
 16
1.0
 26
0.0
 36
0.0
 17
0.0
 27
1.0
 37
0.0
 76
     0
330
1B
  0
LAYOUT
  5
26
102
{ACAD_REACTORS
330
1A
102
}
330
1A
100
AcDbPlotSettings
  1

  2
none_device
  4

  6

 40
0.0
 41
0.0
 42
0.0
 43
0.0
 44
0.0
 45
0.0
 46
0.0
 47
0.0
 48
0.0
 49
0.0
140
0.0
141
0.0
142
1.0
143
1.0
 70
   688
 72
     0
 73
     0
 74
     5
  7

 75
    16
 76
     0
 77
     2
 78
   300
147
1.0
148
0.0
149
0.0
100
AcDbLayout
  1
Layout2
 70
     1
 71
     2
 10
0.0
 20
0.0
 11
0.0
 21
0.0
 12
0.0
 22
0.0
 32
0.0
 14
0.0
 24
0.0
 34
0.0
 15
0.0
 25
0.0
 35
0.0
146
0.0
 13
0.0
 23
0.0
 33
0.0
 16
1.0
 26
0.0
 36
0.0
 17
0.0
 27
1.0
 37
0.0
 76
     0
330
23
  0
LAYOUT
  5
22
102
{ACAD_REACTORS
330
1A
102
}
330
1A
100
AcDbPlotSettings
  1

  2
none_device
  4

  6

 40
0.0
 41
0.0
 42
0.0
 43
0.0
 44
0.0
 45
0.0
 46
0.0
 47
0.0
 48
0.0
 49
0.0
140
0.0
141
0.0
142
1.0
143
1.0
 70
  1712
 72
     0
 73
     0
 74
     0
  7

 75
     0
 76
     0
 77
     2
 78
   300
147
1.0
148
0.0
149
0.0
100
AcDbLayout
  1
Model
 70
     1
 71
     0
 10
0.0
 20
0.0
 11
12.0
 21
9.0
 12
0.0
 22
0.0
 32
0.0
 14
-1.279528004244434
 24
-1.279528000000001
 34
0.0
 15
20.90854714567449
 25
51.50872610150886
 35
0.0
146
0.0
 13
0.0
 23
0.0
 33
0.0
 16
1.0
 26
0.0
 36
0.0
 17
0.0
 27
1.0
 37
0.0
 76
     0
330
1F
331
29
  0
MLINESTYLE
  5
18
102
{ACAD_REACTORS
330
17
102
}
330
17
100
AcDbMlineStyle
  2
Standard
 70
     0
  3

 62
   256
 51
90.0
 52
90.0
 71
     2
 49
0.5
 62
   256
  6
BYLAYER
 49
-0.5
 62
   256
  6
BYLAYER
  0
ACDBPLACEHOLDER
  5
F
102
{ACAD_REACTORS
330
E
102
}
330
E
  0
SCALE
  5
3C
102
{ACAD_REACTORS
330
3B
102
}
330
3B
100
AcDbScale
 70
     0
300
1:1
140
1.0
141
1.0
290
     1
  0
SCALE
  5
3D
102
{ACAD_REACTORS
330
3B
102
}
330
3B
100
AcDbScale
 70
     0
300
1:2
140
1.0
141
2.0
290
     0
  0
SCALE
  5
3E
102
{ACAD_REACTORS
330
3B
102
}
330
3B
100
AcDbScale
 70
     0
300
1:4
140
1.0
141
4.0
290
     0
  0
SCALE
  5
3F
102
{ACAD_REACTORS
330
3B
102
}
330
3B
100
AcDbScale
 70
     0
300
1:5
140
1.0
141
5.0
290
     0
  0
SCALE
  5
40
102
{ACAD_REACTORS
330
3B
102
}
330
3B
100
AcDbScale
 70
     0
300
1:8
140
1.0
141
8.0
290
     0
  0
SCALE
  5
41
102
{ACAD_REACTORS
330
3B
102
}
330
3B
100
AcDbScale
 70
     0
300
1:10
140
1.0
141
10.0
290
     0
  0
SCALE
  5
42
102
{ACAD_REACTORS
330
3B
102
}
330
3B
100
AcDbScale
 70
     0
300
1:16
140
1.0
141
16.0
290
     0
  0
SCALE
  5
43
102
{ACAD_REACTORS
330
3B
102
}
330
3B
100
AcDbScale
 70
     0
300
1:20
140
1.0
141
20.0
290
     0
  0
SCALE
  5
44
102
{ACAD_REACTORS
330
3B
102
}
330
3B
100
AcDbScale
 70
     0
300
1:30
140
1.0
141
30.0
290
     0
  0
SCALE
  5
45
102
{ACAD_REACTORS
330
3B
102
}
330
3B
100
AcDbScale
 70
     0
300
1:40
140
1.0
141
40.0
290
     0
  0
SCALE
  5
46
102
{ACAD_REACTORS
330
3B
102
}
330
3B
100
AcDbScale
 70
     0
300
1:50
140
1.0
141
50.0
290
     0
  0
SCALE
  5
47
102
{ACAD_REACTORS
330
3B
102
}
330
3B
100
AcDbScale
 70
     0
300
1:100
140
1.0
141
100.0
290
     0
  0
SCALE
  5
48
102
{ACAD_REACTORS
330
3B
102
}
330
3B
100
AcDbScale
 70
     0
300
2:1
140
2.0
141
1.0
290
     0
  0
SCALE
  5
49
102
{ACAD_REACTORS
330
3B
102
}
330
3B
100
AcDbScale
 70
     0
300
4:1
140
4.0
141
1.0
290
     0
  0
SCALE
  5
4A
102
{ACAD_REACTORS
330
3B
102
}
330
3B
100
AcDbScale
 70
     0
300
8:1
140
8.0
141
1.0
290
     0
  0
SCALE
  5
4B
102
{ACAD_REACTORS
330
3B
102
}
330
3B
100
AcDbScale
 70
     0
300
10:1
140
10.0
141
1.0
290
     0
  0
SCALE
  5
4C
102
{ACAD_REACTORS
330
3B
102
}
330
3B
100
AcDbScale
 70
     0
300
100:1
140
100.0
141
1.0
290
     0
  0
SCALE
  5
4D
102
{ACAD_REACTORS
330
3B
102
}
330
3B
100
AcDbScale
 70
     0
300
1/128" = 1'-0"
140
0.0078125
141
12.0
290
     0
  0
SCALE
  5
4E
102
{ACAD_REACTORS
330
3B
102
}
330
3B
100
AcDbScale
 70
     0
300
1/64" = 1'-0"
140
0.015625
141
12.0
290
     0
  0
SCALE
  5
4F
102
{ACAD_REACTORS
330
3B
102
}
330
3B
100
AcDbScale
 70
     0
300
1/32" = 1'-0"
140
0.03125
141
12.0
290
     0
  0
SCALE
  5
50
102
{ACAD_REACTORS
330
3B
102
}
330
3B
100
AcDbScale
 70
     0
300
1/16" = 1'-0"
140
0.0625
141
12.0
290
     0
  0
SCALE
  5
51
102
{ACAD_REACTORS
330
3B
102
}
330
3B
100
AcDbScale
 70
     0
300
3/32" = 1'-0"
140
0.09375
141
12.0
290
     0
  0
SCALE
  5
52
102
{ACAD_REACTORS
330
3B
102
}
330
3B
100
AcDbScale
 70
     0
300
1/8" = 1'-0"
140
0.125
141
12.0
290
     0
  0
SCALE
  5
53
102
{ACAD_REACTORS
330
3B
102
}
330
3B
100
AcDbScale
 70
     0
300
3/16" = 1'-0"
140
0.1875
141
12.0
290
     0
  0
SCALE
  5
54
102
{ACAD_REACTORS
330
3B
102
}
330
3B
100
AcDbScale
 70
     0
300
1/4" = 1'-0"
140
0.25
141
12.0
290
     0
  0
SCALE
  5
55
102
{ACAD_REACTORS
330
3B
102
}
330
3B
100
AcDbScale
 70
     0
300
3/8" = 1'-0"
140
0.375
141
12.0
290
     0
  0
SCALE
  5
56
102
{ACAD_REACTORS
330
3B
102
}
330
3B
100
AcDbScale
 70
     0
300
1/2" = 1'-0"
140
0.5
141
12.0
290
     0
  0
SCALE
  5
57
102
{ACAD_REACTORS
330
3B
102
}
330
3B
100
AcDbScale
 70
     0
300
3/4" = 1'-0"
140
0.75
141
12.0
290
     0
  0
SCALE
  5
58
102
{ACAD_REACTORS
330
3B
102
}
330
3B
100
AcDbScale
 70
     0
300
1" = 1'-0"
140
1.0
141
12.0
290
     0
  0
SCALE
  5
59
102
{ACAD_REACTORS
330
3B
102
}
330
3B
100
AcDbScale
 70
     0
300
1-1/2" = 1'-0"
140
1.5
141
12.0
290
     0
  0
SCALE
  5
5A
102
{ACAD_REACTORS
330
3B
102
}
330
3B
100
AcDbScale
 70
     0
300
3" = 1'-0"
140
3.0
141
12.0
290
     0
  0
SCALE
  5
5B
102
{ACAD_REACTORS
330
3B
102
}
330
3B
100
AcDbScale
 70
     0
300
6" = 1'-0"
140
6.0
141
12.0
290
     0
  0
SCALE
  5
5C
102
{ACAD_REACTORS
330
3B
102
}
330
3B
100
AcDbScale
 70
     0
300
1'-0" = 1'-0"
140
12.0
141
12.0
290
     0
  0
VISUALSTYLE
  5
2F
102
{ACAD_REACTORS
330
2A
102
}
330
2A
100
AcDbVisualStyle
  2
2dWireframe
 70
     4
 71
     0
 72
     2
 73
     0
 90
        0
 40
-0.6
 41
-30.0
 62
     5
 63
     7
421
 16777215
 74
     1
 91
        4
 64
     7
 65
   257
 75
     1
175
     1
 42
1.0
 92
        0
 66
   257
 43
1.0
 76
     1
 77
     6
 78
     2
 67
     7
 79
     5
170
     0
171
     0
290
     0
174
     0
 93
        1
 44
0.0
173
     0
291
     0
 45
0.0
1001
ACAD
1000
AcDbSavedByObjectVersion
1070
     0
  0
VISUALSTYLE
  5
31
102
{ACAD_REACTORS
330
2A
102
}
330
2A
100
AcDbVisualStyle
  2
3D Hidden
 70
     6
 71
     1
 72
     2
 73
     2
 90
        0
 40
-0.6
 41
-30.0
 62
     5
 63
     7
421
 16777215
 74
     2
 91
        2
 64
     7
 65
   257
 75
     2
175
     1
 42
40.0
 92
        0
 66
   257
 43
1.0
 76
     1
 77
     6
 78
     2
 67
     7
 79
     3
170
     0
171
     0
290
     0
174
     0
 93
        1
 44
0.0
173
     0
291
     0
 45
0.0
1001
ACAD
1000
AcDbSavedByObjectVersion
1070
     0
  0
VISUALSTYLE
  5
30
102
{ACAD_REACTORS
330
2A
102
}
330
2A
100
AcDbVisualStyle
  2
3dWireframe
 70
     5
 71
     0
 72
     2
 73
     0
 90
        0
 40
-0.6
 41
-30.0
 62
     5
 63
     7
421
 16777215
 74
     1
 91
        4
 64
     7
 65
   257
 75
     1
175
     1
 42
1.0
 92
        0
 66
   257
 43
1.0
 76
     1
 77
     6
 78
     2
 67
     7
 79
     5
170
     0
171
     0
290
     0
174
     0
 93
        1
 44
0.0
173
     0
291
     0
 45
0.0
1001
ACAD
1000
AcDbSavedByObjectVersion
1070
     0
  0
VISUALSTYLE
  5
32
102
{ACAD_REACTORS
330
2A
102
}
330
2A
100
AcDbVisualStyle
  2
Basic
 70
     7
 71
     1
 72
     0
 73
     1
 90
        0
 40
-0.6
 41
-30.0
 62
     5
 63
     7
421
 16777215
 74
     0
 91
        4
 64
     7
 65
   257
 75
     1
175
     1
 42
1.0
 92
        8
 66
     7
 43
1.0
 76
     1
 77
     6
 78
     2
 67
     7
 79
     5
170
     0
171
     0
290
     0
174
     0
 93
        1
 44
0.0
173
     0
291
     1
 45
0.0
1001
ACAD
1000
AcDbSavedByObjectVersion
1070
     0
  0
VISUALSTYLE
  5
36
102
{ACAD_REACTORS
330
2A
102
}
330
2A
100
AcDbVisualStyle
  2
Brighten
 70
    12
 71
     2
 72
     2
 73
     0
 90
        0
 40
-0.6
 41
-30.0
 62
     5
 63
     7
421
 16777215
 74
     1
 91
        4
 64
     7
 65
   257
 75
     1
175
     1
 42
1.0
 92
        8
 66
     7
 43
1.0
 76
     1
 77
     6
 78
     2
 67
     7
 79
     5
170
     0
171
     0
290
     0
174
     0
 93
        1
 44
50.0
173
     0
291
     1
 45
0.0
1001
ACAD
1000
AcDbSavedByObjectVersion
1070
     0
  0
VISUALSTYLE
  5
3A
102
{ACAD_REACTORS
330
2A
102
}
330
2A
100
AcDbVisualStyle
  2
ColorChange
 70
    16
 71
     2
 72
     2
 73
     3
 90
        0
 40
-0.6
 41
-30.0
 62
     5
 63
     8
421
  8421504
 74
     1
 91
        4
 64
     7
 65
   257
 75
     1
175
     1
 42
1.0
 92
        8
 66
     8
424
  8421504
 43
1.0
 76
     1
 77
     6
 78
     2
 67
     7
 79
     5
170
     0
171
     0
290
     0
174
     0
 93
        1
 44
0.0
173
     0
291
     1
 45
0.0
1001
ACAD
1000
AcDbSavedByObjectVersion
1070
     0
  0
VISUALSTYLE
  5
34
102
{ACAD_REACTORS
330
2A
102
}
330
2A
100
AcDbVisualStyle
  2
Conceptual
 70
     9
 71
     3
 72
     2
 73
     0
 90
        0
 40
-0.6
 41
-30.0
 62
     5
 63
     7
421
 16777215
 74
     2
 91
        2
 64
     7
 65
   257
 75
     1
175
     1
 42
40.0
 92
        8
 66
     7
 43
1.0
 76
     1
 77
     6
 78
     2
 67
     7
 79
     3
170
     0
171
     0
290
     0
174
     0
 93
        1
 44
0.0
173
     0
291
     0
 45
0.0
1001
ACAD
1000
AcDbSavedByObjectVersion
1070
     0
  0
VISUALSTYLE
  5
35
102
{ACAD_REACTORS
330
2A
102
}
330
2A
100
AcDbVisualStyle
  2
Dim
 70
    11
 71
     2
 72
     2
 73
     0
 90
        0
 40
-0.6
 41
-30.0
 62
     5
 63
     7
421
 16777215
 74
     1
 91
        4
 64
     7
 65
   257
 75
     1
175
     1
 42
1.0
 92
        8
 66
     7
 43
1.0
 76
     1
 77
     6
 78
     2
 67
     7
 79
     5
170
     0
171
     0
290
     0
174
     0
 93
        1
 44
-50.0
173
     0
291
     1
 45
0.0
1001
ACAD
1000
AcDbSavedByObjectVersion
1070
     0
  0
VISUALSTYLE
  5
39
102
{ACAD_REACTORS
330
2A
102
}
330
2A
100
AcDbVisualStyle
  2
Facepattern
 70
    15
 71
     2
 72
     2
 73
     0
 90
        0
 40
-0.6
 41
-30.0
 62
     5
 63
     7
421
 16777215
 74
     1
 91
        4
 64
     7
 65
   257
 75
     1
175
     1
 42
1.0
 92
        8
 66
     7
 43
1.0
 76
     1
 77
     6
 78
     2
 67
     7
 79
     5
170
     0
171
     0
290
     0
174
     0
 93
        1
 44
0.0
173
     0
291
     1
 45
0.0
1001
ACAD
1000
AcDbSavedByObjectVersion
1070
     0
  0
VISUALSTYLE
  5
2B
102
{ACAD_REACTORS
330
2A
102
}
330
2A
100
AcDbVisualStyle
  2
Flat
 70
     0
 71
     2
 72
     1
 73
     1
 90
        2
 40
-0.6
 41
30.0
 62
     5
 63
     7
421
 16777215
 74
     0
 91
        4
 64
     7
 65
   257
 75
     1
175
     1
 42
1.0
 92
        8
 66
     7
 43
1.0
 76
     1
 77
     6
 78
     2
 67
     7
 79
     5
170
     0
171
     0
290
     0
174
     0
 93
       13
 44
0.0
173
     0
291
     1
 45
0.0
1001
ACAD
1000
AcDbSavedByObjectVersion
1070
     0
  0
VISUALSTYLE
  5
2C
102
{ACAD_REACTORS
330
2A
102
}
330
2A
100
AcDbVisualStyle
  2
FlatWithEdges
 70
     1
 71
     2
 72
     1
 73
     1
 90
        2
 40
-0.6
 41
30.0
 62
     5
 63
     7
421
 16777215
 74
     1
 91
        4
 64
     7
 65
   257
 75
     1
175
     1
 42
1.0
 92
        0
 66
   257
 43
1.0
 76
     1
 77
     6
 78
     2
 67
     7
 79
     5
170
     0
171
     0
290
     0
174
     0
 93
       13
 44
0.0
173
     0
291
     1
 45
0.0
1001
ACAD
1000
AcDbSavedByObjectVersion
1070
     0
  0
VISUALSTYLE
  5
2D
102
{ACAD_REACTORS
330
2A
102
}
330
2A
100
AcDbVisualStyle
  2
Gouraud
 70
     2
 71
     2
 72
     2
 73
     1
 90
        2
 40
-0.6
 41
30.0
 62
     5
 63
     7
421
 16777215
 74
     0
 91
        4
 64
     7
 65
   257
 75
     1
175
     1
 42
1.0
 92
        0
 66
     7
 43
1.0
 76
     1
 77
     6
 78
     2
 67
     7
 79
     5
170
     0
171
     0
290
     0
174
     0
 93
       13
 44
0.0
173
     0
291
     1
 45
0.0
1001
ACAD
1000
AcDbSavedByObjectVersion
1070
     0
  0
VISUALSTYLE
  5
2E
102
{ACAD_REACTORS
330
2A
102
}
330
2A
100
AcDbVisualStyle
  2
GouraudWithEdges
 70
     3
 71
     2
 72
     2
 73
     1
 90
        2
 40
-0.6
 41
30.0
 62
     5
 63
     7
421
 16777215
 74
     1
 91
        4
 64
     7
 65
   257
 75
     1
175
     1
 42
1.0
 92
        0
 66
   257
 43
1.0
 76
     1
 77
     6
 78
     2
 67
     7
 79
     5
170
     0
171
     0
290
     0
174
     0
 93
       13
 44
0.0
173
     0
291
     1
 45
0.0
1001
ACAD
1000
AcDbSavedByObjectVersion
1070
     0
  0
VISUALSTYLE
  5
38
102
{ACAD_REACTORS
330
2A
102
}
330
2A
100
AcDbVisualStyle
  2
Linepattern
 70
    14
 71
     2
 72
     2
 73
     0
 90
        0
 40
-0.6
 41
-30.0
 62
     5
 63
     7
421
 16777215
 74
     1
 91
        4
 64
     7
 65
   257
 75
     7
175
     7
 42
1.0
 92
        8
 66
     7
 43
1.0
 76
     1
 77
     6
 78
     2
 67
     7
 79
     5
170
     0
171
     0
290
     0
174
     0
 93
        1
 44
0.0
173
     0
291
     1
 45
0.0
1001
ACAD
1000
AcDbSavedByObjectVersion
1070
     0
  0
VISUALSTYLE
  5
33
102
{ACAD_REACTORS
330
2A
102
}
330
2A
100
AcDbVisualStyle
  2
Realistic
 70
     8
 71
     2
 72
     2
 73
     0
 90
        0
 40
-0.6
 41
-30.0
 62
     5
 63
     7
421
 16777215
 74
     1
 91
        0
 64
     7
 65
   257
 75
     1
175
     1
 42
1.0
 92
        8
 66
     8
424
  7895160
 43
1.0
 76
     1
 77
     6
 78
     2
 67
     7
 79
     5
170
     0
171
     0
290
     0
174
     0
 93
       13
 44
0.0
173
     0
291
     0
 45
0.0
1001
ACAD
1000
AcDbSavedByObjectVersion
1070
     0
  0
VISUALSTYLE
  5
37
102
{ACAD_REACTORS
330
2A
102
}
330
2A
100
AcDbVisualStyle
  2
Thicken
 70
    13
 71
     2
 72
     2
 73
     0
 90
        0
 40
-0.6
 41
-30.0
 62
     5
 63
     7
421
 16777215
 74
     1
 91
        4
 64
     7
 65
   257
 75
     1
175
     1
 42
1.0
 92
       12
 66
     7
 43
1.0
 76
     1
 77
     6
 78
     2
 67
     7
 79
     5
170
     0
171
     0
290
     0
174
     0
 93
        1
 44
0.0
173
     0
291
     1
 45
0.0
1001
ACAD
1000
AcDbSavedByObjectVersion
1070
     0
  0
ENDSEC
  0
EOF
