  0
SECTION
  2
HEADER
  9
$ACADVER
  1
AC1018
  9
$ACADMAINTVER
 70
     0
  9
$DWGCODEPAGE
  3
ANSI_1252
  9
$INSBASE
 10
0.0
 20
0.0
 30
0.0
  9
$EXTMIN
 10
-1.279528004241763
 20
-1.279528000000001
 30
0.0
  9
$EXTMAX
 10
20.90854714567449
 20
40.57348273344608
 30
0.0
  9
$LIMMIN
 10
0.0
 20
0.0
  9
$LIMMAX
 10
12.0
 20
9.0
  9
$ORTHOMODE
 70
     0
  9
$REGENMODE
 70
     1
  9
$FILLMODE
 70
     1
  9
$QTEXTMODE
 70
     0
  9
$MIRRTEXT
 70
     1
  9
$LTSCALE
 40
1.0
  9
$ATTMODE
 70
     1
  9
$TEXTSIZE
 40
0.2
  9
$TRACEWID
 40
0.05
  9
$TEXTSTYLE
  7
Standard
  9
$CLAYER
  8
DEFAULT
  9
$CELTYPE
  6
ByLayer
  9
$CECOLOR
 62
   256
  9
$CELTSCALE
 40
1.0
  9
$DISPSILH
 70
     0
  9
$DIMSCALE
 40
1.0
  9
$DIMASZ
 40
0.18
  9
$DIMEXO
 40
0.0625
  9
$DIMDLI
 40
0.38
  9
$DIMRND
 40
0.0
  9
$DIMDLE
 40
0.0
  9
$DIMEXE
 40
0.18
  9
$DIMTP
 40
0.0
  9
$DIMTM
 40
0.0
  9
$DIMTXT
 40
0.18
  9
$DIMCEN
 40
0.09
  9
$DIMTSZ
 40
0.0
  9
$DIMTOL
 70
     0
  9
$DIMLIM
 70
     0
  9
$DIMTIH
 70
     1
  9
$DIMTOH
 70
     1
  9
$DIMSE1
 70
     0
  9
$DIMSE2
 70
     0
  9
$DIMTAD
 70
     0
  9
$DIMZIN
 70
     0
  9
$DIMBLK
  1

  9
$DIMASO
 70
     1
  9
$DIMSHO
 70
     1
  9
$DIMPOST
  1

  9
$DIMAPOST
  1

  9
$DIMALT
 70
     0
  9
$DIMALTD
 70
     2
  9
$DIMALTF
 40
25.4
  9
$DIMLFAC
 40
1.0
  9
$DIMTOFL
 70
     0
  9
$DIMTVP
 40
0.0
  9
$DIMTIX
 70
     0
  9
$DIMSOXD
 70
     0
  9
$DIMSAH
 70
     0
  9
$DIMBLK1
  1

  9
$DIMBLK2
  1

  9
$DIMSTYLE
  2
Standard
  9
$DIMCLRD
 70
     0
  9
$DIMCLRE
 70
     0
  9
$DIMCLRT
 70
     0
  9
$DIMTFAC
 40
1.0
  9
$DIMGAP
 40
0.09
  9
$DIMJUST
 70
     0
  9
$DIMSD1
 70
     0
  9
$DIMSD2
 70
     0
  9
$DIMTOLJ
 70
     1
  9
$DIMTZIN
 70
     0
  9
$DIMALTZ
 70
     0
  9
$DIMALTTZ
 70
     0
  9
$DIMUPT
 70
     0
  9
$DIMDEC
 70
     4
  9
$DIMTDEC
 70
     4
  9
$DIMALTU
 70
     2
  9
$DIMALTTD
 70
     2
  9
$DIMTXSTY
  7
Standard
  9
$DIMAUNIT
 70
     0
  9
$DIMADEC
 70
     0
  9
$DIMALTRND
 40
0.0
  9
$DIMAZIN
 70
     0
  9
$DIMDSEP
 70
    46
  9
$DIMATFIT
 70
     3
  9
$DIMFRAC
 70
     0
  9
$DIMLDRBLK
  1

  9
$DIMLUNIT
 70
     2
  9
$DIMLWD
 70
    -2
  9
$DIMLWE
 70
    -2
  9
$DIMTMOVE
 70
     0
  9
$LUNITS
 70
     2
  9
$LUPREC
 70
     3
  9
$SKETCHINC
 40
0.1
  9
$FILLETRAD
 40
0.5
  9
$AUNITS
 70
     0
  9
$AUPREC
 70
     0
  9
$MENU
  1
.
  9
$ELEVATION
 40
0.0
  9
$PELEVATION
 40
0.0
  9
$THICKNESS
 40
0.0
  9
$LIMCHECK
 70
     0
  9
$CHAMFERA
 40
0.5
  9
$CHAMFERB
 40
0.5
  9
$CHAMFERC
 40
1.0
  9
$CHAMFERD
 40
0.0
  9
$SKPOLY
 70
     0
  9
$TDCREATE
 40
2454651.640216736
  9
$TDUCREATE
 40
2454651.806883403
  9
$TDUPDATE
 40
2454651.640216748
  9
$TDUUPDATE
 40
2454651.806883414
  9
$TDINDWG
 40
0.0000000116
  9
$TDUSRTIMER
 40
0.0000000116
  9
$USRTIMER
 70
     1
  9
$ANGBASE
 50
0.0
  9
$ANGDIR
 70
     0
  9
$PDMODE
 70
     0
  9
$PDSIZE
 40
0.0
  9
$PLINEWID
 40
0.0
  9
$SPLFRAME
 70
     0
  9
$SPLINETYPE
 70
     6
  9
$SPLINESEGS
 70
     8
  9
$HANDSEED
  5
1A7
  9
$SURFTAB1
 70
     6
  9
$SURFTAB2
 70
     6
  9
$SURFTYPE
 70
     6
  9
$SURFU
 70
     6
  9
$SURFV
 70
     6
  9
$UCSBASE
  2

  9
$UCSNAME
  2

  9
$UCSORG
 10
0.0
 20
0.0
 30
0.0
  9
$UCSXDIR
 10
1.0
 20
0.0
 30
0.0
  9
$UCSYDIR
 10
0.0
 20
1.0
 30
0.0
  9
$UCSORTHOREF
  2

  9
$UCSORTHOVIEW
 70
     0
  9
$UCSORGTOP
 10
0.0
 20
0.0
 30
0.0
  9
$UCSORGBOTTOM
 10
0.0
 20
0.0
 30
0.0
  9
$UCSORGLEFT
 10
0.0
 20
0.0
 30
0.0
  9
$UCSORGRIGHT
 10
0.0
 20
0.0
 30
0.0
  9
$UCSORGFRONT
 10
0.0
 20
0.0
 30
0.0
  9
$UCSORGBACK
 10
0.0
 20
0.0
 30
0.0
  9
$PUCSBASE
  2

  9
$PUCSNAME
  2

  9
$PUCSORG
 10
0.0
 20
0.0
 30
0.0
  9
$PUCSXDIR
 10
1.0
 20
0.0
 30
0.0
  9
$PUCSYDIR
 10
0.0
 20
1.0
 30
0.0
  9
$PUCSORTHOREF
  2

  9
$PUCSORTHOVIEW
 70
     0
  9
$PUCSORGTOP
 10
0.0
 20
0.0
 30
0.0
  9
$PUCSORGBOTTOM
 10
0.0
 20
0.0
 30
0.0
  9
$PUCSORGLEFT
 10
0.0
 20
0.0
 30
0.0
  9
$PUCSORGRIGHT
 10
0.0
 20
0.0
 30
0.0
  9
$PUCSORGFRONT
 10
0.0
 20
0.0
 30
0.0
  9
$PUCSORGBACK
 10
0.0
 20
0.0
 30
0.0
  9
$USERI1
 70
     0
  9
$USERI2
 70
     0
  9
$USERI3
 70
     0
  9
$USERI4
 70
     0
  9
$USERI5
 70
     0
  9
$USERR1
 40
0.0
  9
$USERR2
 40
0.0
  9
$USERR3
 40
0.0
  9
$USERR4
 40
0.0
  9
$USERR5
 40
0.0
  9
$WORLDVIEW
 70
     1
  9
$SHADEDGE
 70
     3
  9
$SHADEDIF
 70
    70
  9
$TILEMODE
 70
     1
  9
$MAXACTVP
 70
    64
  9
$PINSBASE
 10
0.0
 20
0.0
 30
0.0
  9
$PLIMCHECK
 70
     0
  9
$PEXTMIN
 10
1.000000000000000E+20
 20
1.000000000000000E+20
 30
1.000000000000000E+20
  9
$PEXTMAX
 10
-1.000000000000000E+20
 20
-1.000000000000000E+20
 30
-1.000000000000000E+20
  9
$PLIMMIN
 10
0.0
 20
0.0
  9
$PLIMMAX
 10
12.0
 20
9.0
  9
$UNITMODE
 70
     0
  9
$VISRETAIN
 70
     1
  9
$PLINEGEN
 70
     0
  9
$PSLTSCALE
 70
     1
  9
$TREEDEPTH
 70
  3020
  9
$CMLSTYLE
  2
Standard
  9
$CMLJUST
 70
     0
  9
$CMLSCALE
 40
1.0
  9
$PROXYGRAPHICS
 70
     1
  9
$MEASUREMENT
 70
     0
  9
$CELWEIGHT
370
    -1
  9
$ENDCAPS
280
     0
  9
$JOINSTYLE
280
     0
  9
$LWDISPLAY
290
     0
  9
$INSUNITS
 70
     1
  9
$HYPERLINKBASE
  1

  9
$STYLESHEET
  1

  9
$XEDIT
290
     1
  9
$CEPSNTYPE
380
     0
  9
$PSTYLEMODE
290
     1
  9
$FINGERPRINTGUID
  2
{D74275F6-3188-4012-BC6B-402942986AEE}
  9
$VERSIONGUID
  2
{FAEB1C32-E019-11D5-929B-00C0DF256EC4}
  9
$EXTNAMES
290
     1
  9
$PSVPSCALE
 40
0.0
  9
$OLESTARTUP
290
     0
  9
$SORTENTS
280
   127
  9
$INDEXCTL
280
     0
  9
$HIDETEXT
280
     1
  9
$XCLIPFRAME
290
     0
  9
$HALOGAP
280
     0
  9
$OBSCOLOR
 70
   257
  9
$OBSLTYPE
280
     0
  9
$INTERSECTIONDISPLAY
280
     0
  9
$INTERSECTIONCOLOR
 70
   257
  9
$DIMASSOC
280
     2
  9
$PROJECTNAME
  1

  0
ENDSEC
  0
SECTION
  2
CLASSES
  0
CLASS
  1
ACDBDICTIONARYWDFLT
  2
AcDbDictionaryWithDefault
  3
ObjectDBX Classes
 90
        0
 91
        3
280
     0
281
     0
  0
CLASS
  1
VISUALSTYLE
  2
AcDbVisualStyle
  3
ObjectDBX Classes
 90
     4095
 91
        3
280
     0
281
     0
  0
CLASS
  1
SCALE
  2
AcDbScale
  3
ObjectDBX Classes
 90
     1153
 91
        3
280
     0
281
     0
  0
ENDSEC
  0
SECTION
  2
TABLES
  0
TABLE
  2
VPORT
  5
8
330
0
100
AcDbSymbolTable
 70
     1
  0
VPORT
  5
29
330
8
100
AcDbSymbolTableRecord
100
AcDbViewportTableRecord
  2
*Active
 70
     0
 10
0.0
 20
0.0
 11
1.0
 21
1.0
 12
0.0
 22
0.0
 13
0.0
 23
0.0
 14
0.5
 24
0.5
 15
0.5
 25
0.5
 16
0.0
 26
0.0
 36
1.0
 17
9.814509570716364
 27
19.64697736672304
 37
0.0
 40
42.69007094811501
 41
0.5301428681254954
 42
50.0
 43
0.0
 44
0.0
 50
0.0
 51
0.0
 71
     0
 72
   100
 73
     1
 74
     3
 75
     0
 76
     0
 77
     0
 78
     0
281
     0
 65
     1
110
0.0
120
0.0
130
0.0
111
1.0
121
0.0
131
0.0
112
0.0
122
1.0
132
0.0
 79
     0
146
0.0
  0
ENDTAB
  0
TABLE
  2
LTYPE
  5
5
330
0
100
AcDbSymbolTable
 70
     1
  0
LTYPE
  5
14
330
5
100
AcDbSymbolTableRecord
100
AcDbLinetypeTableRecord
  2
ByBlock
 70
     0
  3

 72
    65
 73
     0
 40
0.0
  0
LTYPE
  5
15
330
5
100
AcDbSymbolTableRecord
100
AcDbLinetypeTableRecord
  2
ByLayer
 70
     0
  3

 72
    65
 73
     0
 40
0.0
  0
LTYPE
  5
16
330
5
100
AcDbSymbolTableRecord
100
AcDbLinetypeTableRecord
  2
Continuous
 70
     0
  3
Solid line
 72
    65
 73
     0
 40
0.0
  0
ENDTAB
  0
TABLE
  2
LAYER
  5
2
330
0
100
AcDbSymbolTable
 70
     2
  0
LAYER
  5
10
330
2
100
AcDbSymbolTableRecord
100
AcDbLayerTableRecord
  2
0
 70
     0
 62
     7
  6
Continuous
370
    -3
390
F
  0
LAYER
  5
5D
330
2
100
AcDbSymbolTableRecord
100
AcDbLayerTableRecord
  2
DEFAULT
 70
     0
 62
     7
  6
Continuous
370
    -3
390
F
  0
ENDTAB
  0
TABLE
  2
STYLE
  5
3
330
0
100
AcDbSymbolTable
 70
     1
  0
STYLE
  5
11
330
3
100
AcDbSymbolTableRecord
100
AcDbTextStyleTableRecord
  2
Standard
 70
     0
 40
0.0
 41
1.0
 50
0.0
 71
     0
 42
0.2
  3
txt
  4

  0
ENDTAB
  0
TABLE
  2
VIEW
  5
6
330
0
100
AcDbSymbolTable
 70
     0
  0
ENDTAB
  0
TABLE
  2
UCS
  5
7
330
0
100
AcDbSymbolTable
 70
     0
  0
ENDTAB
  0
TABLE
  2
APPID
  5
9
330
0
100
AcDbSymbolTable
 70
     1
  0
APPID
  5
12
330
9
100
AcDbSymbolTableRecord
100
AcDbRegAppTableRecord
  2
ACAD
 70
     0
  0
ENDTAB
  0
TABLE
  2
DIMSTYLE
  5
A
330
0
100
AcDbSymbolTable
 70
     1
100
AcDbDimStyleTable
  0
DIMSTYLE
105
27
330
A
100
AcDbSymbolTableRecord
100
AcDbDimStyleTableRecord
  2
Standard
 70
     0
340
11
  0
ENDTAB
  0
TABLE
  2
BLOCK_RECORD
  5
1
330
0
100
AcDbSymbolTable
 70
     1
  0
BLOCK_RECORD
  5
1F
330
1
100
AcDbSymbolTableRecord
100
AcDbBlockTableRecord
  2
*Model_Space
340
22
  0
BLOCK_RECORD
  5
1B
330
1
100
AcDbSymbolTableRecord
100
AcDbBlockTableRecord
  2
*Paper_Space
340
1E
  0
BLOCK_RECORD
  5
23
330
1
100
AcDbSymbolTableRecord
100
AcDbBlockTableRecord
  2
*Paper_Space0
340
26
  0
ENDTAB
  0
ENDSEC
  0
SECTION
  2
BLOCKS
  0
BLOCK
  5
20
330
1F
100
AcDbEntity
  8
0
100
AcDbBlockBegin
  2
*Model_Space
 70
     0
 10
0.0
 20
0.0
 30
0.0
  3
*Model_Space
  1

  0
ENDBLK
  5
21
330
1F
100
AcDbEntity
  8
0
100
AcDbBlockEnd
  0
BLOCK
  5
1C
330
1B
100
AcDbEntity
 67
     1
  8
0
100
AcDbBlockBegin
  2
*Paper_Space
 70
     0
 10
0.0
 20
0.0
 30
0.0
  3
*Paper_Space
  1

  0
ENDBLK
  5
1D
330
1B
100
AcDbEntity
 67
     1
  8
0
100
AcDbBlockEnd
  0
BLOCK
  5
24
330
23
100
AcDbEntity
  8
0
100
AcDbBlockBegin
  2
*Paper_Space0
 70
     0
 10
0.0
 20
0.0
 30
0.0
  3
*Paper_Space0
  1

  0
ENDBLK
  5
25
330
23
100
AcDbEntity
  8
0
100
AcDbBlockEnd
  0
ENDSEC
  0
SECTION
  2
ENTITIES
  0
SPLINE
  5
5E
330
1F
100
AcDbEntity
  8
DEFAULT
100
AcDbSpline
210
0.0
220
0.0
230
1.0
 70
    24
 71
     2
 72
     6
 73
     3
 74
     0
 42
0.0000000001
 43
0.0000000001
 40
0.0
 40
0.0
 40
0.0
 40
1.0
 40
1.0
 40
1.0
 10
12.54582000000005
 20
18.7829167334461
 30
0.0
 10
11.64257900000004
 20
18.7829167334461
 30
0.0
 10
10.73933800000003
 20
18.7829167334461
 30
0.0
  0
SPLINE
  5
5F
330
1F
100
AcDbEntity
  8
DEFAULT
100
AcDbSpline
210
0.0
220
0.0
230
1.0
 70
    24
 71
     2
 72
     6
 73
     3
 74
     0
 42
0.0000000001
 43
0.0000000001
 40
0.0
 40
0.0
 40
0.0
 40
1.0
 40
1.0
 40
1.0
 10
12.31871699999999
 20
39.23063273344609
 30
0.0
 10
11.52902750000001
 20
39.23063273344609
 30
0.0
 10
10.73933800000003
 20
39.23063273344609
 30
0.0
  0
SPLINE
  5
60
330
1F
100
AcDbEntity
  8
DEFAULT
100
AcDbSpline
210
0.0
220
0.0
230
1.0
 70
    24
 71
     2
 72
     6
 73
     3
 74
     0
 42
0.0000000001
 43
0.0000000001
 40
0.0
 40
0.0
 40
0.0
 40
1.0
 40
1.0
 40
1.0
 10
0.0
 20
22.68808373344611
 30
0.0
 10
0.0
 20
23.0474537334461
 30
0.0
 10
0.0
 20
23.4068237334461
 30
0.0
  0
SPLINE
  5
61
330
1F
100
AcDbEntity
  8
DEFAULT
100
AcDbSpline
210
0.0
220
0.0
230
1.0
 70
    24
 71
     2
 72
     6
 73
     3
 74
     0
 42
0.0000000001
 43
0.0000000001
 40
0.0
 40
0.0
 40
0.0
 40
1.0
 40
1.0
 40
1.0
 10
-1.279527999999971
 20
23.79549373344609
 30
0.0
 10
-1.279527999999971
 20
23.6478517334461
 30
0.0
 10
-1.279527999999971
 20
23.5002097334461
 30
0.0
  0
SPLINE
  5
62
330
1F
100
AcDbEntity
  8
DEFAULT
100
AcDbSpline
210
0.0
220
0.0
230
1.0
 70
     8
 71
     3
 72
     9
 73
     5
 74
     0
 42
0.0000000001
 43
0.0000000001
 40
0.0
 40
0.0
 40
0.0
 40
0.0
 40
1.0
 40
2.0
 40
2.0
 40
2.0
 40
2.0
 10
9.055127000000027
 20
3.920969999999997
 30
0.0
 10
7.783033344219348
 20
3.861311733474992
 30
0.0
 10
5.265103794911738
 20
3.469277630728996
 30
0.0
 10
2.780952411945862
 20
2.917788578833225
 30
0.0
 10
1.552171000000044
 20
2.587086999999997
 30
0.0
  0
SPLINE
  5
63
330
1F
100
AcDbEntity
  8
DEFAULT
100
AcDbSpline
210
0.0
220
0.0
230
1.0
 70
    24
 71
     2
 72
     6
 73
     3
 74
     0
 42
0.0000000001
 43
0.0000000001
 40
0.0
 40
0.0
 40
0.0
 40
1.0
 40
1.0
 40
1.0
 10
12.54582000000005
 20
39.94937273344611
 30
0.0
 10
11.64257900000004
 20
39.94937273344611
 30
0.0
 10
10.73933800000003
 20
39.94937273344611
 30
0.0
  0
SPLINE
  5
64
330
1F
100
AcDbEntity
  8
DEFAULT
100
AcDbSpline
210
0.0
220
0.0
230
1.0
 70
    24
 71
     2
 72
     6
 73
     3
 74
     0
 42
0.0000000001
 43
0.0000000001
 40
0.0
 40
0.0
 40
0.0
 40
1.0
 40
1.0
 40
1.0
 10
1.002612999999997
 20
36.19152473344609
 30
0.0
 10
2.209424000000013
 20
35.38062673344609
 30
0.0
 10
3.416235000000029
 20
34.5697287334461
 30
0.0
  0
SPLINE
  5
65
330
1F
100
AcDbEntity
  8
DEFAULT
100
AcDbSpline
210
0.0
220
0.0
230
1.0
 70
    24
 71
     2
 72
     6
 73
     3
 74
     0
 42
0.0000000001
 43
0.0000000001
 40
0.0
 40
0.0
 40
0.0
 40
1.0
 40
1.0
 40
1.0
 10
12.57972300000006
 20
39.98370273344609
 30
0.0
 10
11.68905900000004
 20
39.98370273344609
 30
0.0
 10
10.79839500000003
 20
39.98370273344609
 30
0.0
  0
ARC
  5
66
330
1F
100
AcDbEntity
  8
DEFAULT
100
AcDbCircle
 10
8.861286000000064
 20
6.771856999999997
 30
0.0
 40
0.0250000400499361
100
AcDbArc
 50
235.5922788969552
 51
270.0
  0
SPLINE
  5
67
330
1F
100
AcDbEntity
  8
DEFAULT
100
AcDbSpline
210
0.0
220
0.0
230
1.0
 70
    24
 71
     2
 72
     6
 73
     3
 74
     0
 42
0.0000000001
 43
0.0000000001
 40
0.0
 40
0.0
 40
0.0
 40
1.0
 40
1.0
 40
1.0
 10
-1.279527999999971
 20
36.43287673344609
 30
0.0
 10
-1.279527999999971
 20
36.28523423344609
 30
0.0
 10
-1.279527999999971
 20
36.13759173344609
 30
0.0
  0
SPLINE
  5
68
330
1F
100
AcDbEntity
  8
DEFAULT
100
AcDbSpline
210
0.0
220
0.0
230
1.0
 70
    24
 71
     2
 72
     6
 73
     3
 74
     0
 42
0.0000000001
 43
0.0000000001
 40
0.0
 40
0.0
 40
0.0
 40
1.0
 40
1.0
 40
1.0
 10
0.3887789999999995
 20
1.441068000000001
 30
0.0
 10
0.3887789999999995
 20
1.360298
 30
0.0
 10
0.3887789999999995
 20
1.279527999999999
 30
0.0
  0
ARC
  5
69
330
1F
100
AcDbEntity
  8
DEFAULT
100
AcDbCircle
 10
1.339207000000044
 20
1.63480398705731
 30
0.0
 40
0.0599999624739702
100
AcDbArc
 50
270.0
 51
357.1168156066992
  0
SPLINE
  5
6A
330
1F
100
AcDbEntity
  8
DEFAULT
100
AcDbSpline
210
0.0
220
0.0
230
1.0
 70
    24
 71
     2
 72
     6
 73
     3
 74
     0
 42
0.0000000001
 43
0.0000000001
 40
0.0
 40
0.0
 40
0.0
 40
1.0
 40
1.0
 40
1.0
 10
1.399131012276143
 20
1.631785999381719
 30
0.0
 10
1.418876006138078
 20
2.023581499690856
 30
0.0
 10
1.438621000000012
 20
2.415376999999992
 30
0.0
  0
SPLINE
  5
6B
330
1F
100
AcDbEntity
  8
DEFAULT
100
AcDbSpline
210
0.0
220
0.0
230
1.0
 70
     8
 71
     3
 72
     9
 73
     5
 74
     0
 42
0.0000000001
 43
0.0000000001
 40
0.0
 40
0.0
 40
0.0
 40
0.0
 40
1.0
 40
2.0
 40
2.0
 40
2.0
 40
2.0
 10
1.438621000000012
 20
2.415376999999992
 30
0.0
 10
1.44095258780925
 20
2.451708179137867
 30
0.0
 10
1.460330404482988
 20
2.524269628192812
 30
0.0
 10
1.516642745364265
 20
2.576963854766205
 30
0.0
 10
1.552245000000028
 20
2.587097999999997
 30
0.0
  0
SPLINE
  5
6C
330
1F
100
AcDbEntity
  8
DEFAULT
100
AcDbSpline
210
0.0
220
0.0
230
1.0
 70
     8
 71
     3
 72
     8
 73
     4
 74
     0
 42
0.0000000001
 43
0.0000000001
 40
0.0
 40
0.0
 40
0.0
 40
0.0
 40
1.0
 40
1.0
 40
1.0
 40
1.0
 10
12.65866368681003
 20
1.575258484239995
 30
0.0
 10
12.66092970494003
 20
1.574957836099998
 30
0.0
 10
12.66320671207006
 20
1.574803805160002
 30
0.0
 10
12.66547361377002
 20
1.574803632299989
 30
0.0
  0
SPLINE
  5
6D
330
1F
100
AcDbEntity
  8
DEFAULT
100
AcDbSpline
210
0.0
220
0.0
230
1.0
 70
     8
 71
     3
 72
    10
 73
     6
 74
     0
 42
0.0000000001
 43
0.0000000001
 40
0.0
 40
0.0
 40
0.0
 40
0.0
 40
0.4051007004553
 40
0.7475947607501
 40
1.0
 40
1.0
 40
1.0
 40
1.0
 10
9.097167364200004
 20
4.227643939370992
 30
0.0
 10
9.097023208360042
 20
4.237904861774993
 30
0.0
 10
9.093972478590047
 20
4.25689137114999
 30
0.0
 10
9.083018186680022
 20
4.280221349089999
 30
0.0
 10
9.068921250620065
 20
4.289363065583998
 30
0.0
 10
9.06253462653001
 20
4.289667634490996
 30
0.0
  0
SPLINE
  5
6E
330
1F
100
AcDbEntity
  8
DEFAULT
100
AcDbSpline
210
0.0
220
0.0
230
1.0
 70
    24
 71
     2
 72
     6
 73
     3
 74
     0
 42
0.0000000001
 43
0.0000000001
 40
0.0
 40
0.0
 40
0.0
 40
1.0
 40
1.0
 40
1.0
 10
1.240157000000067
 20
0.3149609999999967
 30
0.0
 10
1.259842500000047
 20
0.3149609999999967
 30
0.0
 10
1.279528000000028
 20
0.3149609999999967
 30
0.0
  0
SPLINE
  5
6F
330
1F
100
AcDbEntity
  8
DEFAULT
100
AcDbSpline
210
0.0
220
0.0
230
1.0
 70
    24
 71
     2
 72
     6
 73
     3
 74
     0
 42
0.0000000001
 43
0.0000000001
 40
0.0
 40
0.0
 40
0.0
 40
1.0
 40
1.0
 40
1.0
 10
1.461614000000054
 20
1.441068000000001
 30
0.0
 10
1.461614000000054
 20
0.9929814999999991
 30
0.0
 10
1.461614000000054
 20
0.5448949999999968
 30
0.0
  0
SPLINE
  5
70
330
1F
100
AcDbEntity
  8
DEFAULT
100
AcDbSpline
210
0.0
220
0.0
230
1.0
 70
    24
 71
     2
 72
     6
 73
     3
 74
     0
 42
0.0000000001
 43
0.0000000001
 40
0.0
 40
0.0
 40
0.0
 40
1.0
 40
1.0
 40
1.0
 10
12.54582000000005
 20
1.279527999999999
 30
0.0
 10
12.54582000000005
 20
1.222747499999997
 30
0.0
 10
12.54582000000005
 20
1.165966999999995
 30
0.0
  0
ARC
  5
71
330
1F
100
AcDbEntity
  8
DEFAULT
100
AcDbCircle
 10
12.01886500000001
 20
0.0
 30
0.0
 40
1.279527939310224
100
AcDbArc
 50
15.7620695672927
 51
18.57560333516714
  0
SPLINE
  5
72
330
1F
100
AcDbEntity
  8
DEFAULT
100
AcDbSpline
210
0.0
220
0.0
230
1.0
 70
    24
 71
     2
 72
     6
 73
     3
 74
     0
 42
0.0000000001
 43
0.0000000001
 40
0.0
 40
0.0
 40
0.0
 40
1.0
 40
1.0
 40
1.0
 10
13.25902200000007
 20
0.3149609999999967
 30
0.0
 10
13.27870750000005
 20
0.3149609999999967
 30
0.0
 10
13.29839300000003
 20
0.3149609999999967
 30
0.0
  0
SPLINE
  5
73
330
1F
100
AcDbEntity
  8
DEFAULT
100
AcDbSpline
210
0.0
220
0.0
230
1.0
 70
    24
 71
     2
 72
     6
 73
     3
 74
     0
 42
0.0000000001
 43
0.0000000001
 40
0.0
 40
0.0
 40
0.0
 40
1.0
 40
1.0
 40
1.0
 10
1.279528000000028
 20
0.3149609999999967
 30
0.0
 10
1.279528000000028
 20
0.1574804999999984
 30
0.0
 10
1.279528000000028
 20
0.0
 30
0.0
  0
ARC
  5
74
330
1F
100
AcDbEntity
  8
DEFAULT
100
AcDbCircle
 10
12.423269
 20
1.441068000000001
 30
0.0
 40
0.015625
100
AcDbArc
 50
90.0
 51
180.0
  0
SPLINE
  5
75
330
1F
100
AcDbEntity
  8
DEFAULT
100
AcDbSpline
210
0.0
220
0.0
230
1.0
 70
    24
 71
     2
 72
     6
 73
     3
 74
     0
 42
0.0000000001
 43
0.0000000001
 40
0.0
 40
0.0
 40
0.0
 40
1.0
 40
1.0
 40
1.0
 10
12.407644
 20
1.441068000000001
 30
0.0
 10
12.407644
 20
1.360298
 30
0.0
 10
12.407644
 20
1.279527999999999
 30
0.0
  0
ARC
  5
76
330
1F
100
AcDbEntity
  8
DEFAULT
100
AcDbCircle
 10
13.46485400000006
 20
1.441068000000001
 30
0.0
 40
0.015625
100
AcDbArc
 50
0.0
 51
90.0
  0
ARC
  5
77
330
1F
100
AcDbEntity
  8
DEFAULT
100
AcDbCircle
 10
19.78127200000006
 20
1.644803999999993
 30
0.0
 40
0.0700001724710036
100
AcDbArc
 50
212.971779499647
 51
270.0
  0
ARC
  5
78
330
1F
100
AcDbEntity
  8
DEFAULT
100
AcDbCircle
 10
0.9251970000000256
 20
35.68483673344609
 30
0.0
 40
0.5207924728214128
100
AcDbArc
 50
204.5899815201698
 51
258.9297129242994
  0
ARC
  5
79
330
1F
100
AcDbEntity
  8
DEFAULT
100
AcDbCircle
 10
0.9251970000000256
 20
35.68483673344609
 30
0.0
 40
0.5364169213292546
100
AcDbArc
 50
25.95700397527346
 51
89.76415820922506
  0
SPLINE
  5
7A
330
1F
100
AcDbEntity
  8
DEFAULT
100
AcDbSpline
210
0.0
220
0.0
230
1.0
 70
    24
 71
     2
 72
     6
 73
     3
 74
     0
 42
0.0000000001
 43
0.0000000001
 40
0.0
 40
0.0
 40
0.0
 40
1.0
 40
1.0
 40
1.0
 10
8.692633
 20
6.22375199999999
 30
0.0
 10
8.6613835
 20
6.192502499999996
 30
0.0
 10
8.630133999999998
 20
6.161253000000002
 30
0.0
  0
SPLINE
  5
7B
330
1F
100
AcDbEntity
  8
DEFAULT
100
AcDbSpline
210
0.0
220
0.0
230
1.0
 70
    24
 71
     2
 72
     6
 73
     3
 74
     0
 42
0.0000000001
 43
0.0000000001
 40
0.0
 40
0.0
 40
0.0
 40
1.0
 40
1.0
 40
1.0
 10
8.692641000000037
 20
6.223755999999995
 30
0.0
 10
9.622129500000057
 20
6.223755999999995
 30
0.0
 10
10.55161800000008
 20
6.223755999999995
 30
0.0
  0
SPLINE
  5
7C
330
1F
100
AcDbEntity
  8
DEFAULT
100
AcDbSpline
210
0.0
220
0.0
230
1.0
 70
    24
 71
     2
 72
     6
 73
     3
 74
     0
 42
0.0000000001
 43
0.0000000001
 40
0.0
 40
0.0
 40
0.0
 40
1.0
 40
1.0
 40
1.0
 10
8.630130000000008
 20
6.161256999999992
 30
0.0
 10
9.622130000000027
 20
6.161256999999992
 30
0.0
 10
10.61413000000005
 20
6.161256999999992
 30
0.0
  0
LINE
  5
7D
330
1F
100
AcDbEntity
  8
DEFAULT
100
AcDbLine
 10
8.630130000000008
 20
6.161256999999992
 30
0.0
 11
8.630130000000008
 21
4.308345222177593
 31
0.0
  0
ARC
  5
7E
330
1F
100
AcDbEntity
  8
DEFAULT
100
AcDbCircle
 10
10.29713000000004
 20
-0.9012440000000055
 30
0.0
 40
0.125
100
AcDbArc
 50
270.0
 51
0.0
  0
SPLINE
  5
7F
330
1F
100
AcDbEntity
  8
DEFAULT
100
AcDbSpline
210
0.0
220
0.0
230
1.0
 70
    24
 71
     2
 72
     6
 73
     3
 74
     0
 42
0.0000000001
 43
0.0000000001
 40
0.0
 40
0.0
 40
0.0
 40
1.0
 40
1.0
 40
1.0
 10
10.55162600000006
 20
6.22375199999999
 30
0.0
 10
10.58287550000006
 20
6.192502499999996
 30
0.0
 10
10.61412500000006
 20
6.161253000000002
 30
0.0
  0
ARC
  5
80
330
1F
100
AcDbEntity
  8
DEFAULT
100
AcDbCircle
 10
13.23933800000003
 20
18.68953173344609
 30
0.0
 40
0.0590545805575144
100
AcDbArc
 50
0.0
 51
40.32210350398974
  0
SPLINE
  5
81
330
1F
100
AcDbEntity
  8
DEFAULT
100
AcDbSpline
210
0.0
220
0.0
230
1.0
 70
    24
 71
     2
 72
     6
 73
     3
 74
     0
 42
0.0000000001
 43
0.0000000001
 40
0.0
 40
0.0
 40
0.0
 40
1.0
 40
1.0
 40
1.0
 10
1.279528000000028
 20
36.43287673344609
 30
0.0
 10
1.279528000000028
 20
36.28523423344609
 30
0.0
 10
1.279528000000028
 20
36.13759173344609
 30
0.0
  0
SPLINE
  5
82
330
1F
100
AcDbEntity
  8
DEFAULT
100
AcDbSpline
210
0.0
220
0.0
230
1.0
 70
    24
 71
     2
 72
     6
 73
     3
 74
     0
 42
0.0000000001
 43
0.0000000001
 40
0.0
 40
0.0
 40
0.0
 40
1.0
 40
1.0
 40
1.0
 10
20.68708900000001
 20
0.3149609999999967
 30
0.0
 10
20.70677450000002
 20
0.3149609999999967
 30
0.0
 10
20.72646000000003
 20
0.3149609999999967
 30
0.0
  0
SPLINE
  5
83
330
1F
100
AcDbEntity
  8
DEFAULT
100
AcDbSpline
210
0.0
220
0.0
230
1.0
 70
    24
 71
     2
 72
     6
 73
     3
 74
     0
 42
0.0000000001
 43
0.0000000001
 40
0.0
 40
0.0
 40
0.0
 40
1.0
 40
1.0
 40
1.0
 10
12.54582000000005
 20
1.279527999999999
 30
0.0
 10
12.28234250000003
 20
1.279527999999999
 30
0.0
 10
12.01886500000001
 20
1.279527999999999
 30
0.0
  0
ARC
  5
84
330
1F
100
AcDbEntity
  8
DEFAULT
100
AcDbCircle
 10
13.06217200000003
 20
19.8903277334461
 30
0.0
 40
0.2362212158982621
100
AcDbArc
 50
0.0
 51
67.93618295880017
  0
SPLINE
  5
85
330
1F
100
AcDbEntity
  8
DEFAULT
100
AcDbSpline
210
0.0
220
0.0
230
1.0
 70
    24
 71
     2
 72
     6
 73
     3
 74
     0
 42
0.0000000001
 43
0.0000000001
 40
0.0
 40
0.0
 40
0.0
 40
1.0
 40
1.0
 40
1.0
 10
12.01886500000001
 20
39.23063273344609
 30
0.0
 10
12.01886500000001
 20
39.5900027334461
 30
0.0
 10
12.01886500000001
 20
39.94937273344611
 30
0.0
  0
SPLINE
  5
86
330
1F
100
AcDbEntity
  8
DEFAULT
100
AcDbSpline
210
0.0
220
0.0
230
1.0
 70
     8
 71
     3
 72
     8
 73
     4
 74
     0
 42
0.0000000001
 43
0.0000000001
 40
0.0
 40
0.0
 40
0.0
 40
0.0
 40
1.0
 40
1.0
 40
1.0
 40
1.0
 10
15.78501510263703
 20
8.622559636828
 30
0.0
 10
14.47292159873302
 20
8.601664117168
 30
0.0
 10
12.65089106787804
 20
8.294892940292002
 30
0.0
 10
10.39709994424203
 20
6.751231503623998
 30
0.0
  0
SPLINE
  5
87
330
1F
100
AcDbEntity
  8
DEFAULT
100
AcDbSpline
210
0.0
220
0.0
230
1.0
 70
    24
 71
     2
 72
     6
 73
     3
 74
     0
 42
0.0000000001
 43
0.0000000001
 40
0.0
 40
0.0
 40
0.0
 40
1.0
 40
1.0
 40
1.0
 10
10.73933800000003
 20
39.1372467334461
 30
0.0
 10
10.73933800000003
 20
38.9896042334461
 30
0.0
 10
10.73933800000003
 20
38.8419617334461
 30
0.0
  0
ARC
  5
88
330
1F
100
AcDbEntity
  8
DEFAULT
100
AcDbCircle
 10
-1.220471999999972
 20
23.5002097334461
 30
0.0
 40
0.0590560000000009
100
AcDbArc
 50
180.0
 51
270.0
  0
SPLINE
  5
89
330
1F
100
AcDbEntity
  8
DEFAULT
100
AcDbSpline
210
0.0
220
0.0
230
1.0
 70
    24
 71
     2
 72
     6
 73
     3
 74
     0
 42
0.0000000001
 43
0.0000000001
 40
0.0
 40
0.0
 40
0.0
 40
1.0
 40
1.0
 40
1.0
 10
1.279528000000028
 20
22.5946977334461
 30
0.0
 10
1.279528000000028
 20
22.44705523344609
 30
0.0
 10
1.279528000000028
 20
22.29941273344609
 30
0.0
  0
SPLINE
  5
8A
330
1F
100
AcDbEntity
  8
DEFAULT
100
AcDbSpline
210
0.0
220
0.0
230
1.0
 70
    24
 71
     2
 72
     6
 73
     3
 74
     0
 42
0.0000000001
 43
0.0000000001
 40
0.0
 40
0.0
 40
0.0
 40
1.0
 40
1.0
 40
1.0
 10
12.423269
 20
1.456693000000001
 30
0.0
 10
12.94406150000003
 20
1.456693000000001
 30
0.0
 10
13.46485400000006
 20
1.456693000000001
 30
0.0
  0
SPLINE
  5
8B
330
1F
100
AcDbEntity
  8
DEFAULT
100
AcDbSpline
210
0.0
220
0.0
230
1.0
 70
    24
 71
     2
 72
     6
 73
     3
 74
     0
 42
0.0000000001
 43
0.0000000001
 40
0.0
 40
0.0
 40
0.0
 40
1.0
 40
1.0
 40
1.0
 10
19.78127200000006
 20
1.574804
 30
0.0
 10
20.24712450000004
 20
1.574804
 30
0.0
 10
20.71297700000002
 20
1.574804
 30
0.0
  0
LINE
  5
8C
330
1F
100
AcDbEntity
  8
DEFAULT
100
AcDbLine
 10
10.61413000000005
 20
6.161256999999992
 30
0.0
 11
10.61413000000005
 21
4.308398198145326
 31
0.0
  0
ARC
  5
8D
330
1F
100
AcDbEntity
  8
DEFAULT
100
AcDbCircle
 10
8.947130000000016
 20
-0.9012440000000055
 30
0.0
 40
0.125
100
AcDbArc
 50
180.0
 51
270.0
  0
SPLINE
  5
8E
330
1F
100
AcDbEntity
  8
DEFAULT
100
AcDbSpline
210
0.0
220
0.0
230
1.0
 70
    24
 71
     2
 72
     6
 73
     3
 74
     0
 42
0.0000000001
 43
0.0000000001
 40
0.0
 40
0.0
 40
0.0
 40
1.0
 40
1.0
 40
1.0
 10
9.072130000000016
 20
6.656255999999999
 30
0.0
 10
9.072130000000016
 20
6.440005999999997
 30
0.0
 10
9.072130000000016
 20
6.223755999999995
 30
0.0
  0
SPLINE
  5
8F
330
1F
100
AcDbEntity
  8
DEFAULT
100
AcDbSpline
210
0.0
220
0.0
230
1.0
 70
     8
 71
     3
 72
     8
 73
     4
 74
     0
 42
0.0000000001
 43
0.0000000001
 40
0.0
 40
0.0
 40
0.0
 40
0.0
 40
1.0
 40
1.0
 40
1.0
 40
1.0
 10
3.459243897363024
 20
8.622559636828
 30
0.0
 10
4.771337401267033
 20
8.601664117168
 30
0.0
 10
6.593367932122021
 20
8.294892940292002
 30
0.0
 10
8.847159055758027
 20
6.751231503623998
 30
0.0
  0
SPLINE
  5
90
330
1F
100
AcDbEntity
  8
DEFAULT
100
AcDbSpline
210
0.0
220
0.0
230
1.0
 70
    24
 71
     2
 72
     6
 73
     3
 74
     0
 42
0.0000000001
 43
0.0000000001
 40
0.0
 40
0.0
 40
0.0
 40
1.0
 40
1.0
 40
1.0
 10
0.5608570000000555
 20
36.07853673344609
 30
0.0
 10
-0.3298069999999598
 20
36.07853673344609
 30
0.0
 10
-1.220470999999975
 20
36.07853673344609
 30
0.0
  0
SPLINE
  5
91
330
1F
100
AcDbEntity
  8
DEFAULT
100
AcDbSpline
210
0.0
220
0.0
230
1.0
 70
     8
 71
     3
 72
    10
 73
     6
 74
     0
 42
0.0000000001
 43
0.0000000001
 40
0.0
 40
0.0
 40
0.0
 40
0.0
 40
0.3333963920218
 40
0.6666152796276
 40
1.0
 40
1.0
 40
1.0
 40
1.0
 10
0.7601199702910435
 20
22.5656992134261
 30
0.0
 10
0.7144350499230541
 20
22.61231271307609
 30
0.0
 10
0.6275918090819914
 20
22.71005926451609
 30
0.0
 10
0.5123560059560077
 20
22.8686673885661
 30
0.0
 10
0.4462298834459943
 20
22.98146309382609
 30
0.0
 10
0.416016065934059
 20
23.03931425862611
 30
0.0
  0
SPLINE
  5
92
330
1F
100
AcDbEntity
  8
DEFAULT
100
AcDbSpline
210
0.0
220
0.0
230
1.0
 70
    24
 71
     2
 72
     6
 73
     3
 74
     0
 42
0.0000000001
 43
0.0000000001
 40
0.0
 40
0.0
 40
0.0
 40
1.0
 40
1.0
 40
1.0
 10
-1.0625
 20
24.0309337334461
 30
0.0
 10
0.0
 20
24.0309337334461
 30
0.0
 10
1.0625
 20
24.0309337334461
 30
0.0
  0
ARC
  5
93
330
1F
100
AcDbEntity
  8
DEFAULT
100
AcDbCircle
 10
12.94406200000003
 20
39.5900027334461
 30
0.0
 40
0.5364174192258131
100
AcDbArc
 50
313.954567372508
 51
17.68133024190298
  0
SPLINE
  5
94
330
1F
100
AcDbEntity
  8
DEFAULT
100
AcDbSpline
210
0.0
220
0.0
230
1.0
 70
    24
 71
     2
 72
     6
 73
     3
 74
     0
 42
0.0000000001
 43
0.0000000001
 40
0.0
 40
0.0
 40
0.0
 40
1.0
 40
1.0
 40
1.0
 10
-1.279527999999971
 20
22.5946977334461
 30
0.0
 10
-1.279527999999971
 20
22.44705523344609
 30
0.0
 10
-1.279527999999971
 20
22.29941273344609
 30
0.0
  0
SPLINE
  5
95
330
1F
100
AcDbEntity
  8
DEFAULT
100
AcDbSpline
210
0.0
220
0.0
230
1.0
 70
    24
 71
     2
 72
     6
 73
     3
 74
     0
 42
0.0000000001
 43
0.0000000001
 40
0.0
 40
0.0
 40
0.0
 40
1.0
 40
1.0
 40
1.0
 10
13.29839300000003
 20
18.68953173344609
 30
0.0
 10
13.29839300000003
 20
18.5418892334461
 30
0.0
 10
13.29839300000003
 20
18.39424673344611
 30
0.0
  0
SPLINE
  5
96
330
1F
100
AcDbEntity
  8
DEFAULT
100
AcDbSpline
210
0.0
220
0.0
230
1.0
 70
    24
 71
     2
 72
     6
 73
     3
 74
     0
 42
0.0000000001
 43
0.0000000001
 40
0.0
 40
0.0
 40
0.0
 40
1.0
 40
1.0
 40
1.0
 10
3.416235000000029
 20
24.1625617334461
 30
0.0
 10
2.209424000000013
 20
23.3516632334461
 30
0.0
 10
1.002612999999997
 20
22.5407647334461
 30
0.0
  0
SPLINE
  5
97
330
1F
100
AcDbEntity
  8
DEFAULT
100
AcDbSpline
210
0.0
220
0.0
230
1.0
 70
    24
 71
     2
 72
     6
 73
     3
 74
     0
 42
0.0000000001
 43
0.0000000001
 40
0.0
 40
0.0
 40
0.0
 40
1.0
 40
1.0
 40
1.0
 10
13.29839300000003
 20
0.3149609999999967
 30
0.0
 10
13.29839300000003
 20
0.1574804999999984
 30
0.0
 10
13.29839300000003
 20
0.0
 30
0.0
  0
CIRCLE
  5
98
330
1F
100
AcDbEntity
  8
DEFAULT
100
AcDbCircle
 10
12.01886500000001
 20
0.0
 30
0.0
 40
1.0
  0
CIRCLE
  5
99
330
1F
100
AcDbEntity
  8
DEFAULT
100
AcDbCircle
 10
12.01886500000001
 20
0.0
 30
0.0
 40
1.0625
  0
SPLINE
  5
9A
330
1F
100
AcDbEntity
  8
DEFAULT
100
AcDbSpline
210
0.0
220
0.0
230
1.0
 70
    24
 71
     2
 72
     6
 73
     3
 74
     0
 42
0.0000000001
 43
0.0000000001
 40
0.0
 40
0.0
 40
0.0
 40
1.0
 40
1.0
 40
1.0
 10
13.29839300000003
 20
39.1372467334461
 30
0.0
 10
13.29839300000003
 20
38.9896042334461
 30
0.0
 10
13.29839300000003
 20
38.8419617334461
 30
0.0
  0
ARC
  5
9B
330
1F
100
AcDbEntity
  8
DEFAULT
100
AcDbCircle
 10
-1.220471999999972
 20
22.5946977334461
 30
0.0
 40
0.0590555000000004
100
AcDbArc
 50
90.0
 51
180.0
  0
ARC
  5
9C
330
1F
100
AcDbEntity
  8
DEFAULT
100
AcDbCircle
 10
0.9251970000000256
 20
23.04745373344609
 30
0.0
 40
0.5364172339838719
100
AcDbArc
 50
270.2356277291128
 51
334.043808538358
  0
SPLINE
  5
9D
330
1F
100
AcDbEntity
  8
DEFAULT
100
AcDbSpline
210
0.0
220
0.0
230
1.0
 70
    24
 71
     2
 72
     6
 73
     3
 74
     0
 42
0.0000000001
 43
0.0000000001
 40
0.0
 40
0.0
 40
0.0
 40
1.0
 40
1.0
 40
1.0
 10
-1.220470999999975
 20
35.2911357334461
 30
0.0
 10
-0.3298069999999598
 20
35.2911357334461
 30
0.0
 10
0.5608570000000555
 20
35.2911357334461
 30
0.0
  0
ARC
  5
9E
330
1F
100
AcDbEntity
  8
DEFAULT
100
AcDbCircle
 10
10.97555800000004
 20
38.8419617334461
 30
0.0
 40
0.2362205042417886
100
AcDbArc
 50
180.0
 51
265.3395701367957
  0
CIRCLE
  5
9F
330
1F
100
AcDbEntity
  8
DEFAULT
100
AcDbCircle
 10
9.622130000000027
 20
29.36614473344609
 30
0.0
 40
8.099999999999998
  0
ARC
  5
A0
330
1F
100
AcDbEntity
  8
DEFAULT
100
AcDbCircle
 10
0.9251970000000256
 20
23.04745373344609
 30
0.0
 40
0.5364176929571642
100
AcDbArc
 50
171.8583419509518
 51
260.2570541400641
  0
SPLINE
  5
A1
330
1F
100
AcDbEntity
  8
DEFAULT
100
AcDbSpline
210
0.0
220
0.0
230
1.0
 70
     8
 71
     3
 72
     8
 73
     4
 74
     0
 42
0.0000000001
 43
0.0000000001
 40
0.0
 40
0.0
 40
0.0
 40
0.0
 40
1.0
 40
1.0
 40
1.0
 40
1.0
 10
0.4672303987450732
 20
35.45463400953609
 30
0.0
 10
0.4628518762310705
 20
35.4580496692261
 30
0.0
 10
0.4586192733880239
 20
35.46166821017609
 30
0.0
 10
0.4545504093540558
 20
35.4654708562861
 30
0.0
  0
SPLINE
  5
A2
330
1F
100
AcDbEntity
  8
DEFAULT
100
AcDbSpline
210
0.0
220
0.0
230
1.0
 70
     8
 71
     3
 72
    10
 73
     6
 74
     0
 42
0.0000000001
 43
0.0000000001
 40
0.0
 40
0.0
 40
0.0
 40
0.0
 40
0.4283511036586
 40
0.8571038310804
 40
1.0
 40
1.0
 40
1.0
 40
1.0
 10
1.002612774602028
 20
22.5407649990361
 30
0.0
 10
0.988032370270048
 20
22.5309146798261
 30
0.0
 10
0.9558874572170453
 20
22.5152522713261
 30
0.0
 10
0.9149207479040342
 20
22.5080837764561
 30
0.0
 10
0.8913400571919965
 20
22.5083787733161
 30
0.0
 10
0.8854610831830314
 20
22.5087239176261
 30
0.0
  0
SPLINE
  5
A3
330
1F
100
AcDbEntity
  8
DEFAULT
100
AcDbSpline
210
0.0
220
0.0
230
1.0
 70
     8
 71
     3
 72
    10
 73
     6
 74
     0
 42
0.0000000001
 43
0.0000000001
 40
0.0
 40
0.0
 40
0.0
 40
0.0
 40
0.1665696722804
 40
0.6665577656833
 40
1.0
 40
1.0
 40
1.0
 40
1.0
 10
0.3943855933160307
 20
23.12372418186611
 30
0.0
 10
0.3942597552850202
 20
23.12960484821609
 30
0.0
 10
0.3948402775140494
 20
23.15315900495609
 30
0.0
 10
0.4022554944610306
 20
23.1880541879861
 30
0.0
 10
0.4148819241549973
 20
23.2147750933561
 30
0.0
 10
0.4208803211750478
 20
23.22491263682609
 30
0.0
  0
ARC
  5
A4
330
1F
100
AcDbEntity
  8
DEFAULT
100
AcDbCircle
 10
13.24426000000005
 20
0.5448949999999968
 30
0.0
 40
0.2362201456744931
100
AcDbArc
 50
283.2478113805399
 51
359.9999999999999
  0
CIRCLE
  5
A5
330
1F
100
AcDbEntity
  8
DEFAULT
100
AcDbCircle
 10
19.44693200000006
 20
0.0
 30
0.0
 40
1.279528000000001
  0
CIRCLE
  5
A6
330
1F
100
AcDbEntity
  8
DEFAULT
100
AcDbCircle
 10
0.0
 20
0.0
 30
0.0
 40
1.279528000000001
  0
ARC
  5
A7
330
1F
100
AcDbEntity
  8
DEFAULT
100
AcDbCircle
 10
19.85133600000006
 20
1.441068000000001
 30
0.0
 40
0.015625
100
AcDbArc
 50
90.0
 51
180.0
  0
SPLINE
  5
A8
330
1F
100
AcDbEntity
  8
DEFAULT
100
AcDbSpline
210
0.0
220
0.0
230
1.0
 70
     8
 71
     3
 72
     9
 73
     5
 74
     0
 42
0.0000000001
 43
0.0000000001
 40
0.0
 40
0.0
 40
0.0
 40
0.0
 40
1.000000115485941
 40
2.0
 40
2.0
 40
2.0
 40
2.0
 10
12.38205800000003
 20
2.60146499999999
 30
0.0
 10
12.39910946089151
 20
2.574127984616013
 30
0.0
 10
12.4158581407205
 20
2.511463308169638
 30
0.0
 10
12.42334722027442
 20
2.44789504975401
 30
0.0
 10
12.42477450000001
 20
2.415829000000002
 30
0.0
  0
SPLINE
  5
A9
330
1F
100
AcDbEntity
  8
DEFAULT
100
AcDbSpline
210
0.0
220
0.0
230
1.0
 70
    24
 71
     2
 72
     6
 73
     3
 74
     0
 42
0.0000000001
 43
0.0000000001
 40
0.0
 40
0.0
 40
0.0
 40
1.0
 40
1.0
 40
1.0
 10
12.42477450000001
 20
2.415829000000002
 30
0.0
 10
12.44256071071118
 20
2.023956498217061
 30
0.0
 10
12.46034692142234
 20
1.632083996434119
 30
0.0
  0
ARC
  5
AA
330
1F
100
AcDbEntity
  8
DEFAULT
100
AcDbCircle
 10
12.52028508236708
 20
1.63480392134403
 30
0.0
 40
0.0599998427410689
100
AcDbArc
 50
182.598234190645
 51
269.9975340146328
  0
SPLINE
  5
AB
330
1F
100
AcDbEntity
  8
DEFAULT
100
AcDbSpline
210
0.0
220
0.0
230
1.0
 70
    24
 71
     2
 72
     6
 73
     3
 74
     0
 42
0.0000000001
 43
0.0000000001
 40
0.0
 40
0.0
 40
0.0
 40
1.0
 40
1.0
 40
1.0
 10
12.52028250000001
 20
1.574804078658531
 30
0.0
 10
12.93583825000002
 20
1.574804088336712
 30
0.0
 10
13.35139400000003
 20
1.574804098014894
 30
0.0
  0
ARC
  5
AC
330
1F
100
AcDbEntity
  8
DEFAULT
100
AcDbCircle
 10
13.35139389779113
 20
1.634804423377844
 30
0.0
 40
0.0600003253630366
100
AcDbArc
 50
270.0000976017901
 51
357.6001198212138
  0
SPLINE
  5
AD
330
1F
100
AcDbEntity
  8
DEFAULT
100
AcDbSpline
210
0.0
220
0.0
230
1.0
 70
    24
 71
     2
 72
     6
 73
     3
 74
     0
 42
0.0000000001
 43
0.0000000001
 40
0.0
 40
0.0
 40
0.0
 40
1.0
 40
1.0
 40
1.0
 10
13.41134159792898
 20
1.632291995896409
 30
0.0
 10
13.43427229896452
 20
2.180653997948205
 30
0.0
 10
13.45720300000005
 20
2.729016000000001
 30
0.0
  0
SPLINE
  5
AE
330
1F
100
AcDbEntity
  8
DEFAULT
100
AcDbSpline
210
0.0
220
0.0
230
1.0
 70
     8
 71
     3
 72
     9
 73
     5
 74
     0
 42
0.0000000001
 43
0.0000000001
 40
0.0
 40
0.0
 40
0.0
 40
0.0
 40
0.9999377902530446
 40
2.0
 40
2.0
 40
2.0
 40
2.0
 10
13.45720300000005
 20
2.729016000000001
 30
0.0
 10
13.45739892508391
 20
2.739728213790485
 30
0.0
 10
13.45306679464113
 20
2.761353775542503
 30
0.0
 10
13.43940082118979
 20
2.778628490951661
 30
0.0
 10
13.43125100000003
 20
2.785572999999999
 30
0.0
  0
SPLINE
  5
AF
330
1F
100
AcDbEntity
  8
DEFAULT
100
AcDbSpline
210
0.0
220
0.0
230
1.0
 70
    24
 71
     2
 72
     6
 73
     3
 74
     0
 42
0.0000000001
 43
0.0000000001
 40
0.0
 40
0.0
 40
0.0
 40
1.0
 40
1.0
 40
1.0
 10
20.908546
 20
1.441068000000001
 30
0.0
 10
20.908546
 20
0.9929814999999991
 30
0.0
 10
20.908546
 20
0.5448949999999968
 30
0.0
  0
ARC
  5
B0
330
1F
100
AcDbEntity
  8
DEFAULT
100
AcDbCircle
 10
20.892921
 20
1.441068000000001
 30
0.0
 40
0.015625
100
AcDbArc
 50
0.0
 51
90.0
  0
SPLINE
  5
B1
330
1F
100
AcDbEntity
  8
DEFAULT
100
AcDbSpline
210
0.0
220
0.0
230
1.0
 70
    24
 71
     2
 72
     6
 73
     3
 74
     0
 42
0.0000000001
 43
0.0000000001
 40
0.0
 40
0.0
 40
0.0
 40
1.0
 40
1.0
 40
1.0
 10
-1.220470999999975
 20
22.6537527334461
 30
0.0
 10
-0.3298069999999598
 20
22.6537527334461
 30
0.0
 10
0.5608570000000555
 20
22.6537527334461
 30
0.0
  0
SPLINE
  5
B2
330
1F
100
AcDbEntity
  8
DEFAULT
100
AcDbSpline
210
0.0
220
0.0
230
1.0
 70
     8
 71
     3
 72
    10
 73
     6
 74
     0
 42
0.0000000001
 43
0.0000000001
 40
0.0
 40
0.0
 40
0.0
 40
0.0
 40
0.1429075397063
 40
0.5715247627706
 40
1.0
 40
1.0
 40
1.0
 40
1.0
 10
0.8854793419510543
 20
36.2235667610761
 30
0.0
 10
0.8913579441630191
 20
36.22391132860609
 30
0.0
 10
0.9149300054860419
 20
36.22420408032609
 30
0.0
 10
0.9558899922640194
 20
36.21703568706609
 30
0.0
 10
0.9880302633780502
 20
36.20137632085608
 30
0.0
 10
1.002612777435047
 20
36.1915246240661
 30
0.0
  0
SPLINE
  5
B3
330
1F
100
AcDbEntity
  8
DEFAULT
100
AcDbSpline
210
0.0
220
0.0
230
1.0
 70
     8
 71
     3
 72
    10
 73
     6
 74
     0
 42
0.0000000001
 43
0.0000000001
 40
0.0
 40
0.0
 40
0.0
 40
0.0
 40
0.3335870131841
 40
0.8335356046255
 40
1.0
 40
1.0
 40
1.0
 40
1.0
 10
0.4208786359910164
 20
35.50737928733609
 30
0.0
 10
0.4148780398240319
 20
35.51752085724611
 30
0.0
 10
0.4022523092870642
 20
35.54424515632608
 30
0.0
 10
0.3948396359360231
 20
35.57913903817611
 30
0.0
 10
0.3942599272540406
 20
35.6026866980461
 30
0.0
 10
0.3943856528110246
 20
35.60856331869608
 30
0.0
  0
SPLINE
  5
B4
330
1F
100
AcDbEntity
  8
DEFAULT
100
AcDbSpline
210
0.0
220
0.0
230
1.0
 70
    24
 71
     2
 72
     6
 73
     3
 74
     0
 42
0.0000000001
 43
0.0000000001
 40
0.0
 40
0.0
 40
0.0
 40
1.0
 40
1.0
 40
1.0
 10
-1.0625
 20
34.70135573344611
 30
0.0
 10
0.0
 20
34.70135573344611
 30
0.0
 10
1.0625
 20
34.70135573344611
 30
0.0
  0
SPLINE
  5
B5
330
1F
100
AcDbEntity
  8
DEFAULT
100
AcDbSpline
210
0.0
220
0.0
230
1.0
 70
     8
 71
     3
 72
    11
 73
     7
 74
     0
 42
0.0000000001
 43
0.0000000001
 40
0.0
 40
0.0
 40
0.0
 40
0.0
 40
0.2500394730186
 40
0.5003140864778
 40
0.7504418471957
 40
1.0
 40
1.0
 40
1.0
 40
1.0
 10
13.44987436558006
 20
19.05933884002609
 30
0.0
 10
13.45473696221006
 20
19.04242817819609
 30
0.0
 10
13.45969946272004
 20
19.0070166457361
 30
0.0
 10
13.45218927809003
 20
18.95407953234609
 30
0.0
 10
13.43043408558003
 20
18.9052319001961
 30
0.0
 10
13.40762776448003
 20
18.87790797850609
 30
0.0
 10
13.39457302043002
 20
18.8660565345461
 30
0.0
  0
SPLINE
  5
B6
330
1F
100
AcDbEntity
  8
DEFAULT
100
AcDbSpline
210
0.0
220
0.0
230
1.0
 70
     8
 71
     3
 72
     8
 73
     4
 74
     0
 42
0.0000000001
 43
0.0000000001
 40
0.0
 40
0.0
 40
0.0
 40
0.0
 40
1.0
 40
1.0
 40
1.0
 40
1.0
 10
13.39457302043002
 20
18.8660565345461
 30
0.0
 10
13.38156207848004
 20
18.8542448552961
 30
0.0
 10
13.36689770569001
 20
18.84421609440609
 30
0.0
 10
13.35122674433001
 20
18.83641999081111
 30
0.0
  0
SPLINE
  5
B7
330
1F
100
AcDbEntity
  8
DEFAULT
100
AcDbSpline
210
0.0
220
0.0
230
1.0
 70
     8
 71
     3
 72
    10
 73
     6
 74
     0
 42
0.0000000001
 43
0.0000000001
 40
0.0
 40
0.0
 40
0.0
 40
0.0
 40
0.3750985454465
 40
0.7499960074013
 40
1.0
 40
1.0
 40
1.0
 40
1.0
 10
13.35122674433001
 20
18.83641999081111
 30
0.0
 10
13.29277703762
 20
18.80737528458609
 30
0.0
 10
13.17297827979007
 20
18.7549876537861
 30
0.0
 10
13.00725195787004
 20
18.70113972373609
 30
0.0
 10
12.90131668287006
 20
18.67606491060609
 30
0.0
 10
12.85866471455006
 20
18.6674273361661
 30
0.0
  0
SPLINE
  5
B8
330
1F
100
AcDbEntity
  8
DEFAULT
100
AcDbSpline
210
0.0
220
0.0
230
1.0
 70
     8
 71
     3
 72
     8
 73
     4
 74
     0
 42
0.0000000001
 43
0.0000000001
 40
0.0
 40
0.0
 40
0.0
 40
0.0
 40
1.0
 40
1.0
 40
1.0
 40
1.0
 10
12.85866471455006
 20
18.6674273361661
 30
0.0
 10
12.83732551353
 20
18.6631058723661
 30
0.0
 10
12.81591860386004
 20
18.6591333638661
 30
0.0
 10
12.79445766815002
 20
18.65551252098611
 30
0.0
  0
SPLINE
  5
B9
330
1F
100
AcDbEntity
  8
DEFAULT
100
AcDbSpline
210
0.0
220
0.0
230
1.0
 70
    24
 71
     2
 72
     6
 73
     3
 74
     0
 42
0.0000000001
 43
0.0000000001
 40
0.0
 40
0.0
 40
0.0
 40
1.0
 40
1.0
 40
1.0
 10
12.65307200000007
 20
21.8568077334461
 30
0.0
 10
13.05147300000004
 20
20.4580732334461
 30
0.0
 10
13.44987400000002
 20
19.0593387334461
 30
0.0
  0
SPLINE
  5
BA
330
1F
100
AcDbEntity
  8
DEFAULT
100
AcDbSpline
210
0.0
220
0.0
230
1.0
 70
    24
 71
     2
 72
     6
 73
     3
 74
     0
 42
0.0000000001
 43
0.0000000001
 40
0.0
 40
0.0
 40
0.0
 40
1.0
 40
1.0
 40
1.0
 10
10.73933800000003
 20
19.50165773344609
 30
0.0
 10
10.73933800000003
 20
19.1422872334461
 30
0.0
 10
10.73933800000003
 20
18.7829167334461
 30
0.0
  0
SPLINE
  5
BB
330
1F
100
AcDbEntity
  8
DEFAULT
100
AcDbSpline
210
0.0
220
0.0
230
1.0
 70
    24
 71
     2
 72
     6
 73
     3
 74
     0
 42
0.0000000001
 43
0.0000000001
 40
0.0
 40
0.0
 40
0.0
 40
1.0
 40
1.0
 40
1.0
 10
10.95636500000001
 20
40.57348273344608
 30
0.0
 10
12.01886500000001
 20
40.57348273344608
 30
0.0
 10
13.08136500000001
 20
40.57348273344608
 30
0.0
  0
SPLINE
  5
BC
330
1F
100
AcDbEntity
  8
DEFAULT
100
AcDbSpline
210
0.0
220
0.0
230
1.0
 70
    24
 71
     2
 72
     6
 73
     3
 74
     0
 42
0.0000000001
 43
0.0000000001
 40
0.0
 40
0.0
 40
0.0
 40
1.0
 40
1.0
 40
1.0
 10
13.29839300000003
 20
19.8903277334461
 30
0.0
 10
13.29839300000003
 20
19.7426852334461
 30
0.0
 10
13.29839300000003
 20
19.59504273344611
 30
0.0
  0
SPLINE
  5
BD
330
1F
100
AcDbEntity
  8
DEFAULT
100
AcDbSpline
210
0.0
220
0.0
230
1.0
 70
     8
 71
     3
 72
    11
 73
     7
 74
     0
 42
0.0000000001
 43
0.0000000001
 40
0.0
 40
0.0
 40
0.0
 40
0.0
 40
0.2716450853917
 40
0.5444638113227
 40
0.8177469840014
 40
1.0
 40
1.0
 40
1.0
 40
1.0
 10
12.79445766686001
 20
18.6555125268461
 30
0.0
 10
12.77720133349004
 20
18.6526096493461
 30
0.0
 10
12.74161726931004
 20
18.65158915987611
 30
0.0
 10
12.68991594601005
 20
18.6646215243061
 30
0.0
 10
12.64874507087006
 20
18.68838853304611
 30
0.0
 10
12.62723375909002
 20
18.70865420550611
 30
0.0
 10
12.61944597547006
 20
18.71749170733609
 30
0.0
  0
SPLINE
  5
BE
330
1F
100
AcDbEntity
  8
DEFAULT
100
AcDbSpline
210
0.0
220
0.0
230
1.0
 70
    24
 71
     2
 72
     6
 73
     3
 74
     0
 42
0.0000000001
 43
0.0000000001
 40
0.0
 40
0.0
 40
0.0
 40
1.0
 40
1.0
 40
1.0
 10
10.73933800000003
 20
40.3380427334461
 30
0.0
 10
10.73933800000003
 20
40.1904007334461
 30
0.0
 10
10.73933800000003
 20
40.04275873344609
 30
0.0
  0
ARC
  5
BF
330
1F
100
AcDbEntity
  8
DEFAULT
100
AcDbCircle
 10
-1.04330699999997
 20
36.43287673344609
 30
0.0
 40
0.2362210042417925
100
AcDbArc
 50
94.6604298632043
 51
180.0
  0
SPLINE
  5
C0
330
1F
100
AcDbEntity
  8
DEFAULT
100
AcDbSpline
210
0.0
220
0.0
230
1.0
 70
     8
 71
     3
 72
    10
 73
     6
 74
     0
 42
0.0000000001
 43
0.0000000001
 40
0.0
 40
0.0
 40
0.0
 40
0.0
 40
0.3333954294379
 40
0.6666145814545
 40
1.0
 40
1.0
 40
1.0
 40
1.0
 10
0.4160101829380665
 20
35.69296410724608
 30
0.0
 10
0.446224737967043
 20
35.75081719345609
 30
0.0
 10
0.5123511084990469
 20
35.8636151391661
 30
0.0
 10
0.627586477238026
 20
36.02222338537611
 30
0.0
 10
0.7144275407750342
 20
36.11996890823609
 30
0.0
 10
0.7601107495390238
 20
36.16658100489609
 30
0.0
  0
SPLINE
  5
C1
330
1F
100
AcDbEntity
  8
DEFAULT
100
AcDbSpline
210
0.0
220
0.0
230
1.0
 70
     8
 71
     3
 72
     9
 73
     5
 74
     0
 42
0.0000000001
 43
0.0000000001
 40
0.0
 40
0.0
 40
0.0
 40
0.0
 40
0.7494677026309
 40
1.0
 40
1.0
 40
1.0
 40
1.0
 10
0.7601107495390238
 20
36.16658100489609
 30
0.0
 10
0.772364974131051
 20
36.17907228430609
 30
0.0
 10
0.7911296880930649
 20
36.1935452866761
 30
0.0
 10
0.812004210547002
 20
36.20423928888609
 30
0.0
 10
0.8173443800270661
 20
36.20667257395608
 30
0.0
  0
SPLINE
  5
C2
330
1F
100
AcDbEntity
  8
DEFAULT
100
AcDbSpline
210
0.0
220
0.0
230
1.0
 70
    24
 71
     2
 72
     6
 73
     3
 74
     0
 42
0.0000000001
 43
0.0000000001
 40
0.0
 40
0.0
 40
0.0
 40
1.0
 40
1.0
 40
1.0
 10
10.30838000000006
 20
6.746856999999991
 30
0.0
 10
10.30838000000006
 20
6.726556499999994
 30
0.0
 10
10.30838000000006
 20
6.706255999999996
 30
0.0
  0
ARC
  5
C3
330
1F
100
AcDbEntity
  8
DEFAULT
100
AcDbCircle
 10
-1.04330699999997
 20
23.79549373344609
 30
0.0
 40
0.2362210042417907
100
AcDbArc
 50
94.66042986320443
 51
180.0
  0
SPLINE
  5
C4
330
1F
100
AcDbEntity
  8
DEFAULT
100
AcDbSpline
210
0.0
220
0.0
230
1.0
 70
    24
 71
     2
 72
     6
 73
     3
 74
     0
 42
0.0000000001
 43
0.0000000001
 40
0.0
 40
0.0
 40
0.0
 40
1.0
 40
1.0
 40
1.0
 10
0.5269550000000436
 20
36.0442067334461
 30
0.0
 10
-0.3762864999999636
 20
36.0442067334461
 30
0.0
 10
-1.279527999999971
 20
36.0442067334461
 30
0.0
  0
SPLINE
  5
C5
330
1F
100
AcDbEntity
  8
DEFAULT
100
AcDbSpline
210
0.0
220
0.0
230
1.0
 70
     8
 71
     3
 72
     9
 73
     5
 74
     0
 42
0.0000000001
 43
0.0000000001
 40
0.0
 40
0.0
 40
0.0
 40
0.0
 40
0.5003465925173
 40
1.0
 40
1.0
 40
1.0
 40
1.0
 10
0.8854610831830314
 20
22.5087239176261
 30
0.0
 10
0.8737108121340498
 20
22.50941375554611
 30
0.0
 10
0.8503505918430392
 20
22.51295936632609
 30
0.0
 10
0.8280568671170272
 20
22.52073725050609
 30
0.0
 10
0.8173604801500005
 20
22.52560992806609
 30
0.0
  0
SPLINE
  5
C6
330
1F
100
AcDbEntity
  8
DEFAULT
100
AcDbSpline
210
0.0
220
0.0
230
1.0
 70
    24
 71
     2
 72
     6
 73
     3
 74
     0
 42
0.0000000001
 43
0.0000000001
 40
0.0
 40
0.0
 40
0.0
 40
1.0
 40
1.0
 40
1.0
 10
10.79839500000003
 20
39.19630173344611
 30
0.0
 10
11.55227400000001
 20
39.19630173344611
 30
0.0
 10
12.30615299999999
 20
39.19630173344611
 30
0.0
  0
SPLINE
  5
C7
330
1F
100
AcDbEntity
  8
DEFAULT
100
AcDbSpline
210
0.0
220
0.0
230
1.0
 70
     8
 71
     3
 72
     9
 73
     5
 74
     0
 42
0.0000000001
 43
0.0000000001
 40
0.0
 40
0.0
 40
0.0
 40
0.0
 40
1.0
 40
2.0
 40
2.0
 40
2.0
 40
2.0
 10
9.055124000000035
 20
3.920968999999999
 30
0.0
 10
9.097549390875656
 20
3.922976362295472
 30
0.0
 10
9.182452552475638
 20
3.924811059239104
 30
0.0
 10
9.267439738416215
 20
3.924591205705553
 30
0.0
 10
9.309802000000047
 20
3.921478999999991
 30
0.0
  0
SPLINE
  5
C8
330
1F
100
AcDbEntity
  8
DEFAULT
100
AcDbSpline
210
0.0
220
0.0
230
1.0
 70
     8
 71
     3
 72
     9
 73
     5
 74
     0
 42
0.0000000001
 43
0.0000000001
 40
0.0
 40
0.0
 40
0.0
 40
0.0
 40
1.0
 40
2.0
 40
2.0
 40
2.0
 40
2.0
 10
8.630130000000008
 20
4.308345222177593
 30
0.0
 10
7.249478464699223
 20
4.272404215957124
 30
0.0
 10
4.559745392397019
 20
3.849709083087419
 30
0.0
 10
1.91711535936156
 20
3.216641134994376
 30
0.0
 10
0.4868670000000748
 20
2.797450999999995
 30
0.0
  0
CIRCLE
  5
C9
330
1F
100
AcDbEntity
  8
DEFAULT
100
AcDbCircle
 10
12.01886500000001
 20
0.0
 30
0.0
 40
1.279528000000001
  0
SPLINE
  5
CA
330
1F
100
AcDbEntity
  8
DEFAULT
100
AcDbSpline
210
0.0
220
0.0
230
1.0
 70
    24
 71
     2
 72
     6
 73
     3
 74
     0
 42
0.0000000001
 43
0.0000000001
 40
0.0
 40
0.0
 40
0.0
 40
1.0
 40
1.0
 40
1.0
 10
9.235802000000035
 20
4.007722000000001
 30
0.0
 10
9.233874500000042
 20
4.117683
 30
0.0
 10
9.231947000000048
 20
4.227643999999998
 30
0.0
  0
SPLINE
  5
CB
330
1F
100
AcDbEntity
  8
DEFAULT
100
AcDbSpline
210
0.0
220
0.0
230
1.0
 70
    24
 71
     2
 72
     6
 73
     3
 74
     0
 42
0.0000000001
 43
0.0000000001
 40
0.0
 40
0.0
 40
0.0
 40
1.0
 40
1.0
 40
1.0
 10
9.10102100000006
 20
4.007722000000001
 30
0.0
 10
9.099090000000047
 20
4.117682500000001
 30
0.0
 10
9.097159000000033
 20
4.227643
 30
0.0
  0
SPLINE
  5
CC
330
1F
100
AcDbEntity
  8
DEFAULT
100
AcDbSpline
210
0.0
220
0.0
230
1.0
 70
     8
 71
     3
 72
    10
 73
     6
 74
     0
 42
0.0000000001
 43
0.0000000001
 40
0.0
 40
0.0
 40
0.0
 40
0.0
 40
0.3415628690301
 40
0.6759514705783
 40
1.0
 40
1.0
 40
1.0
 40
1.0
 10
9.231946930460026
 20
4.227643913922989
 30
0.0
 10
9.231749908950064
 20
4.238039358083995
 30
0.0
 10
9.236562157010042
 20
4.259064678979996
 30
0.0
 10
9.257525461630053
 20
4.282866337741993
 30
0.0
 10
9.277758350720035
 20
4.289386926784999
 30
0.0
 10
9.287618560670012
 20
4.289666319490991
 30
0.0
  0
SPLINE
  5
CD
330
1F
100
AcDbEntity
  8
DEFAULT
100
AcDbSpline
210
0.0
220
0.0
230
1.0
 70
     8
 71
     3
 72
     8
 73
     4
 74
     0
 42
0.0000000001
 43
0.0000000001
 40
0.0
 40
0.0
 40
0.0
 40
0.0
 40
1.0
 40
1.0
 40
1.0
 40
1.0
 10
12.79444576938999
 20
40.07677911696611
 30
0.0
 10
13.00372462418295
 20
40.03949688981821
 30
0.0
 10
13.2124699780652
 20
39.97649411326223
 30
0.0
 10
13.39455264717003
 20
39.8662515673261
 30
0.0
  0
SPLINE
  5
CE
330
1F
100
AcDbEntity
  8
DEFAULT
100
AcDbSpline
210
0.0
220
0.0
230
1.0
 70
     8
 71
     3
 72
     9
 73
     5
 74
     0
 42
0.0000000001
 43
0.0000000001
 40
0.0
 40
0.0
 40
0.0
 40
0.0
 40
0.3275070810799
 40
1.0
 40
1.0
 40
1.0
 40
1.0
 10
0.4208803211750478
 20
23.22491263682609
 30
0.0
 10
0.4238763861650341
 20
23.2299761127761
 30
0.0
 10
0.433745673348028
 20
23.24501547658609
 30
0.0
 10
0.4457181842630007
 20
23.2585651384361
 30
0.0
 10
0.4545401781830378
 20
23.26681078735611
 30
0.0
  0
SPLINE
  5
CF
330
1F
100
AcDbEntity
  8
DEFAULT
100
AcDbSpline
210
0.0
220
0.0
230
1.0
 70
     8
 71
     3
 72
     9
 73
     5
 74
     0
 42
0.0000000001
 43
0.0000000001
 40
0.0
 40
0.0
 40
0.0
 40
0.0
 40
0.3275075815359
 40
1.0
 40
1.0
 40
1.0
 40
1.0
 10
12.61944597547006
 20
18.71749170733609
 30
0.0
 10
12.61555617580007
 20
18.7219058145461
 30
0.0
 10
12.60430272850999
 20
18.7359393939461
 30
0.0
 10
12.59511595897004
 20
18.75151288689609
 30
0.0
 10
12.59000004703
 20
18.76245106373609
 30
0.0
  0
SPLINE
  5
D0
330
1F
100
AcDbEntity
  8
DEFAULT
100
AcDbSpline
210
0.0
220
0.0
230
1.0
 70
    24
 71
     2
 72
     6
 73
     3
 74
     0
 42
0.0000000001
 43
0.0000000001
 40
0.0
 40
0.0
 40
0.0
 40
1.0
 40
1.0
 40
1.0
 10
10.79839500000003
 20
18.74858673344609
 30
0.0
 10
11.68905900000004
 20
18.74858673344609
 30
0.0
 10
12.57972300000006
 20
18.74858673344609
 30
0.0
  0
SPLINE
  5
D1
330
1F
100
AcDbEntity
  8
DEFAULT
100
AcDbSpline
210
0.0
220
0.0
230
1.0
 70
    24
 71
     2
 72
     6
 73
     3
 74
     0
 42
0.0000000001
 43
0.0000000001
 40
0.0
 40
0.0
 40
0.0
 40
1.0
 40
1.0
 40
1.0
 10
10.42213000000004
 20
0.8487559999999945
 30
0.0
 10
10.42213000000004
 20
-0.0262440000000055
 30
0.0
 10
10.42213000000004
 20
-0.9012440000000055
 30
0.0
  0
SPLINE
  5
D2
330
1F
100
AcDbEntity
  8
DEFAULT
100
AcDbSpline
210
0.0
220
0.0
230
1.0
 70
    24
 71
     2
 72
     6
 73
     3
 74
     0
 42
0.0000000001
 43
0.0000000001
 40
0.0
 40
0.0
 40
0.0
 40
1.0
 40
1.0
 40
1.0
 10
8.822130000000016
 20
0.8487559999999945
 30
0.0
 10
8.822130000000016
 20
-0.0262440000000055
 30
0.0
 10
8.822130000000016
 20
-0.9012440000000055
 30
0.0
  0
ARC
  5
D3
330
1F
100
AcDbEntity
  8
DEFAULT
100
AcDbCircle
 10
10.97555800000004
 20
18.39424673344611
 30
0.0
 40
0.2362205042417904
100
AcDbArc
 50
180.0
 51
265.3395701367957
  0
SPLINE
  5
D4
330
1F
100
AcDbEntity
  8
DEFAULT
100
AcDbSpline
210
0.0
220
0.0
230
1.0
 70
     8
 71
     3
 72
     8
 73
     4
 74
     0
 42
0.0000000001
 43
0.0000000001
 40
0.0
 40
0.0
 40
0.0
 40
0.0
 40
1.0
 40
1.0
 40
1.0
 40
1.0
 10
0.4545401781830378
 20
23.26681078735611
 30
0.0
 10
0.4585999034510451
 20
23.2706052888761
 30
0.0
 10
0.4628228095420468
 20
23.27421631424609
 30
0.0
 10
0.4671912956030155
 20
23.27762508551611
 30
0.0
  0
SPLINE
  5
D5
330
1F
100
AcDbEntity
  8
DEFAULT
100
AcDbSpline
210
0.0
220
0.0
230
1.0
 70
    24
 71
     2
 72
     6
 73
     3
 74
     0
 42
0.0000000001
 43
0.0000000001
 40
0.0
 40
0.0
 40
0.0
 40
1.0
 40
1.0
 40
1.0
 10
19.83571100000006
 20
1.441068000000001
 30
0.0
 10
19.83571100000006
 20
1.360298
 30
0.0
 10
19.83571100000006
 20
1.279527999999999
 30
0.0
  0
ARC
  5
D6
330
1F
100
AcDbEntity
  8
DEFAULT
100
AcDbCircle
 10
20.71298300000001
 20
1.634804000000003
 30
0.0
 40
0.0600002755487352
100
AcDbArc
 50
270.0
 51
357.9999895230753
  0
ARC
  5
D7
330
1F
100
AcDbEntity
  8
DEFAULT
100
AcDbCircle
 10
9.92692024416715
 20
1.877652713152287
 30
0.0
 40
0.0704776720462187
100
AcDbArc
 50
311.4208952918169
 51
336.7301367228051
  0
SPLINE
  5
D8
330
1F
100
AcDbEntity
  8
DEFAULT
100
AcDbSpline
210
0.0
220
0.0
230
1.0
 70
     8
 71
     3
 72
    14
 73
    10
 74
     0
 42
0.0000000001
 43
0.0000000001
 40
0.0
 40
0.0
 40
0.0
 40
0.0
 40
1.0
 40
2.0
 40
3.0
 40
4.0
 40
5.0
 40
6.0
 40
7.0
 40
7.0
 40
7.0
 40
7.0
 10
9.991664861020013
 20
1.849809637790003
 30
0.0
 10
10.00483915016116
 20
1.880444339296545
 30
0.0
 10
10.02047862113216
 20
1.945196222786706
 30
0.0
 10
10.04590213758195
 20
2.041594192016959
 30
0.0
 10
10.07094168139474
 20
2.138110943301072
 30
0.0
 10
10.09555279777237
 20
2.234882391560603
 30
0.0
 10
10.13141011102425
 20
2.327965604747689
 30
0.0
 10
10.18115428561157
 20
2.41568960462962
 30
0.0
 10
10.24339060025795
 20
2.451339779670235
 30
0.0
 10
10.27768700000001
 20
2.443497999999991
 30
0.0
  0
SPLINE
  5
D9
330
1F
100
AcDbEntity
  8
DEFAULT
100
AcDbSpline
210
0.0
220
0.0
230
1.0
 70
    24
 71
     2
 72
     6
 73
     3
 74
     0
 42
0.0000000001
 43
0.0000000001
 40
0.0
 40
0.0
 40
0.0
 40
1.0
 40
1.0
 40
1.0
 10
19.72239400000001
 20
1.606985999999992
 30
0.0
 10
19.72247050000004
 20
1.606846999999995
 30
0.0
 10
19.72254700000008
 20
1.606707999999998
 30
0.0
  0
SPLINE
  5
DA
330
1F
100
AcDbEntity
  8
DEFAULT
100
AcDbSpline
210
0.0
220
0.0
230
1.0
 70
    24
 71
     2
 72
     6
 73
     3
 74
     0
 42
0.0000000001
 43
0.0000000001
 40
0.0
 40
0.0
 40
0.0
 40
1.0
 40
1.0
 40
1.0
 10
20.02632100000005
 20
2.41677
 30
0.0
 10
20.04049000000003
 20
2.024739999999994
 30
0.0
 10
20.05465900000002
 20
1.632709999999989
 30
0.0
  0
ARC
  5
DB
330
1F
100
AcDbEntity
  8
DEFAULT
100
AcDbCircle
 10
1.225395000000049
 20
0.5448949999999968
 30
0.0
 40
0.2362201456744931
100
AcDbArc
 50
283.2478113805402
 51
359.9999999999999
  0
ARC
  5
DC
330
1F
100
AcDbEntity
  8
DEFAULT
100
AcDbCircle
 10
1.445989000000054
 20
1.441068000000001
 30
0.0
 40
0.015625
100
AcDbArc
 50
0.0
 51
90.0
  0
SPLINE
  5
DD
330
1F
100
AcDbEntity
  8
DEFAULT
100
AcDbSpline
210
0.0
220
0.0
230
1.0
 70
     8
 71
     3
 72
     9
 73
     5
 74
     0
 42
0.0000000001
 43
0.0000000001
 40
0.0
 40
0.0
 40
0.0
 40
0.0
 40
1.0
 40
2.0
 40
2.0
 40
2.0
 40
2.0
 10
13.39700820886003
 20
2.798339705936996
 30
0.0
 10
13.40857031175744
 20
2.789806686439277
 30
0.0
 10
13.38662530565136
 20
2.774210389125884
 30
0.0
 10
13.36892557748979
 20
2.77293623354646
 30
0.0
 10
13.35878037293003
 20
2.772304271371993
 30
0.0
  0
SPLINE
  5
DE
330
1F
100
AcDbEntity
  8
DEFAULT
100
AcDbSpline
210
0.0
220
0.0
230
1.0
 70
     8
 71
     3
 72
     9
 73
     5
 74
     0
 42
0.0000000001
 43
0.0000000001
 40
0.0
 40
0.0
 40
0.0
 40
0.0
 40
1.0
 40
2.0
 40
2.0
 40
2.0
 40
2.0
 10
13.35878037293003
 20
2.772304271371993
 30
0.0
 10
13.23887326140914
 20
2.764835051950755
 30
0.0
 10
13.00057801483041
 20
2.771281816186629
 30
0.0
 10
12.75745724754296
 20
2.757915190050738
 30
0.0
 10
12.64382049400001
 20
2.798339706023
 30
0.0
  0
SPLINE
  5
DF
330
1F
100
AcDbEntity
  8
DEFAULT
100
AcDbSpline
210
0.0
220
0.0
230
1.0
 70
    24
 71
     2
 72
     6
 73
     3
 74
     0
 42
0.0000000001
 43
0.0000000001
 40
0.0
 40
0.0
 40
0.0
 40
1.0
 40
1.0
 40
1.0
 10
0.5269550000000436
 20
1.279527999999999
 30
0.0
 10
0.2634775000000218
 20
1.279527999999999
 30
0.0
 10
0.0
 20
1.279527999999999
 30
0.0
  0
SPLINE
  5
E0
330
1F
100
AcDbEntity
  8
DEFAULT
100
AcDbSpline
210
0.0
220
0.0
230
1.0
 70
     8
 71
     3
 72
    11
 73
     7
 74
     0
 42
0.0000000001
 43
0.0000000001
 40
0.0
 40
0.0
 40
0.0
 40
0.0
 40
1.0
 40
2.0
 40
3.0
 40
4.0
 40
4.0
 40
4.0
 40
4.0
 10
12.64382049400001
 20
2.798339706023
 30
0.0
 10
12.38823034935137
 20
2.970974997370789
 30
0.0
 10
11.86530396975496
 20
3.299194294987373
 30
0.0
 10
11.04418180449323
 20
3.727251635542771
 30
0.0
 10
10.1912579711709
 20
4.088726584775003
 30
0.0
 10
9.595117971372247
 20
4.256366617407082
 30
0.0
 10
9.287618546020042
 20
4.289667635103001
 30
0.0
  0
SPLINE
  5
E1
330
1F
100
AcDbEntity
  8
DEFAULT
100
AcDbSpline
210
0.0
220
0.0
230
1.0
 70
     8
 71
     3
 72
     8
 73
     4
 74
     0
 42
0.0000000001
 43
0.0000000001
 40
0.0
 40
0.0
 40
0.0
 40
0.0
 40
1.0
 40
1.0
 40
1.0
 40
1.0
 10
13.43114400000002
 20
2.785667000000004
 30
0.0
 10
12.63272420295448
 20
3.439487860998085
 30
0.0
 10
11.7530104558233
 20
4.066708017702254
 30
0.0
 10
10.72953500000006
 20
4.289094999999989
 30
0.0
  0
SPLINE
  5
E2
330
1F
100
AcDbEntity
  8
DEFAULT
100
AcDbSpline
210
0.0
220
0.0
230
1.0
 70
    24
 71
     2
 72
     6
 73
     3
 74
     0
 42
0.0000000001
 43
0.0000000001
 40
0.0
 40
0.0
 40
0.0
 40
1.0
 40
1.0
 40
1.0
 10
20.72646000000003
 20
0.3149609999999967
 30
0.0
 10
20.72646000000003
 20
0.1574804999999984
 30
0.0
 10
20.72646000000003
 20
0.0
 30
0.0
  0
SPLINE
  5
E3
330
1F
100
AcDbEntity
  8
DEFAULT
100
AcDbSpline
210
0.0
220
0.0
230
1.0
 70
    24
 71
     2
 72
     6
 73
     3
 74
     0
 42
0.0000000001
 43
0.0000000001
 40
0.0
 40
0.0
 40
0.0
 40
1.0
 40
1.0
 40
1.0
 10
19.97388700000005
 20
1.279527999999999
 30
0.0
 10
19.71040950000005
 20
1.279527999999999
 30
0.0
 10
19.44693200000006
 20
1.279527999999999
 30
0.0
  0
SPLINE
  5
E4
330
1F
100
AcDbEntity
  8
DEFAULT
100
AcDbSpline
210
0.0
220
0.0
230
1.0
 70
     8
 71
     3
 72
     9
 73
     5
 74
     0
 42
0.0000000001
 43
0.0000000001
 40
0.0
 40
0.0
 40
0.0
 40
0.0
 40
1.0
 40
2.0
 40
2.0
 40
2.0
 40
2.0
 10
1.936937517237027
 20
1.948920408199996
 30
0.0
 10
2.927361758564757
 20
2.081840037062804
 30
0.0
 10
4.914925592350926
 20
2.297689413371472
 30
0.0
 10
6.910882072024265
 20
2.412459896694187
 30
0.0
 10
7.909675637060047
 20
2.444418629514999
 30
0.0
  0
SPLINE
  5
E5
330
1F
100
AcDbEntity
  8
DEFAULT
100
AcDbSpline
210
0.0
220
0.0
230
1.0
 70
     8
 71
     3
 72
     9
 73
     5
 74
     0
 42
0.0000000001
 43
0.0000000001
 40
0.0
 40
0.0
 40
0.0
 40
0.0
 40
1.0
 40
2.0
 40
2.0
 40
2.0
 40
2.0
 10
0.4868670000000748
 20
2.797449999999998
 30
0.0
 10
0.4657263189230889
 20
2.790469611421017
 30
0.0
 10
0.4197647735827559
 20
2.779062543245416
 30
0.0
 10
0.3933066018656177
 20
2.737346548889931
 30
0.0
 10
0.394343000000049
 20
2.714154999999991
 30
0.0
  0
SPLINE
  5
E6
330
1F
100
AcDbEntity
  8
DEFAULT
100
AcDbSpline
210
0.0
220
0.0
230
1.0
 70
    24
 71
     2
 72
     6
 73
     3
 74
     0
 42
0.0000000001
 43
0.0000000001
 40
0.0
 40
0.0
 40
0.0
 40
1.0
 40
1.0
 40
1.0
 10
0.394343000000049
 20
2.714154999999991
 30
0.0
 10
0.4185205000000565
 20
2.173133499999992
 30
0.0
 10
0.442698000000064
 20
1.632111999999992
 30
0.0
  0
SPLINE
  5
E7
330
1F
100
AcDbEntity
  8
DEFAULT
100
AcDbSpline
210
0.0
220
0.0
230
1.0
 70
    24
 71
     2
 72
     6
 73
     3
 74
     0
 42
0.0000000001
 43
0.0000000001
 40
0.0
 40
0.0
 40
0.0
 40
1.0
 40
1.0
 40
1.0
 10
0.5269550000000436
 20
1.279527999999999
 30
0.0
 10
0.5269550000000436
 20
1.222747499999997
 30
0.0
 10
0.5269550000000436
 20
1.165966999999995
 30
0.0
  0
SPLINE
  5
E8
330
1F
100
AcDbEntity
  8
DEFAULT
100
AcDbSpline
210
0.0
220
0.0
230
1.0
 70
    24
 71
     2
 72
     6
 73
     3
 74
     0
 42
0.0000000001
 43
0.0000000001
 40
0.0
 40
0.0
 40
0.0
 40
1.0
 40
1.0
 40
1.0
 10
19.97388700000005
 20
1.279527999999999
 30
0.0
 10
19.97388700000005
 20
1.222747499999997
 30
0.0
 10
19.97388700000005
 20
1.165966999999995
 30
0.0
  0
ARC
  5
E9
330
1F
100
AcDbEntity
  8
DEFAULT
100
AcDbCircle
 10
-1.04330699999997
 20
22.29941273344609
 30
0.0
 40
0.2362210042417907
100
AcDbArc
 50
180.0
 51
265.3395701367955
  0
SPLINE
  5
EA
330
1F
100
AcDbEntity
  8
DEFAULT
100
AcDbSpline
210
0.0
220
0.0
230
1.0
 70
     8
 71
     3
 72
     9
 73
     5
 74
     0
 42
0.0000000001
 43
0.0000000001
 40
0.0
 40
0.0
 40
0.0
 40
0.0
 40
1.0
 40
2.0
 40
2.0
 40
2.0
 40
2.0
 10
1.409604000000058
 20
1.574804
 30
0.0
 10
1.420397244777291
 20
1.574990467893471
 30
0.0
 10
1.441892352119112
 20
1.58041636949865
 30
0.0
 10
1.458528351373729
 20
1.595120343005945
 30
0.0
 10
1.464743999999996
 20
1.603955999999997
 30
0.0
  0
SPLINE
  5
EB
330
1F
100
AcDbEntity
  8
DEFAULT
100
AcDbSpline
210
0.0
220
0.0
230
1.0
 70
     8
 71
     3
 72
     9
 73
     5
 74
     0
 42
0.0000000001
 43
0.0000000001
 40
0.0
 40
0.0
 40
0.0
 40
0.0
 40
1.0
 40
2.0
 40
2.0
 40
2.0
 40
2.0
 10
1.464743999999996
 20
1.603955999999997
 30
0.0
 10
1.508851797999455
 20
1.689077144698913
 30
0.0
 10
1.627550598238884
 20
1.845994617982839
 30
0.0
 10
1.806956824348788
 20
1.931692016828237
 30
0.0
 10
1.936937517237027
 20
1.948920408199996
 30
0.0
  0
LINE
  5
EC
330
1F
100
AcDbEntity
  8
DEFAULT
100
AcDbLine
 10
10.60935803335877
 20
4.308661999999998
 30
0.0
 11
8.638130000000046
 21
4.308661999999998
 31
0.0
  0
SPLINE
  5
ED
330
1F
100
AcDbEntity
  8
DEFAULT
100
AcDbSpline
210
0.0
220
0.0
230
1.0
 70
     8
 71
     3
 72
    10
 73
     6
 74
     0
 42
0.0000000001
 43
0.0000000001
 40
0.0
 40
0.0
 40
0.0
 40
0.0
 40
0.3745727208191
 40
0.7379583218834
 40
1.0
 40
1.0
 40
1.0
 40
1.0
 10
9.235800200390031
 20
4.007722273420001
 30
0.0
 10
9.236090181010013
 20
3.99243018450899
 30
0.0
 10
9.244161187500026
 20
3.961870459536996
 30
0.0
 10
9.273796107120006
 20
3.931178062312
 30
0.0
 10
9.299057040980074
 20
3.922819848800998
 30
0.0
 10
9.309783052810076
 20
3.921513614136003
 30
0.0
  0
SPLINE
  5
EE
330
1F
100
AcDbEntity
  8
DEFAULT
100
AcDbSpline
210
0.0
220
0.0
230
1.0
 70
    24
 71
     2
 72
     6
 73
     3
 74
     0
 42
0.0000000001
 43
0.0000000001
 40
0.0
 40
0.0
 40
0.0
 40
1.0
 40
1.0
 40
1.0
 10
0.4044039999999995
 20
1.456693000000001
 30
0.0
 10
0.9251965000000268
 20
1.456693000000001
 30
0.0
 10
1.445989000000054
 20
1.456693000000001
 30
0.0
  0
SPLINE
  5
EF
330
1F
100
AcDbEntity
  8
DEFAULT
100
AcDbSpline
210
0.0
220
0.0
230
1.0
 70
    24
 71
     2
 72
     6
 73
     3
 74
     0
 42
0.0000000001
 43
0.0000000001
 40
0.0
 40
0.0
 40
0.0
 40
1.0
 40
1.0
 40
1.0
 10
20.08669600000007
 20
1.574804
 30
0.0
 10
20.08669600000007
 20
1.515748500000001
 30
0.0
 10
20.08669600000007
 20
1.456693000000001
 30
0.0
  0
SPLINE
  5
F0
330
1F
100
AcDbEntity
  8
DEFAULT
100
AcDbSpline
210
0.0
220
0.0
230
1.0
 70
    24
 71
     2
 72
     6
 73
     3
 74
     0
 42
0.0000000001
 43
0.0000000001
 40
0.0
 40
0.0
 40
0.0
 40
1.0
 40
1.0
 40
1.0
 10
20.65756300000004
 20
1.574804
 30
0.0
 10
20.65756300000004
 20
1.515748500000001
 30
0.0
 10
20.65756300000004
 20
1.456693000000001
 30
0.0
  0
SPLINE
  5
F1
330
1F
100
AcDbEntity
  8
DEFAULT
100
AcDbSpline
210
0.0
220
0.0
230
1.0
 70
    24
 71
     2
 72
     6
 73
     3
 74
     0
 42
0.0000000001
 43
0.0000000001
 40
0.0
 40
0.0
 40
0.0
 40
1.0
 40
1.0
 40
1.0
 10
20.77294400000005
 20
1.632709999999989
 30
0.0
 10
20.79167700000005
 20
2.169149499999989
 30
0.0
 10
20.81041000000005
 20
2.705588999999989
 30
0.0
  0
SPLINE
  5
F2
330
1F
100
AcDbEntity
  8
DEFAULT
100
AcDbSpline
210
0.0
220
0.0
230
1.0
 70
     8
 71
     3
 72
     9
 73
     5
 74
     0
 42
0.0000000001
 43
0.0000000001
 40
0.0
 40
0.0
 40
0.0
 40
0.0
 40
1.0
 40
2.0
 40
2.0
 40
2.0
 40
2.0
 10
12.38269700000001
 20
2.600594999999998
 30
0.0
 10
11.91151433088913
 20
2.907365886724548
 30
0.0
 10
10.92430310103902
 20
3.440933014300441
 30
0.0
 10
9.870679470064204
 20
3.854815095616431
 30
0.0
 10
9.309802000000047
 20
3.921478999999991
 30
0.0
  0
SPLINE
  5
F3
330
1F
100
AcDbEntity
  8
DEFAULT
100
AcDbSpline
210
0.0
220
0.0
230
1.0
 70
     8
 71
     3
 72
     8
 73
     4
 74
     0
 42
0.0000000001
 43
0.0000000001
 40
0.0
 40
0.0
 40
0.0
 40
0.0
 40
1.0
 40
1.0
 40
1.0
 40
1.0
 10
11.87121577336006
 20
3.861587137371998
 30
0.0
 10
14.56744358627168
 20
3.621108403511144
 30
0.0
 10
17.24211037478108
 20
3.167885469616422
 30
0.0
 10
19.88490646846003
 20
2.586168322741003
 30
0.0
  0
SPLINE
  5
F4
330
1F
100
AcDbEntity
  8
DEFAULT
100
AcDbSpline
210
0.0
220
0.0
230
1.0
 70
    24
 71
     2
 72
     6
 73
     3
 74
     0
 42
0.0000000001
 43
0.0000000001
 40
0.0
 40
0.0
 40
0.0
 40
1.0
 40
1.0
 40
1.0
 10
12.31871800000005
 20
19.50165773344609
 30
0.0
 10
11.52902800000004
 20
19.50165773344609
 30
0.0
 10
10.73933800000003
 20
19.50165773344609
 30
0.0
  0
SPLINE
  5
F5
330
1F
100
AcDbEntity
  8
DEFAULT
100
AcDbSpline
210
0.0
220
0.0
230
1.0
 70
    24
 71
     2
 72
     6
 73
     3
 74
     0
 42
0.0000000001
 43
0.0000000001
 40
0.0
 40
0.0
 40
0.0
 40
1.0
 40
1.0
 40
1.0
 10
0.4671910000000707
 20
23.2776247334461
 30
0.0
 10
1.611447500000054
 20
24.1748842334461
 30
0.0
 10
2.755704000000037
 20
25.0721437334461
 30
0.0
  0
SPLINE
  5
F6
330
1F
100
AcDbEntity
  8
DEFAULT
100
AcDbSpline
210
0.0
220
0.0
230
1.0
 70
    24
 71
     2
 72
     6
 73
     3
 74
     0
 42
0.0000000001
 43
0.0000000001
 40
0.0
 40
0.0
 40
0.0
 40
1.0
 40
1.0
 40
1.0
 10
10.95636500000001
 20
20.1257677334461
 30
0.0
 10
11.52333600000003
 20
20.1257677334461
 30
0.0
 10
12.09030700000005
 20
20.1257677334461
 30
0.0
  0
ARC
  5
F7
330
1F
100
AcDbEntity
  8
DEFAULT
100
AcDbCircle
 10
13.06217200000003
 20
38.8419617334461
 30
0.0
 40
0.2362211281595755
100
AcDbArc
 50
292.0643577296231
 51
0.0
  0
CIRCLE
  5
F8
330
1F
100
AcDbEntity
  8
DEFAULT
100
AcDbCircle
 10
9.622130000000027
 20
29.36614473344609
 30
0.0
 40
6.908685000000002
  0
SPLINE
  5
F9
330
1F
100
AcDbEntity
  8
DEFAULT
100
AcDbSpline
210
0.0
220
0.0
230
1.0
 70
    24
 71
     2
 72
     6
 73
     3
 74
     0
 42
0.0000000001
 43
0.0000000001
 40
0.0
 40
0.0
 40
0.0
 40
1.0
 40
1.0
 40
1.0
 10
-1.279527999999971
 20
23.4068237334461
 30
0.0
 10
-1.279527999999971
 20
23.0474537334461
 30
0.0
 10
-1.279527999999971
 20
22.68808373344611
 30
0.0
  0
ARC
  5
FA
330
1F
100
AcDbEntity
  8
DEFAULT
100
AcDbCircle
 10
13.23933800000003
 20
40.04275873344609
 30
0.0
 40
0.0590549041019507
100
AcDbArc
 50
319.6771567869501
 51
0.0
  0
ARC
  5
FB
330
1F
100
AcDbEntity
  8
DEFAULT
100
AcDbCircle
 10
-1.04330699999997
 20
34.93679573344609
 30
0.0
 40
0.2362210042417925
100
AcDbArc
 50
180.0
 51
265.3395701367957
  0
SPLINE
  5
FC
330
1F
100
AcDbEntity
  8
DEFAULT
100
AcDbSpline
210
0.0
220
0.0
230
1.0
 70
    24
 71
     2
 72
     6
 73
     3
 74
     0
 42
0.0000000001
 43
0.0000000001
 40
0.0
 40
0.0
 40
0.0
 40
1.0
 40
1.0
 40
1.0
 10
0.5269550000000436
 20
35.32546573344611
 30
0.0
 10
-0.3762864999999636
 20
35.32546573344611
 30
0.0
 10
-1.279527999999971
 20
35.32546573344611
 30
0.0
  0
SPLINE
  5
FD
330
1F
100
AcDbEntity
  8
DEFAULT
100
AcDbSpline
210
0.0
220
0.0
230
1.0
 70
     8
 71
     3
 72
     9
 73
     5
 74
     0
 42
0.0000000001
 43
0.0000000001
 40
0.0
 40
0.0
 40
0.0
 40
0.0
 40
0.400659934113
 40
1.0
 40
1.0
 40
1.0
 40
1.0
 10
0.3943856528110246
 20
35.60856331869608
 30
0.0
 10
0.3946366635390177
 20
35.62029597565611
 30
0.0
 10
0.39795456801005
 20
35.6495257022561
 30
0.0
 10
0.4079142639820361
 20
35.67744536660611
 30
0.0
 10
0.4160101911080574
 20
35.6929641024761
 30
0.0
  0
ARC
  5
FE
330
1F
100
AcDbEntity
  8
DEFAULT
100
AcDbCircle
 10
1.220472000000029
 20
22.5946977334461
 30
0.0
 40
0.0590554617686662
100
AcDbArc
 50
0.0
 51
40.3214756955514
  0
SPLINE
  5
FF
330
1F
100
AcDbEntity
  8
DEFAULT
100
AcDbSpline
210
0.0
220
0.0
230
1.0
 70
    24
 71
     2
 72
     6
 73
     3
 74
     0
 42
0.0000000001
 43
0.0000000001
 40
0.0
 40
0.0
 40
0.0
 40
1.0
 40
1.0
 40
1.0
 10
10.73933800000003
 20
19.8903277334461
 30
0.0
 10
10.73933800000003
 20
19.7426852334461
 30
0.0
 10
10.73933800000003
 20
19.59504273344611
 30
0.0
  0
SPLINE
  5
100
330
1F
100
AcDbEntity
  8
DEFAULT
100
AcDbSpline
210
0.0
220
0.0
230
1.0
 70
     8
 71
     3
 72
    10
 73
     6
 74
     0
 42
0.0000000001
 43
0.0000000001
 40
0.0
 40
0.0
 40
0.0
 40
0.0
 40
0.4240323129197
 40
0.7689249100014
 40
1.0
 40
1.0
 40
1.0
 40
1.0
 10
9.101021157960076
 20
4.007722273358993
 30
0.0
 10
9.101230022730022
 20
3.992828443516999
 30
0.0
 10
9.09775442915003
 20
3.965724690269994
 30
0.0
 10
9.082947281920042
 20
3.932656798194003
 30
0.0
 10
9.063215540520048
 20
3.921511910836003
 30
0.0
 10
9.055125428640054
 20
3.920991993606989
 30
0.0
  0
SPLINE
  5
101
330
1F
100
AcDbEntity
  8
DEFAULT
100
AcDbSpline
210
0.0
220
0.0
230
1.0
 70
     8
 71
     3
 72
     9
 73
     5
 74
     0
 42
0.0000000001
 43
0.0000000001
 40
0.0
 40
0.0
 40
0.0
 40
0.0
 40
1.0
 40
2.0
 40
2.0
 40
2.0
 40
2.0
 10
0.958052087283022
 20
2.798339719737001
 30
0.0
 10
2.282812469836358
 20
3.171451471676022
 30
0.0
 10
4.964698925459516
 20
3.789093426875127
 30
0.0
 10
7.686822184492598
 20
4.223677452697515
 30
0.0
 10
9.062534626520005
 20
4.289667635103001
 30
0.0
  0
SPLINE
  5
102
330
1F
100
AcDbEntity
  8
DEFAULT
100
AcDbSpline
210
0.0
220
0.0
230
1.0
 70
    24
 71
     2
 72
     6
 73
     3
 74
     0
 42
0.0000000001
 43
0.0000000001
 40
0.0
 40
0.0
 40
0.0
 40
1.0
 40
1.0
 40
1.0
 10
1.210630000000037
 20
1.574804
 30
0.0
 10
1.210630000000037
 20
1.515748500000001
 30
0.0
 10
1.210630000000037
 20
1.456693000000001
 30
0.0
  0
ARC
  5
103
330
1F
100
AcDbEntity
  8
DEFAULT
100
AcDbCircle
 10
12.94406200000003
 20
19.1422877334461
 30
0.0
 40
0.5364171269626883
100
AcDbArc
 50
169.9322926763974
 51
233.7404372445394
  0
SPLINE
  5
104
330
1F
100
AcDbEntity
  8
DEFAULT
100
AcDbSpline
210
0.0
220
0.0
230
1.0
 70
     8
 71
     3
 72
     8
 73
     4
 74
     0
 42
0.0000000001
 43
0.0000000001
 40
0.0
 40
0.0
 40
0.0
 40
0.0
 40
1.0
 40
1.0
 40
1.0
 40
1.0
 10
20.80801300000007
 20
2.706040000000002
 30
0.0
 10
17.59354293212994
 20
3.419708669241643
 30
0.0
 10
14.33962843354061
 20
4.018147864471345
 30
0.0
 10
11.04844575970003
 20
4.219504144308999
 30
0.0
  0
CIRCLE
  5
105
330
1F
100
AcDbEntity
  8
DEFAULT
100
AcDbCircle
 10
19.44693200000006
 20
0.0
 30
0.0
 40
1.0625
  0
SPLINE
  5
106
330
1F
100
AcDbEntity
  8
DEFAULT
100
AcDbSpline
210
0.0
220
0.0
230
1.0
 70
     8
 71
     3
 72
    11
 73
     7
 74
     0
 42
0.0000000001
 43
0.0000000001
 40
0.0
 40
0.0
 40
0.0
 40
0.0
 40
0.2489561854195
 40
0.4983553878348
 40
0.7485815498319
 40
1.0
 40
1.0
 40
1.0
 40
1.0
 10
19.88490653060001
 20
2.58616831510399
 30
0.0
 10
19.90405338346
 20
2.581919862759989
 30
0.0
 10
19.94125757042002
 20
2.566992837329991
 30
0.0
 10
19.98679734757002
 20
2.527931543175001
 30
0.0
 10
20.01747138871008
 20
2.476119547018996
 30
0.0
 10
20.02558994765002
 20
2.436563151535992
 30
0.0
 10
20.02632094552007
 20
2.416770141019995
 30
0.0
  0
ARC
  5
107
330
1F
100
AcDbEntity
  8
DEFAULT
100
AcDbCircle
 10
0.5026421514209005
 20
1.634804006800664
 30
0.0
 40
0.0599998623429707
100
AcDbArc
 50
182.5715586997547
 51
270.0041525966946
  0
SPLINE
  5
108
330
1F
100
AcDbEntity
  8
DEFAULT
100
AcDbSpline
210
0.0
220
0.0
230
1.0
 70
    24
 71
     2
 72
     6
 73
     3
 74
     0
 42
0.0000000001
 43
0.0000000001
 40
0.0
 40
0.0
 40
0.0
 40
1.0
 40
1.0
 40
1.0
 10
0.5026465000000258
 20
1.574804144615271
 30
0.0
 10
0.956106750000032
 20
1.574804072307636
 30
0.0
 10
1.409567000000038
 20
1.574804
 30
0.0
  0
SPLINE
  5
109
330
1F
100
AcDbEntity
  8
DEFAULT
100
AcDbSpline
210
0.0
220
0.0
230
1.0
 70
    24
 71
     2
 72
     6
 73
     3
 74
     0
 42
0.0000000001
 43
0.0000000001
 40
0.0
 40
0.0
 40
0.0
 40
1.0
 40
1.0
 40
1.0
 10
0.6397640000000138
 20
1.574804
 30
0.0
 10
0.6397640000000138
 20
1.515748500000001
 30
0.0
 10
0.6397640000000138
 20
1.456693000000001
 30
0.0
  0
ARC
  5
10A
330
1F
100
AcDbEntity
  8
DEFAULT
100
AcDbCircle
 10
1.043307000000027
 20
34.93679573344609
 30
0.0
 40
0.2362208002419728
100
AcDbArc
 50
274.6604298632045
 51
334.6269312573353
  0
SPLINE
  5
10B
330
1F
100
AcDbEntity
  8
DEFAULT
100
AcDbSpline
210
0.0
220
0.0
230
1.0
 70
    24
 71
     2
 72
     6
 73
     3
 74
     0
 42
0.0000000001
 43
0.0000000001
 40
0.0
 40
0.0
 40
0.0
 40
1.0
 40
1.0
 40
1.0
 10
10.73933800000003
 20
18.68953173344609
 30
0.0
 10
10.73933800000003
 20
18.5418892334461
 30
0.0
 10
10.73933800000003
 20
18.39424673344611
 30
0.0
  0
SPLINE
  5
10C
330
1F
100
AcDbEntity
  8
DEFAULT
100
AcDbSpline
210
0.0
220
0.0
230
1.0
 70
    24
 71
     2
 72
     6
 73
     3
 74
     0
 42
0.0000000001
 43
0.0000000001
 40
0.0
 40
0.0
 40
0.0
 40
1.0
 40
1.0
 40
1.0
 10
13.29839300000003
 20
40.3380427334461
 30
0.0
 10
13.29839300000003
 20
40.1904007334461
 30
0.0
 10
13.29839300000003
 20
40.04275873344609
 30
0.0
  0
ARC
  5
10D
330
1F
100
AcDbEntity
  8
DEFAULT
100
AcDbCircle
 10
12.94406200000003
 20
19.1422877334461
 30
0.0
 40
0.5364179064991967
100
AcDbArc
 50
342.2460424476051
 51
46.04543262749258
  0
ARC
  5
10E
330
1F
100
AcDbEntity
  8
DEFAULT
100
AcDbCircle
 10
10.38297299999999
 20
6.771856999999997
 30
0.0
 40
0.0250000400499361
100
AcDbArc
 50
270.0
 51
304.4077211030448
  0
SPLINE
  5
10F
330
1F
100
AcDbEntity
  8
DEFAULT
100
AcDbSpline
210
0.0
220
0.0
230
1.0
 70
    24
 71
     2
 72
     6
 73
     3
 74
     0
 42
0.0000000001
 43
0.0000000001
 40
0.0
 40
0.0
 40
0.0
 40
1.0
 40
1.0
 40
1.0
 10
1.840873000000045
 20
8.798755999999997
 30
0.0
 10
9.622129500000057
 20
8.798755999999997
 30
0.0
 10
17.40338600000007
 20
8.798755999999997
 30
0.0
  0
SPLINE
  5
110
330
1F
100
AcDbEntity
  8
DEFAULT
100
AcDbSpline
210
0.0
220
0.0
230
1.0
 70
     8
 71
     3
 72
     9
 73
     5
 74
     0
 42
0.0000000001
 43
0.0000000001
 40
0.0
 40
0.0
 40
0.0
 40
0.0
 40
1.0
 40
2.0
 40
2.0
 40
2.0
 40
2.0
 10
9.287618546020042
 20
4.289667635103001
 30
0.0
 10
9.250199732113686
 20
4.29273710935432
 30
0.0
 10
9.175074194259878
 20
4.293024460417243
 30
0.0
 10
9.100032272094381
 20
4.291477952912444
 30
0.0
 10
9.062534626520005
 20
4.289667635103001
 30
0.0
  0
SPLINE
  5
111
330
1F
100
AcDbEntity
  8
DEFAULT
100
AcDbSpline
210
0.0
220
0.0
230
1.0
 70
    24
 71
     2
 72
     6
 73
     3
 74
     0
 42
0.0000000001
 43
0.0000000001
 40
0.0
 40
0.0
 40
0.0
 40
1.0
 40
1.0
 40
1.0
 10
10.54700500000001
 20
1.824804
 30
0.0
 10
10.54040250000003
 20
1.561779999999999
 30
0.0
 10
10.53380000000004
 20
1.298755999999997
 30
0.0
  0
SPLINE
  5
112
330
1F
100
AcDbEntity
  8
DEFAULT
100
AcDbSpline
210
0.0
220
0.0
230
1.0
 70
     8
 71
     3
 72
     8
 73
     4
 74
     0
 42
0.0000000001
 43
0.0000000001
 40
0.0
 40
0.0
 40
0.0
 40
0.0
 40
1.0
 40
1.0
 40
1.0
 40
1.0
 10
8.710459439647025
 20
1.29875638099999
 30
0.0
 10
8.714337892684057
 20
1.144255456469992
 30
0.0
 10
8.822129501434006
 20
1.003305978469996
 30
0.0
 10
8.822129501434006
 20
0.8487563810000012
 30
0.0
  0
SPLINE
  5
113
330
1F
100
AcDbEntity
  8
DEFAULT
100
AcDbSpline
210
0.0
220
0.0
230
1.0
 70
    24
 71
     2
 72
     6
 73
     3
 74
     0
 42
0.0000000001
 43
0.0000000001
 40
0.0
 40
0.0
 40
0.0
 40
1.0
 40
1.0
 40
1.0
 10
8.947130000000016
 20
-1.026244000000005
 30
0.0
 10
9.622129500000028
 20
-1.026244000000005
 30
0.0
 10
10.29712900000004
 20
-1.026244000000005
 30
0.0
  0
SPLINE
  5
114
330
1F
100
AcDbEntity
  8
DEFAULT
100
AcDbSpline
210
0.0
220
0.0
230
1.0
 70
    24
 71
     2
 72
     6
 73
     3
 74
     0
 42
0.0000000001
 43
0.0000000001
 40
0.0
 40
0.0
 40
0.0
 40
1.0
 40
1.0
 40
1.0
 10
10.17213000000004
 20
6.656255999999999
 30
0.0
 10
10.17213000000004
 20
6.440005999999997
 30
0.0
 10
10.17213000000004
 20
6.223755999999995
 30
0.0
  0
SPLINE
  5
115
330
1F
100
AcDbEntity
  8
DEFAULT
100
AcDbSpline
210
0.0
220
0.0
230
1.0
 70
    24
 71
     2
 72
     6
 73
     3
 74
     0
 42
0.0000000001
 43
0.0000000001
 40
0.0
 40
0.0
 40
0.0
 40
1.0
 40
1.0
 40
1.0
 10
8.697238000000027
 20
1.825458999999995
 30
0.0
 10
8.70384850000002
 20
1.562107499999996
 30
0.0
 10
8.710459000000014
 20
1.298755999999997
 30
0.0
  0
SPLINE
  5
116
330
1F
100
AcDbEntity
  8
DEFAULT
100
AcDbSpline
210
0.0
220
0.0
230
1.0
 70
     8
 71
     3
 72
     8
 73
     4
 74
     0
 42
0.0000000001
 43
0.0000000001
 40
0.0
 40
0.0
 40
0.0
 40
0.0
 40
1.0
 40
1.0
 40
1.0
 40
1.0
 10
10.53379956322004
 20
1.29875638099999
 30
0.0
 10
10.52992111018
 20
1.144255456469992
 30
0.0
 10
10.42212950143005
 20
1.003305978469996
 30
0.0
 10
10.42212950143005
 20
0.8487563810000012
 30
0.0
  0
ARC
  5
117
330
1F
100
AcDbEntity
  8
DEFAULT
100
AcDbCircle
 10
1.043307000000027
 20
23.79549373344609
 30
0.0
 40
0.2362208002419703
100
AcDbArc
 50
25.37306874266321
 51
85.3395701367955
  0
SPLINE
  5
118
330
1F
100
AcDbEntity
  8
DEFAULT
100
AcDbSpline
210
0.0
220
0.0
230
1.0
 70
    24
 71
     2
 72
     6
 73
     3
 74
     0
 42
0.0000000001
 43
0.0000000001
 40
0.0
 40
0.0
 40
0.0
 40
1.0
 40
1.0
 40
1.0
 10
12.01886500000001
 20
18.7829167334461
 30
0.0
 10
12.01886500000001
 20
19.1422872334461
 30
0.0
 10
12.01886500000001
 20
19.50165773344609
 30
0.0
  0
ARC
  5
119
330
1F
100
AcDbEntity
  8
DEFAULT
100
AcDbCircle
 10
13.06217200000003
 20
18.39424673344611
 30
0.0
 40
0.236221004241791
100
AcDbArc
 50
274.6604298632046
 51
0.0
  0
ARC
  5
11A
330
1F
100
AcDbEntity
  8
DEFAULT
100
AcDbCircle
 10
0.9251970000000256
 20
23.04745373344609
 30
0.0
 40
0.5364172172617838
100
AcDbArc
 50
97.96885089089
 51
161.6593900687278
  0
SPLINE
  5
11B
330
1F
100
AcDbEntity
  8
DEFAULT
100
AcDbSpline
210
0.0
220
0.0
230
1.0
 70
    24
 71
     2
 72
     6
 73
     3
 74
     0
 42
0.0000000001
 43
0.0000000001
 40
0.0
 40
0.0
 40
0.0
 40
1.0
 40
1.0
 40
1.0
 10
13.48047900000006
 20
1.441068000000001
 30
0.0
 10
13.48047900000006
 20
0.9929814999999991
 30
0.0
 10
13.48047900000006
 20
0.5448949999999968
 30
0.0
  0
ARC
  5
11C
330
1F
100
AcDbEntity
  8
DEFAULT
100
AcDbCircle
 10
11.71230777049988
 20
1.695055056010403
 30
0.0
 40
0.7499957291095208
100
AcDbArc
 50
126.1124709469598
 51
140.000094432963
  0
SPLINE
  5
11D
330
1F
100
AcDbEntity
  8
DEFAULT
100
AcDbSpline
210
0.0
220
0.0
230
1.0
 70
    24
 71
     2
 72
     6
 73
     3
 74
     0
 42
0.0000000001
 43
0.0000000001
 40
-1.0
 40
-1.0
 40
-1.0
 40
0.0
 40
0.0
 40
0.0
 10
11.13777691529231
 20
2.17714207107818
 30
0.0
 10
11.00044445764615
 20
2.013476035539085
 30
0.0
 10
10.863112
 20
1.849809999999991
 30
0.0
  0
SPLINE
  5
11E
330
1F
100
AcDbEntity
  8
DEFAULT
100
AcDbSpline
210
0.0
220
0.0
230
1.0
 70
     8
 71
     5
 72
    12
 73
     6
 74
     0
 42
0.0000000001
 43
0.0000000001
 40
0.0
 40
0.0
 40
0.0
 40
0.0
 40
0.0
 40
0.0
 40
1.0
 40
1.0
 40
1.0
 40
1.0
 40
1.0
 40
1.0
 10
10.863112
 20
1.849809999999991
 30
0.0
 10
10.85550551895983
 20
1.840744971836983
 30
0.0
 10
10.84789903791955
 20
1.831679943673976
 30
0.0
 10
10.833155132434
 20
1.824804023785589
 30
0.0
 10
10.82132156621702
 20
1.82480402365708
 30
0.0
 10
10.80948800000004
 20
1.824804023528571
 30
0.0
  0
POLYLINE
  5
11F
330
1F
100
AcDbEntity
  8
DEFAULT
100
AcDb2dPolyline
 66
     1
 10
0.0
 20
0.0
 30
0.0
  0
VERTEX
  5
121
330
11F
100
AcDbEntity
  8
DEFAULT
100
AcDbVertex
100
AcDb2dVertex
 10
10.80948800000004
 20
1.824804023528571
 30
0.0
  0
VERTEX
  5
122
330
11F
100
AcDbEntity
  8
DEFAULT
100
AcDbVertex
100
AcDb2dVertex
 10
8.642810317854469
 20
1.824804
 30
0.0
  0
SEQEND
  5
120
330
11F
100
AcDbEntity
  8
DEFAULT
  0
SPLINE
  5
123
330
1F
100
AcDbEntity
  8
DEFAULT
100
AcDbSpline
210
0.0
220
0.0
230
1.0
 70
     8
 71
     5
 72
    12
 73
     6
 74
     0
 42
0.0000000001
 43
0.0000000001
 40
-1.0
 40
-1.0
 40
-1.0
 40
-1.0
 40
-1.0
 40
-1.0
 40
0.0
 40
0.0
 40
0.0
 40
0.0
 40
0.0
 40
0.0
 10
8.642810317854469
 20
1.824804
 30
0.0
 10
8.632981934685972
 20
1.824803999893263
 30
0.0
 10
8.623153551517362
 20
1.824803999786539
 30
0.0
 10
8.612525904975996
 20
1.834292244106521
 30
0.0
 10
8.60648836642872
 20
1.842048500978152
 30
0.0
 10
8.600546000000008
 20
1.849876999999992
 30
0.0
  0
SPLINE
  5
124
330
1F
100
AcDbEntity
  8
DEFAULT
100
AcDbSpline
210
0.0
220
0.0
230
1.0
 70
     8
 71
     3
 72
     9
 73
     5
 74
     0
 42
0.0000000001
 43
0.0000000001
 40
-2.0
 40
-2.0
 40
-2.0
 40
-2.0
 40
-1.0
 40
0.0
 40
0.0
 40
0.0
 40
0.0
 10
8.600546000000008
 20
1.849876999999992
 30
0.0
 10
8.504169424748284
 20
1.976843913625686
 30
0.0
 10
8.370532700381318
 20
2.277656347947797
 30
0.0
 10
8.07322829486202
 20
2.449455917370571
 30
0.0
 10
7.909675637060047
 20
2.444418629514999
 30
0.0
  0
ARC
  5
125
330
1F
100
AcDbEntity
  8
DEFAULT
100
AcDbCircle
 10
10.25838000000005
 20
6.706255999999996
 30
0.0
 40
0.0500000000000007
100
AcDbArc
 50
270.0
 51
0.0
  0
ARC
  5
126
330
1F
100
AcDbEntity
  8
DEFAULT
100
AcDbCircle
 10
10.79839300000003
 20
39.1372467334461
 30
0.0
 40
0.0590549999999999
100
AcDbArc
 50
90.0
 51
180.0
  0
SPLINE
  5
127
330
1F
100
AcDbEntity
  8
DEFAULT
100
AcDbSpline
210
0.0
220
0.0
230
1.0
 70
     8
 71
     3
 72
     8
 73
     4
 74
     0
 42
0.0000000001
 43
0.0000000001
 40
0.0
 40
0.0
 40
0.0
 40
0.0
 40
1.0
 40
1.0
 40
1.0
 40
1.0
 10
11.58395200000007
 20
37.2229507334461
 30
0.0
 10
11.92009257866442
 20
38.14021018193857
 30
0.0
 10
12.25449502739906
 20
39.05818263686014
 30
0.0
 10
12.59237367111007
 20
39.97472890163608
 30
0.0
  0
SPLINE
  5
128
330
1F
100
AcDbEntity
  8
DEFAULT
100
AcDbSpline
210
0.0
220
0.0
230
1.0
 70
     8
 71
     3
 72
     9
 73
     5
 74
     0
 42
0.0000000001
 43
0.0000000001
 40
0.0
 40
0.0
 40
0.0
 40
0.0
 40
0.5991008538013
 40
1.0
 40
1.0
 40
1.0
 40
1.0
 10
0.4160160711720664
 20
23.0393142616861
 30
0.0
 10
0.4079228246430375
 20
23.0548288962261
 30
0.0
 10
0.397957291783996
 20
23.08274963266611
 30
0.0
 10
0.3946368382660239
 20
23.1119829959261
 30
0.0
 10
0.3943855933160307
 20
23.12372418186611
 30
0.0
  0
SPLINE
  5
129
330
1F
100
AcDbEntity
  8
DEFAULT
100
AcDbSpline
210
0.0
220
0.0
230
1.0
 70
     8
 71
     3
 72
     9
 73
     5
 74
     0
 42
0.0000000001
 43
0.0000000001
 40
0.0
 40
0.0
 40
0.0
 40
0.0
 40
0.2503757633505
 40
1.0
 40
1.0
 40
1.0
 40
1.0
 10
0.8173604801500005
 20
22.52560992806609
 30
0.0
 10
0.812023112832037
 20
22.5280413350461
 30
0.0
 10
0.791145980896033
 20
22.5387333340061
 30
0.0
 10
0.7723771869350458
 20
22.5532042403561
 30
0.0
 10
0.760119977510044
 20
22.56569921987609
 30
0.0
  0
ARC
  5
12A
330
1F
100
AcDbEntity
  8
DEFAULT
100
AcDbCircle
 10
10.79839300000003
 20
19.59504273344611
 30
0.0
 40
0.0590549999999981
100
AcDbArc
 50
180.0
 51
270.0
  0
ARC
  5
12B
330
1F
100
AcDbEntity
  8
DEFAULT
100
AcDbCircle
 10
10.97555800000004
 20
19.8903277334461
 30
0.0
 40
0.2362205042417886
100
AcDbArc
 50
94.66042986320427
 51
180.0
  0
SPLINE
  5
12C
330
1F
100
AcDbEntity
  8
DEFAULT
100
AcDbSpline
210
0.0
220
0.0
230
1.0
 70
    24
 71
     2
 72
     6
 73
     3
 74
     0
 42
0.0000000001
 43
0.0000000001
 40
0.0
 40
0.0
 40
0.0
 40
1.0
 40
1.0
 40
1.0
 10
10.95636500000001
 20
38.60652173344609
 30
0.0
 10
11.52333600000003
 20
38.60652173344609
 30
0.0
 10
12.09030700000005
 20
38.60652173344609
 30
0.0
  0
ARC
  5
12D
330
1F
100
AcDbEntity
  8
DEFAULT
100
AcDbCircle
 10
1.043307000000027
 20
36.43287673344609
 30
0.0
 40
0.2362210042417925
100
AcDbArc
 50
0.0
 51
85.33957013679564
  0
ARC
  5
12E
330
1F
100
AcDbEntity
  8
DEFAULT
100
AcDbCircle
 10
1.043307000000027
 20
22.29941273344609
 30
0.0
 40
0.2362210042417907
100
AcDbArc
 50
274.6604298632044
 51
0.0
  0
ARC
  5
12F
330
1F
100
AcDbEntity
  8
DEFAULT
100
AcDbCircle
 10
13.06217200000003
 20
40.3380427334461
 30
0.0
 40
0.2362210042417892
100
AcDbArc
 50
0.0
 51
85.33957013679534
  0
ARC
  5
130
330
1F
100
AcDbEntity
  8
DEFAULT
100
AcDbCircle
 10
8.985880000000066
 20
6.706255999999996
 30
0.0
 40
0.0500000000000007
100
AcDbArc
 50
180.0
 51
270.0
  0
SPLINE
  5
131
330
1F
100
AcDbEntity
  8
DEFAULT
100
AcDbSpline
210
0.0
220
0.0
230
1.0
 70
    24
 71
     2
 72
     6
 73
     3
 74
     0
 42
0.0000000001
 43
0.0000000001
 40
0.0
 40
0.0
 40
0.0
 40
1.0
 40
1.0
 40
1.0
 10
10.95636500000001
 20
18.1588067334461
 30
0.0
 10
12.01886500000001
 20
18.1588067334461
 30
0.0
 10
13.08136500000001
 20
18.1588067334461
 30
0.0
  0
ARC
  5
132
330
1F
100
AcDbEntity
  8
DEFAULT
100
AcDbCircle
 10
0.9251970000000256
 20
35.68483673344609
 30
0.0
 40
0.5364172571777788
100
AcDbArc
 50
99.74285866402742
 51
188.1418695196075
  0
SPLINE
  5
133
330
1F
100
AcDbEntity
  8
DEFAULT
100
AcDbSpline
210
0.0
220
0.0
230
1.0
 70
    24
 71
     2
 72
     6
 73
     3
 74
     0
 42
0.0000000001
 43
0.0000000001
 40
0.0
 40
0.0
 40
0.0
 40
1.0
 40
1.0
 40
1.0
 10
13.29729100000003
 20
39.1372467334461
 30
0.0
 10
13.29784200000003
 20
39.1372467334461
 30
0.0
 10
13.29839300000003
 20
39.1372467334461
 30
0.0
  0
ARC
  5
134
330
1F
100
AcDbEntity
  8
DEFAULT
100
AcDbCircle
 10
10.79839300000003
 20
18.68953173344609
 30
0.0
 40
0.0590549999999981
100
AcDbArc
 50
90.0
 51
180.0
  0
ARC
  5
135
330
1F
100
AcDbEntity
  8
DEFAULT
100
AcDbCircle
 10
13.23933800000003
 20
39.1372467334461
 30
0.0
 40
0.0590548848528778
100
AcDbArc
 50
0.0
 51
3.17713922966685
  0
SPLINE
  5
136
330
1F
100
AcDbEntity
  8
DEFAULT
100
AcDbSpline
210
0.0
220
0.0
230
1.0
 70
    24
 71
     2
 72
     6
 73
     3
 74
     0
 42
0.0000000001
 43
0.0000000001
 40
0.0
 40
0.0
 40
0.0
 40
1.0
 40
1.0
 40
1.0
 10
8.935879999999997
 20
6.746856999999991
 30
0.0
 10
8.935879999999997
 20
6.726556499999994
 30
0.0
 10
8.935879999999997
 20
6.706255999999996
 30
0.0
  0
ARC
  5
137
330
1F
100
AcDbEntity
  8
DEFAULT
100
AcDbCircle
 10
-1.220471999999972
 20
36.13759173344609
 30
0.0
 40
0.0590555000000004
100
AcDbArc
 50
180.0
 51
270.0
  0
SPLINE
  5
138
330
1F
100
AcDbEntity
  8
DEFAULT
100
AcDbSpline
210
0.0
220
0.0
230
1.0
 70
    24
 71
     2
 72
     6
 73
     3
 74
     0
 42
0.0000000001
 43
0.0000000001
 40
0.0
 40
0.0
 40
0.0
 40
1.0
 40
1.0
 40
1.0
 10
-1.0625
 20
22.06397273344611
 30
0.0
 10
0.0
 20
22.06397273344611
 30
0.0
 10
1.0625
 20
22.06397273344611
 30
0.0
  0
ARC
  5
139
330
1F
100
AcDbEntity
  8
DEFAULT
100
AcDbCircle
 10
-1.220471999999972
 20
35.2320807334461
 30
0.0
 40
0.0590555000000004
100
AcDbArc
 50
90.0
 51
180.0
  0
SPLINE
  5
13A
330
1F
100
AcDbEntity
  8
DEFAULT
100
AcDbSpline
210
0.0
220
0.0
230
1.0
 70
    24
 71
     2
 72
     6
 73
     3
 74
     0
 42
0.0000000001
 43
0.0000000001
 40
0.0
 40
0.0
 40
0.0
 40
1.0
 40
1.0
 40
1.0
 10
0.4868620000000305
 20
2.797449
 30
0.0
 10
0.4868645000000527
 20
2.797449999999998
 30
0.0
 10
0.4868670000000748
 20
2.797450999999995
 30
0.0
  0
SPLINE
  5
13B
330
1F
100
AcDbEntity
  8
DEFAULT
100
AcDbSpline
210
0.0
220
0.0
230
1.0
 70
     8
 71
     3
 72
    10
 73
     6
 74
     0
 42
0.0000000001
 43
0.0000000001
 40
0.0
 40
0.0
 40
0.0
 40
0.0
 40
0.3334081987195
 40
0.6667405702355
 40
1.0
 40
1.0
 40
1.0
 40
1.0
 10
20.05465896713002
 20
1.632709662339991
 30
0.0
 10
20.05501222314001
 20
1.622588450259997
 30
0.0
 10
20.06109582412
 20
1.60216301138
 30
0.0
 10
20.08384742640004
 20
1.580177131319999
 30
0.0
 10
20.10446826098007
 20
1.574803632149994
 30
0.0
 10
20.11459111705005
 20
1.574803632149994
 30
0.0
  0
ARC
  5
13C
330
1F
100
AcDbEntity
  8
DEFAULT
100
AcDbCircle
 10
9.417783000000043
 20
-87.525449
 30
0.0
 40
90.00000008861713
100
AcDbArc
 50
83.77635464235605
 51
87.43672945249743
  0
CIRCLE
  5
13D
330
1F
100
AcDbEntity
  8
DEFAULT
100
AcDbCircle
 10
0.0
 20
0.0
 30
0.0
 40
1.0
  0
ARC
  5
13E
330
1F
100
AcDbEntity
  8
DEFAULT
100
AcDbCircle
 10
0.4044039999999995
 20
1.441068000000001
 30
0.0
 40
0.015625
100
AcDbArc
 50
90.0
 51
180.0
  0
ARC
  5
13F
330
1F
100
AcDbEntity
  8
DEFAULT
100
AcDbCircle
 10
0.0
 20
0.0
 30
0.0
 40
1.279527939310224
100
AcDbArc
 50
15.76206956729271
 51
18.57560333516714
  0
CIRCLE
  5
140
330
1F
100
AcDbEntity
  8
DEFAULT
100
AcDbCircle
 10
0.0
 20
0.0
 30
0.0
 40
1.0625
  0
ARC
  5
141
330
1F
100
AcDbEntity
  8
DEFAULT
100
AcDbCircle
 10
20.750449
 20
2.707682999999989
 30
0.0
 40
0.0599999500611571
100
AcDbArc
 50
357.9999561960891
 51
76.7746261113896
  0
ARC
  5
142
330
1F
100
AcDbEntity
  8
DEFAULT
100
AcDbCircle
 10
19.09334200000001
 20
1.198538999999997
 30
0.0
 40
0.7499999902752901
100
AcDbArc
 50
32.97175451880226
 51
83.77637330541374
  0
SPLINE
  5
143
330
1F
100
AcDbEntity
  8
DEFAULT
100
AcDbSpline
210
0.0
220
0.0
230
1.0
 70
     8
 71
     3
 72
     9
 73
     5
 74
     0
 42
0.0000000001
 43
0.0000000001
 40
0.0
 40
0.0
 40
0.0
 40
0.0
 40
1.0
 40
2.0
 40
2.0
 40
2.0
 40
2.0
 10
0.958052087283022
 20
2.798339719737001
 30
0.0
 10
0.8816097679964514
 20
2.775795252672452
 30
0.0
 10
0.72297857640865
 20
2.764994933903381
 30
0.0
 10
0.5645482784811975
 20
2.765340678883916
 30
0.0
 10
0.4853435406180324
 20
2.768676004816996
 30
0.0
  0
SPLINE
  5
144
330
1F
100
AcDbEntity
  8
DEFAULT
100
AcDbSpline
210
0.0
220
0.0
230
1.0
 70
    24
 71
     2
 72
     6
 73
     3
 74
     0
 42
0.0000000001
 43
0.0000000001
 40
0.0
 40
0.0
 40
0.0
 40
1.0
 40
1.0
 40
1.0
 10
13.22949500000004
 20
1.574804
 30
0.0
 10
13.22949500000004
 20
1.515748500000001
 30
0.0
 10
13.22949500000004
 20
1.456693000000001
 30
0.0
  0
SPLINE
  5
145
330
1F
100
AcDbEntity
  8
DEFAULT
100
AcDbSpline
210
0.0
220
0.0
230
1.0
 70
    24
 71
     2
 72
     6
 73
     3
 74
     0
 42
0.0000000001
 43
0.0000000001
 40
0.0
 40
0.0
 40
0.0
 40
1.0
 40
1.0
 40
1.0
 10
12.65862900000002
 20
1.574804
 30
0.0
 10
12.65862900000002
 20
1.515748500000001
 30
0.0
 10
12.65862900000002
 20
1.456693000000001
 30
0.0
  0
SPLINE
  5
146
330
1F
100
AcDbEntity
  8
DEFAULT
100
AcDbSpline
210
0.0
220
0.0
230
1.0
 70
    24
 71
     2
 72
     6
 73
     3
 74
     0
 42
0.0000000001
 43
0.0000000001
 40
0.0
 40
0.0
 40
0.0
 40
1.0
 40
1.0
 40
1.0
 10
-1.279527999999971
 20
35.2320807334461
 30
0.0
 10
-1.279527999999971
 20
35.08443823344609
 30
0.0
 10
-1.279527999999971
 20
34.93679573344609
 30
0.0
  0
SPLINE
  5
147
330
1F
100
AcDbEntity
  8
DEFAULT
100
AcDbSpline
210
0.0
220
0.0
230
1.0
 70
    24
 71
     2
 72
     6
 73
     3
 74
     0
 42
0.0000000001
 43
0.0000000001
 40
0.0
 40
0.0
 40
0.0
 40
1.0
 40
1.0
 40
1.0
 10
18.16740500000003
 20
30.11418573344609
 30
0.0
 10
18.16740500000003
 20
29.9889587334461
 30
0.0
 10
18.16740500000003
 20
29.8637317334461
 30
0.0
  0
SPLINE
  5
148
330
1F
100
AcDbEntity
  8
DEFAULT
100
AcDbSpline
210
0.0
220
0.0
230
1.0
 70
    24
 71
     2
 72
     6
 73
     3
 74
     0
 42
0.0000000001
 43
0.0000000001
 40
0.0
 40
0.0
 40
0.0
 40
1.0
 40
1.0
 40
1.0
 10
18.38443300000006
 20
28.38266473344611
 30
0.0
 10
19.44693300000006
 20
28.38266473344611
 30
0.0
 10
20.50943300000006
 20
28.38266473344611
 30
0.0
  0
SPLINE
  5
149
330
1F
100
AcDbEntity
  8
DEFAULT
100
AcDbSpline
210
0.0
220
0.0
230
1.0
 70
    24
 71
     2
 72
     6
 73
     3
 74
     0
 42
0.0000000001
 43
0.0000000001
 40
0.0
 40
0.0
 40
0.0
 40
1.0
 40
1.0
 40
1.0
 10
18.38443300000006
 20
30.3496257334461
 30
0.0
 10
19.44693300000006
 20
30.3496257334461
 30
0.0
 10
20.50943300000006
 20
30.3496257334461
 30
0.0
  0
SPLINE
  5
14A
330
1F
100
AcDbEntity
  8
DEFAULT
100
AcDbSpline
210
0.0
220
0.0
230
1.0
 70
    24
 71
     2
 72
     6
 73
     3
 74
     0
 42
0.0000000001
 43
0.0000000001
 40
0.0
 40
0.0
 40
0.0
 40
1.0
 40
1.0
 40
1.0
 10
20.72646000000003
 20
28.9133887334461
 30
0.0
 10
20.72646000000003
 20
28.76574623344609
 30
0.0
 10
20.72646000000003
 20
28.61810373344609
 30
0.0
  0
ARC
  5
14B
330
1F
100
AcDbEntity
  8
DEFAULT
100
AcDbCircle
 10
20.66740500000003
 20
29.8189007334461
 30
0.0
 40
0.0590549917026477
100
AcDbArc
 50
322.9236410605687
 51
0.0
  0
ARC
  5
14C
330
1F
100
AcDbEntity
  8
DEFAULT
100
AcDbCircle
 10
20.37213000000003
 20
29.36614473344609
 30
0.0
 40
0.5364170312406187
100
AcDbArc
 50
235.7390327164817
 51
305.7577012451449
  0
LINE
  5
14D
330
1F
100
AcDbEntity
  8
DEFAULT
100
AcDbLine
 10
17.70592439159179
 20
28.85402342509252
 30
0.0
 11
19.90563132952002
 21
28.92077654516611
 31
0.0
  0
ARC
  5
14E
330
1F
100
AcDbEntity
  8
DEFAULT
100
AcDbCircle
 10
20.04940896276906
 20
24.06000061658415
 30
0.0
 40
4.862901873953907
100
AcDbArc
 50
89.6617182787808
 51
91.69426660490433
  0
SPLINE
  5
14F
330
1F
100
AcDbEntity
  8
DEFAULT
100
AcDbSpline
210
0.0
220
0.0
230
1.0
 70
     8
 71
     3
 72
     9
 73
     5
 74
     0
 42
0.0000000001
 43
0.0000000001
 40
0.0
 40
0.0
 40
0.0
 40
0.0
 40
1.0
 40
2.0
 40
2.0
 40
2.0
 40
2.0
 10
20.07812000000001
 20
28.9228177334461
 30
0.0
 10
20.08699889289915
 20
28.91336276512423
 30
0.0
 10
20.10868970584136
 20
28.89806415108414
 30
0.0
 10
20.13484936661041
 20
28.8933580095909
 30
0.0
 10
20.14781025823004
 20
28.8938239083361
 30
0.0
  0
SPLINE
  5
150
330
1F
100
AcDbEntity
  8
DEFAULT
100
AcDbSpline
210
0.0
220
0.0
230
1.0
 70
     8
 71
     3
 72
     9
 73
     5
 74
     0
 42
0.0000000001
 43
0.0000000001
 40
0.0
 40
0.0
 40
0.0
 40
0.0
 40
1.0
 40
2.0
 40
2.0
 40
2.0
 40
2.0
 10
20.14781025823004
 20
28.8938239083361
 30
0.0
 10
20.2317618855717
 20
28.8965450558573
 30
0.0
 10
20.39934548902806
 20
28.90473619368684
 30
0.0
 10
20.5677245300563
 20
28.906146099672
 30
0.0
 10
20.65068114040002
 20
28.9173619626861
 30
0.0
  0
SPLINE
  5
151
330
1F
100
AcDbEntity
  8
DEFAULT
100
AcDbSpline
210
0.0
220
0.0
230
1.0
 70
     8
 71
     3
 72
     9
 73
     5
 74
     0
 42
0.0000000001
 43
0.0000000001
 40
0.0
 40
0.0
 40
0.0
 40
0.0
 40
1.0
 40
2.0
 40
2.0
 40
2.0
 40
2.0
 10
20.65068114040002
 20
28.9173619626861
 30
0.0
 10
20.68598939811039
 20
28.92693872780443
 30
0.0
 10
20.75058358212982
 20
28.96738318332881
 30
0.0
 10
20.78295082000358
 20
29.0363554840449
 30
0.0
 10
20.78828934259479
 20
29.07254954934221
 30
0.0
  0
SPLINE
  5
152
330
1F
100
AcDbEntity
  8
DEFAULT
100
AcDbSpline
210
0.0
220
0.0
230
1.0
 70
     8
 71
     3
 72
     9
 73
     5
 74
     0
 42
0.0000000001
 43
0.0000000001
 40
0.0
 40
0.0
 40
0.0
 40
0.0
 40
1.0
 40
2.0
 40
2.0
 40
2.0
 40
2.0
 10
20.78828934259479
 20
29.07254954934221
 30
0.0
 10
20.80412199139477
 20
29.17700678097484
 30
0.0
 10
20.81674900763704
 20
29.38781882015375
 30
0.0
 10
20.8018701369806
 20
29.59967647096087
 30
0.0
 10
20.77686902714004
 20
29.7019983369061
 30
0.0
  0
SPLINE
  5
153
330
1F
100
AcDbEntity
  8
DEFAULT
100
AcDbSpline
210
0.0
220
0.0
230
1.0
 70
     8
 71
     3
 72
     9
 73
     5
 74
     0
 42
0.0000000001
 43
0.0000000001
 40
0.0
 40
0.0
 40
0.0
 40
0.0
 40
1.0
 40
2.0
 40
2.0
 40
2.0
 40
2.0
 10
20.77686902714004
 20
29.7019983369061
 30
0.0
 10
20.76344859524761
 20
29.73603439018201
 30
0.0
 10
20.71610458374374
 20
29.7957613037081
 30
0.0
 10
20.6439726286647
 20
29.82030535110059
 30
0.0
 10
20.60741055963001
 20
29.8216054744461
 30
0.0
  0
SPLINE
  5
154
330
1F
100
AcDbEntity
  8
DEFAULT
100
AcDbSpline
210
0.0
220
0.0
230
1.0
 70
    24
 71
     2
 72
     6
 73
     3
 74
     0
 42
0.0000000001
 43
0.0000000001
 40
0.0
 40
0.0
 40
0.0
 40
1.0
 40
1.0
 40
1.0
 10
20.60741055963001
 20
29.8216054744461
 30
0.0
 10
20.37761040893002
 20
29.8300359297911
 30
0.0
 10
20.14781025823004
 20
29.8384663851361
 30
0.0
  0
SPLINE
  5
155
330
1F
100
AcDbEntity
  8
DEFAULT
100
AcDbSpline
210
0.0
220
0.0
230
1.0
 70
     8
 71
     3
 72
     9
 73
     5
 74
     0
 42
0.0000000001
 43
0.0000000001
 40
0.0
 40
0.0
 40
0.0
 40
0.0
 40
1.0
 40
2.0
 40
2.0
 40
2.0
 40
2.0
 10
20.14781025823004
 20
29.8384663851361
 30
0.0
 10
20.13484875013091
 20
29.83894361138779
 30
0.0
 10
20.10869601222373
 20
29.83421673813143
 30
0.0
 10
20.08699979936648
 20
29.81893438219346
 30
0.0
 10
20.078124
 20
29.80947573344609
 30
0.0
  0
ARC
  5
156
330
1F
100
AcDbEntity
  8
DEFAULT
100
AcDbCircle
 10
20.04687819627526
 20
34.46600335698275
 30
0.0
 40
4.65663245371699
100
AcDbArc
 50
268.2618145394534
 51
270.3844551041773
  0
LINE
  5
157
330
1F
100
AcDbEntity
  8
DEFAULT
100
AcDbLine
 10
19.90563132952002
 20
29.81151357488609
 30
0.0
 11
17.705924350168
 21
29.87826669567031
 31
0.0
  0
SPLINE
  5
158
330
1F
100
AcDbEntity
  8
DEFAULT
100
AcDbSpline
210
0.0
220
0.0
230
1.0
 70
     8
 71
     2
 72
    30
 73
    27
 74
     0
 42
0.0000000001
 43
0.0000000001
 40
0.0
 40
0.0
 40
0.0
 40
1.0
 40
1.0
 40
2.0
 40
2.0
 40
3.0
 40
3.0
 40
4.0
 40
4.0
 40
5.0
 40
5.0
 40
6.0
 40
6.0
 40
7.0
 40
7.0
 40
8.0
 40
8.0
 40
9.0
 40
9.0
 40
10.0
 40
10.0
 40
11.0
 40
11.0
 40
12.0
 40
12.0
 40
13.0
 40
13.0
 40
13.0
 10
4.770296000000087
 20
7.807782000000003
 30
0.0
 10
4.771105000000063
 20
7.8077915
 30
0.0
 10
4.771914000000038
 20
7.807800999999998
 30
0.0
 10
4.774422000000072
 20
7.807620499999999
 30
0.0
 10
4.776930000000107
 20
7.80744
 30
0.0
 10
4.779395500000078
 20
7.806947000000001
 30
0.0
 10
4.781861000000049
 20
7.806454000000002
 30
0.0
 10
4.784245000000055
 20
7.805655000000002
 30
0.0
 10
4.786629000000062
 20
7.804856000000001
 30
0.0
 10
4.788894000000084
 20
7.8037645
 30
0.0
 10
4.791159000000107
 20
7.802672999999999
 30
0.0
 10
4.793269000000095
 20
7.801305499999998
 30
0.0
 10
4.795379000000082
 20
7.799937999999997
 30
0.0
 10
4.79730100000009
 20
7.798316999999997
 30
0.0
 10
4.799223000000097
 20
7.796695999999997
 30
0.0
 10
4.800926500000088
 20
7.794846
 30
0.0
 10
4.802630000000079
 20
7.792996000000002
 30
0.0
 10
4.804088000000064
 20
7.790947500000001
 30
0.0
 10
4.805546000000049
 20
7.788899000000001
 30
0.0
 10
4.80673500000006
 20
7.786683499999995
 30
0.0
 10
4.807924000000071
 20
7.78446799999999
 30
0.0
 10
4.808826000000067
 20
7.782120999999997
 30
0.0
 10
4.809728000000064
 20
7.779774000000003
 30
0.0
 10
4.810328000000084
 20
7.7773325
 30
0.0
 10
4.810928000000104
 20
7.774890999999997
 30
0.0
 10
4.811217500000083
 20
7.772392999999994
 30
0.0
 10
4.811507000000063
 20
7.769894999999991
 30
0.0
  0
SPLINE
  5
159
330
1F
100
AcDbEntity
  8
DEFAULT
100
AcDbSpline
210
0.0
220
0.0
230
1.0
 70
     8
 71
     3
 72
    24
 73
    20
 74
     0
 42
0.0000000001
 43
0.0000000001
 40
-17.0
 40
-17.0
 40
-17.0
 40
-17.0
 40
-16.0
 40
-15.0
 40
-14.0
 40
-13.0
 40
-12.0
 40
-11.0
 40
-10.0
 40
-9.0
 40
-8.0
 40
-7.0
 40
-6.0
 40
-5.0
 40
-4.0
 40
-3.0
 40
-2.0
 40
-1.0
 40
0.0
 40
0.0
 40
0.0
 40
0.0
 10
4.770296000000087
 20
7.807778999999996
 30
0.0
 10
4.70013899163871
 20
7.805531961188052
 30
0.0
 10
4.559891171976574
 20
7.799133972664862
 30
0.0
 10
4.349741863508257
 20
7.78563020331859
 30
0.0
 10
4.139711312564486
 20
7.770466867619078
 30
0.0
 10
3.929669714220154
 20
7.755452918937706
 30
0.0
 10
3.719599944331094
 20
7.740839162218393
 30
0.0
 10
3.509481683637773
 20
7.726940017267495
 30
0.0
 10
3.299351242644548
 20
7.713211954899521
 30
0.0
 10
3.089318008482962
 20
7.698084950087051
 30
0.0
 10
2.879275436668081
 20
7.683080365475206
 30
0.0
 10
2.669205002975445
 20
7.668492467076007
 30
0.0
 10
2.45917892778823
 20
7.653195409423049
 30
0.0
 10
2.249509852351935
 20
7.633543213449997
 30
0.0
 10
2.040271680406704
 20
7.609697127473979
 30
0.0
 10
1.831838146393181
 20
7.579504847658768
 30
0.0
 10
1.624794547463694
 20
7.540789562614549
 30
0.0
 10
1.419770346701227
 20
7.492514297390457
 30
0.0
 10
1.241468814295501
 20
7.44179451659376
 30
0.0
 10
1.174051000000077
 20
7.422258999999997
 30
0.0
  0
SPLINE
  5
15A
330
1F
100
AcDbEntity
  8
DEFAULT
100
AcDbSpline
210
0.0
220
0.0
230
1.0
 70
    12
 71
     3
 72
    27
 73
    23
 74
     0
 42
0.0000000001
 43
0.0000000001
 40
-17.0
 40
-17.0
 40
-17.0
 40
-17.0
 40
-16.0
 40
-15.0
 40
-14.0
 40
-13.0
 40
-12.0
 40
-11.0
 40
-10.0
 40
-9.0
 40
-8.0
 40
-7.0
 40
-6.0
 40
-5.0
 40
-4.0
 40
-3.0
 40
-2.0
 40
-1.0
 40
0.0
 40
0.0
 40
0.0
 40
0.1655289182882165
 40
0.1655289182882165
 40
0.1655289182882165
 40
0.1655289182882165
 10
1.174051000000077
 20
7.422258999999997
 30
0.0
 41
1.0
 10
1.134583216970555
 20
7.410822504492828
 30
0.0
 41
1.0
 10
1.012424314148632
 20
7.375486381646766
 30
0.0
 41
1.0
 10
0.8958136844754563
 20
7.335416795606861
 30
0.0
 41
1.0
 10
0.781238968820162
 20
7.289748079897649
 30
0.0
 41
1.0
 10
0.6703739181137962
 20
7.235604796094336
 30
0.0
 41
1.0
 10
0.5619428392634518
 20
7.177402505883592
 30
0.0
 41
1.0
 10
0.472184202148128
 20
7.0849128826395
 30
0.0
 41
1.0
 10
0.4854555519713131
 20
6.943442021926643
 30
0.0
 41
1.0
 10
0.6147189172605749
 20
6.898978805810515
 30
0.0
 41
1.0
 10
0.7362741772790287
 20
6.917675568828642
 30
0.0
 41
1.0
 10
0.8550497238278467
 20
6.951654666722987
 30
0.0
 41
1.0
 10
0.9726100567867775
 20
6.988552756289707
 30
0.0
 41
1.0
 10
1.089902041294522
 20
7.026572668497323
 30
0.0
 41
1.0
 10
1.208252268541628
 20
7.061139124459814
 30
0.0
 41
1.0
 10
1.326784335348918
 20
7.094732464986024
 30
0.0
 41
1.0
 10
1.445484216126374
 20
7.129094134400646
 30
0.0
 41
1.0
 10
1.563501967869229
 20
7.160752314983128
 30
0.0
 41
1.0
 10
1.64676409465136
 20
7.17789988196931
 30
0.0
 41
1.0
 10
1.682220000000086
 20
7.183910999999995
 30
0.0
 41
1.0
 10
1.736634043270662
 20
7.193136240010347
 30
0.0
 41
0.9994851325376918
 10
1.791368557624511
 20
7.200216218594283
 30
0.0
 41
0.9994851325376918
 10
1.846339000000057
 20
7.20514
 30
0.0
 41
1.0
  0
SPLINE
  5
15B
330
1F
100
AcDbEntity
  8
DEFAULT
100
AcDbSpline
210
0.0
220
0.0
230
1.0
 70
     8
 71
     3
 72
    19
 73
    15
 74
     0
 42
0.0000000001
 43
0.0000000001
 40
-12.0
 40
-12.0
 40
-12.0
 40
-12.0
 40
-11.0
 40
-10.0
 40
-9.0
 40
-8.0
 40
-7.0
 40
-6.0
 40
-5.0
 40
-4.0
 40
-3.0
 40
-2.0
 40
-1.0
 40
0.0
 40
0.0
 40
0.0
 40
0.0
 10
1.846339000000057
 20
7.20514
 30
0.0
 10
1.928377275489709
 20
7.207588205970595
 30
0.0
 10
2.092449000958368
 20
7.212599616300153
 30
0.0
 10
2.33858302604358
 20
7.219381657521964
 30
0.0
 10
2.584717831255432
 20
7.225550481073753
 30
0.0
 10
2.830874973934158
 20
7.232953088141215
 30
0.0
 10
3.077052071669755
 20
7.231608824017428
 30
0.0
 10
3.322151488649638
 20
7.205323845574796
 30
0.0
 10
3.568253644529022
 20
7.194705049672123
 30
0.0
 10
3.814522978144907
 20
7.199406443809664
 30
0.0
 10
4.060314154069829
 20
7.214235669636736
 30
0.0
 10
4.305993642676754
 20
7.230739890082646
 30
0.0
 10
4.552041707532794
 20
7.240435019503394
 30
0.0
 10
4.716113527406776
 20
7.245397258215959
 30
0.0
 10
4.798142000000098
 20
7.248162999999991
 30
0.0
  0
SPLINE
  5
15C
330
1F
100
AcDbEntity
  8
DEFAULT
100
AcDbSpline
210
0.0
220
0.0
230
1.0
 70
    24
 71
     2
 72
     6
 73
     3
 74
     0
 42
0.0000000001
 43
0.0000000001
 40
0.0
 40
0.0
 40
0.0
 40
1.0
 40
1.0
 40
1.0
 10
0.5694050000000743
 20
7.174796999999998
 30
0.0
 10
0.5695195000000695
 20
7.174878
 30
0.0
 10
0.5696340000000646
 20
7.174959000000001
 30
0.0
  0
SPLINE
  5
15D
330
1F
100
AcDbEntity
  8
DEFAULT
100
AcDbSpline
210
0.0
220
0.0
230
1.0
 70
    24
 71
     2
 72
     6
 73
     3
 74
     0
 42
0.0000000001
 43
0.0000000001
 40
0.0
 40
0.0
 40
0.0
 40
1.0
 40
1.0
 40
1.0
 10
0.8036070000000564
 20
6.937195000000003
 30
0.0
 10
0.8036460000000716
 20
6.937205999999996
 30
0.0
 10
0.8036850000000868
 20
6.93721699999999
 30
0.0
  0
SPLINE
  5
15E
330
1F
100
AcDbEntity
  8
DEFAULT
100
AcDbSpline
210
0.0
220
0.0
230
1.0
 70
     8
 71
     3
 72
    24
 73
    20
 74
     0
 42
0.0000000001
 43
0.0000000001
 40
0.0
 40
0.0
 40
0.0
 40
0.0
 40
1.0
 40
2.0
 40
3.0
 40
4.0
 40
5.0
 40
6.0
 40
7.0
 40
8.0
 40
9.0
 40
10.0
 40
11.0
 40
12.0
 40
13.0
 40
14.0
 40
15.0
 40
16.0
 40
17.0
 40
17.0
 40
17.0
 40
17.0
 10
1.72800600000005
 20
31.1715057334461
 30
0.0
 10
1.633331782317953
 20
31.21007462638293
 30
0.0
 10
1.418947775744527
 20
31.18983579295939
 30
0.0
 10
1.18804712383502
 20
30.98205412308529
 30
0.0
 10
1.039039859650416
 20
30.71763278854895
 30
0.0
 10
0.9115750858160254
 20
30.44357185052782
 30
0.0
 10
0.8052797073462443
 20
30.16030395054803
 30
0.0
 10
0.7123087343334191
 20
29.8725829013329
 30
0.0
 10
0.6339281650793396
 20
29.58050099525998
 30
0.0
 10
0.5699023559212719
 20
29.28495674990707
 30
0.0
 10
0.5210134158341475
 20
28.98646061200928
 30
0.0
 10
0.4875132180030164
 20
28.68612433676294
 30
0.0
 10
0.4759795817172972
 20
28.38282321623235
 30
0.0
 10
0.5002268039594355
 20
28.08396431843032
 30
0.0
 10
0.5495450918323286
 20
27.77520272068794
 30
0.0
 10
0.8053432644360328
 20
27.56726690829196
 30
0.0
 10
1.117408643821022
 20
27.66555134295812
 30
0.0
 10
1.379738092219327
 20
27.80340293349612
 30
0.0
 10
1.561558612720319
 20
27.89428054411549
 30
0.0
 10
1.65049700000003
 20
27.94106673344611
 30
0.0
  0
SPLINE
  5
15F
330
1F
100
AcDbEntity
  8
DEFAULT
100
AcDbSpline
210
0.0
220
0.0
230
1.0
 70
     8
 71
     3
 72
    34
 73
    30
 74
     0
 42
0.0000000001
 43
0.0000000001
 40
0.0
 40
0.0
 40
0.0
 40
0.0
 40
1.0
 40
2.0
 40
3.0
 40
4.0
 40
5.0
 40
6.0
 40
7.0
 40
8.0
 40
9.0
 40
10.0
 40
11.0
 40
12.0
 40
13.0
 40
14.0
 40
15.0
 40
16.0
 40
17.0
 40
18.0
 40
19.0
 40
20.0
 40
21.0
 40
22.0
 40
23.0
 40
24.0
 40
25.0
 40
26.0
 40
27.0
 40
27.0
 40
27.0
 40
27.0
 10
2.060497543580084
 20
7.571613475291002
 30
0.0
 10
2.040203547604506
 20
7.567732106542621
 30
0.0
 10
1.99966463548094
 20
7.559712735469475
 30
0.0
 10
1.939022667115751
 20
7.546867901432591
 30
0.0
 10
1.878589406649439
 20
7.533076156212999
 30
0.0
 10
1.818327992150728
 20
7.518553090069048
 30
0.0
 10
1.758287095206356
 20
7.503140136296096
 30
0.0
 10
1.698547842960465
 20
7.48659045549077
 30
0.0
 10
1.639236239685829
 20
7.468561124788366
 30
0.0
 10
1.580473104016619
 20
7.44881382107971
 30
0.0
 10
1.522323334929069
 20
7.427327203741058
 30
0.0
 10
1.464825247742851
 20
7.404156561351201
 30
0.0
 10
1.407897872167212
 20
7.379623046354027
 30
0.0
 10
1.351426659322783
 20
7.354060870979282
 30
0.0
 10
1.295257995928182
 20
7.327843324303686
 30
0.0
 10
1.239143654237182
 20
7.301513271926837
 30
0.0
 10
1.182821370884881
 20
7.275618085529118
 30
0.0
 10
1.125810563879895
 20
7.251280532243811
 30
0.0
 10
1.06877903019199
 20
7.227000606572091
 30
0.0
 10
1.01172249046607
 20
7.202776448713564
 30
0.0
 10
0.954470259876814
 20
7.179017820836108
 30
0.0
 10
0.8967847661084534
 20
7.156316221902514
 30
0.0
 10
0.8384407168664438
 20
7.135373657614679
 30
0.0
 10
0.7789448176863516
 20
7.117715573187382
 30
0.0
 10
0.7186673996056925
 20
7.103894808284394
 30
0.0
 10
0.6561991705519858
 20
7.096687788760832
 30
0.0
 10
0.5973844146235479
 20
7.094306180869992
 30
0.0
 10
0.5242988786935712
 20
7.125743958665794
 30
0.0
 10
0.5637693679720996
 20
7.172077395247641
 30
0.0
 10
0.5795320000000856
 20
7.180975000000004
 30
0.0
  0
SPLINE
  5
160
330
1F
100
AcDbEntity
  8
DEFAULT
100
AcDbSpline
210
0.0
220
0.0
230
1.0
 70
    24
 71
     2
 72
     6
 73
     3
 74
     0
 42
0.0000000001
 43
0.0000000001
 40
0.0
 40
0.0
 40
0.0
 40
1.0
 40
1.0
 40
1.0
 10
4.832490000000064
 20
7.36951599999999
 30
0.0
 10
5.039705499452367
 20
7.38037551045047
 30
0.0
 10
5.24692099890467
 20
7.39123502090095
 30
0.0
  0
ARC
  5
161
330
1F
100
AcDbEntity
  8
DEFAULT
100
AcDbCircle
 10
5.186210923092176
 20
8.54964497501102
 30
0.0
 40
1.159999713399296
100
AcDbArc
 50
273.0000188727319
 51
303.0000567613823
  0
SPLINE
  5
162
330
1F
100
AcDbEntity
  8
DEFAULT
100
AcDbSpline
210
0.0
220
0.0
230
1.0
 70
    24
 71
     2
 72
     6
 73
     3
 74
     0
 42
0.0000000001
 43
0.0000000001
 40
0.0
 40
0.0
 40
0.0
 40
1.0
 40
1.0
 40
1.0
 10
5.817993011399153
 20
7.57678798244693
 30
0.0
 10
6.158484505699619
 20
7.79790549122346
 30
0.0
 10
6.498976000000084
 20
8.01902299999999
 30
0.0
  0
SPLINE
  5
163
330
1F
100
AcDbEntity
  8
DEFAULT
100
AcDbSpline
210
0.0
220
0.0
230
1.0
 70
    24
 71
     2
 72
     6
 73
     3
 74
     0
 42
0.0000000001
 43
0.0000000001
 40
0.0
 40
0.0
 40
0.0
 40
1.0
 40
1.0
 40
1.0
 10
0.5407920000000672
 20
7.152028000000001
 30
0.0
 10
0.5408175000000881
 20
7.152051499999999
 30
0.0
 10
0.540843000000109
 20
7.152074999999996
 30
0.0
  0
SPLINE
  5
164
330
1F
100
AcDbEntity
  8
DEFAULT
100
AcDbSpline
210
0.0
220
0.0
230
1.0
 70
     8
 71
     3
 72
     9
 73
     5
 74
     0
 42
0.0000000001
 43
0.0000000001
 40
0.0
 40
0.0
 40
0.0
 40
0.0
 40
1.0
 40
2.0
 40
2.0
 40
2.0
 40
2.0
 10
2.073059211220084
 20
7.221828796875997
 30
0.0
 10
2.101113972591577
 20
7.274693342933332
 30
0.0
 10
2.095022322215755
 20
7.397795425222867
 30
0.0
 10
2.097688484820651
 20
7.52374164395755
 30
0.0
 10
2.060497543580084
 20
7.571613475291002
 30
0.0
  0
SPLINE
  5
165
330
1F
100
AcDbEntity
  8
DEFAULT
100
AcDbSpline
210
0.0
220
0.0
230
1.0
 70
    24
 71
     2
 72
     6
 73
     3
 74
     0
 42
0.0000000001
 43
0.0000000001
 40
0.0
 40
0.0
 40
0.0
 40
1.0
 40
1.0
 40
1.0
 10
4.815742000000114
 20
7.689076999999997
 30
0.0
 10
5.022958004244003
 20
7.699936919022917
 30
0.0
 10
5.230174008487893
 20
7.710796838045837
 30
0.0
  0
ARC
  5
166
330
1F
100
AcDbEntity
  8
DEFAULT
100
AcDbCircle
 10
5.186211595934196
 20
8.549645193630951
 30
0.0
 40
0.8399995579673843
100
AcDbArc
 50
273.0000158765879
 51
302.9999810560531
  0
SPLINE
  5
167
330
1F
100
AcDbEntity
  8
DEFAULT
100
AcDbSpline
210
0.0
220
0.0
230
1.0
 70
    24
 71
     2
 72
     6
 73
     3
 74
     0
 42
0.0000000001
 43
0.0000000001
 40
0.0
 40
0.0
 40
0.0
 40
1.0
 40
1.0
 40
1.0
 10
5.643707911672436
 20
7.845162136012561
 30
0.0
 10
5.883125955836249
 20
8.000642068006279
 30
0.0
 10
6.122544000000062
 20
8.156121999999996
 30
0.0
  0
SPLINE
  5
168
330
1F
100
AcDbEntity
  8
DEFAULT
100
AcDbSpline
210
0.0
220
0.0
230
1.0
 70
    24
 71
     2
 72
     6
 73
     3
 74
     0
 42
0.0000000001
 43
0.0000000001
 40
0.0
 40
0.0
 40
0.0
 40
1.0
 40
1.0
 40
1.0
 10
4.83664500000009
 20
7.290228999999997
 30
0.0
 10
4.824076000000076
 20
7.530059999999999
 30
0.0
 10
4.811507000000063
 20
7.769891000000001
 30
0.0
  0
SPLINE
  5
169
330
1F
100
AcDbEntity
  8
DEFAULT
100
AcDbSpline
210
0.0
220
0.0
230
1.0
 70
     8
 71
     2
 72
    34
 73
    31
 74
     0
 42
0.0000000001
 43
0.0000000001
 40
0.0
 40
0.0
 40
0.0
 40
1.0
 40
1.0
 40
2.0
 40
2.0
 40
3.0
 40
3.0
 40
4.0
 40
4.0
 40
5.0
 40
5.0
 40
6.0
 40
6.0
 40
7.0
 40
7.0
 40
8.0
 40
8.0
 40
9.0
 40
9.0
 40
10.0
 40
10.0
 40
11.0
 40
11.0
 40
12.0
 40
12.0
 40
13.0
 40
13.0
 40
14.0
 40
14.0
 40
15.0
 40
15.0
 40
15.0
 10
4.83664500000009
 20
7.290230999999991
 30
0.0
 10
4.836643500000093
 20
7.288111999999991
 30
0.0
 10
4.836642000000097
 20
7.285992999999991
 30
0.0
 10
4.836416500000098
 20
7.283885499999997
 30
0.0
 10
4.836191000000099
 20
7.281778000000003
 30
0.0
 10
4.835743500000092
 20
7.279706499999996
 30
0.0
 10
4.835296000000085
 20
7.277634999999989
 30
0.0
 10
4.834632500000083
 20
7.27562249999999
 30
0.0
 10
4.833969000000081
 20
7.273609999999991
 30
0.0
 10
4.833095500000098
 20
7.271679499999991
 30
0.0
 10
4.832222000000115
 20
7.26974899999999
 30
0.0
 10
4.831149500000095
 20
7.267920999999994
 30
0.0
 10
4.830077000000074
 20
7.266092999999998
 30
0.0
 10
4.828817000000072
 20
7.264388999999994
 30
0.0
 10
4.82755700000007
 20
7.262684999999991
 30
0.0
 10
4.826124000000078
 20
7.261123999999995
 30
0.0
 10
4.824691000000087
 20
7.259563
 30
0.0
 10
4.823101000000094
 20
7.258162499999997
 30
0.0
 10
4.8215110000001
 20
7.256761999999995
 30
0.0
 10
4.819781000000091
 20
7.255537499999996
 30
0.0
 10
4.818051000000082
 20
7.254312999999996
 30
0.0
 10
4.816202000000089
 20
7.253277999999995
 30
0.0
 10
4.814353000000096
 20
7.252242999999993
 30
0.0
 10
4.812404500000071
 20
7.251409999999993
 30
0.0
 10
4.810456000000045
 20
7.250576999999993
 30
0.0
 10
4.808430000000044
 20
7.249954499999994
 30
0.0
 10
4.806404000000043
 20
7.249331999999995
 30
0.0
 10
4.804324000000065
 20
7.248927499999994
 30
0.0
 10
4.802244000000087
 20
7.248522999999992
 30
0.0
 10
4.800193000000093
 20
7.248342999999991
 30
0.0
 10
4.798142000000098
 20
7.248162999999991
 30
0.0
  0
ARC
  5
16A
330
1F
100
AcDbEntity
  8
DEFAULT
100
AcDbCircle
 10
20.66740500000003
 20
28.9133887334461
 30
0.0
 40
0.0590552931447625
100
AcDbArc
 50
0.0
 51
37.07713299743698
  0
ARC
  5
16B
330
1F
100
AcDbEntity
  8
DEFAULT
100
AcDbCircle
 10
20.37213000000003
 20
29.36614473344609
 30
0.0
 40
0.536416906649928
100
AcDbArc
 50
315.7533335976719
 51
44.31283467173411
  0
ARC
  5
16C
330
1F
100
AcDbEntity
  8
DEFAULT
100
AcDbCircle
 10
20.49024000000003
 20
30.11418573344609
 30
0.0
 40
0.2362205042417923
100
AcDbArc
 50
0.0
 51
85.33957013679536
  0
ARC
  5
16D
330
1F
100
AcDbEntity
  8
DEFAULT
100
AcDbCircle
 10
18.40362600000003
 20
28.61810373344609
 30
0.0
 40
0.2362205058949283
100
AcDbArc
 50
180.0
 51
265.3395504293516
  0
ARC
  5
16E
330
1F
100
AcDbEntity
  8
DEFAULT
100
AcDbCircle
 10
18.40362600000003
 20
30.11418573344609
 30
0.0
 40
0.2362210042417928
100
AcDbArc
 50
94.66042986320501
 51
180.0
  0
ARC
  5
16F
330
1F
100
AcDbEntity
  8
DEFAULT
100
AcDbCircle
 10
20.37213000000003
 20
29.36614473344609
 30
0.0
 40
0.5364178681965175
100
AcDbArc
 50
54.24236117128768
 51
124.2612922488398
  0
ARC
  5
170
330
1F
100
AcDbEntity
  8
DEFAULT
100
AcDbCircle
 10
20.49024000000003
 20
28.61810373344609
 30
0.0
 40
0.2362200058949278
100
AcDbArc
 50
274.6604495706482
 51
0.0
  0
SPLINE
  5
171
330
1F
100
AcDbEntity
  8
DEFAULT
100
AcDbSpline
210
0.0
220
0.0
230
1.0
 70
    24
 71
     2
 72
     6
 73
     3
 74
     0
 42
0.0000000001
 43
0.0000000001
 40
0.0
 40
0.0
 40
0.0
 40
1.0
 40
1.0
 40
1.0
 10
20.72646000000003
 20
30.11418573344609
 30
0.0
 10
20.72646000000003
 20
29.9665432334461
 30
0.0
 10
20.72646000000003
 20
29.8189007334461
 30
0.0
  0
SPLINE
  5
172
330
1F
100
AcDbEntity
  8
DEFAULT
100
AcDbSpline
210
0.0
220
0.0
230
1.0
 70
    24
 71
     2
 72
     6
 73
     3
 74
     0
 42
0.0000000001
 43
0.0000000001
 40
0.0
 40
0.0
 40
0.0
 40
1.0
 40
1.0
 40
1.0
 10
18.16740500000003
 20
28.86855273344609
 30
0.0
 10
18.16740500000003
 20
28.74332823344609
 30
0.0
 10
18.16740500000003
 20
28.61810373344609
 30
0.0
  0
ARC
  5
173
330
1F
100
AcDbEntity
  8
DEFAULT
100
AcDbCircle
 10
12.94406200000003
 20
19.1422877334461
 30
0.0
 40
0.5364179440413006
100
AcDbArc
 50
243.7810279463983
 51
332.2933208849743
  0
ARC
  5
174
330
1F
100
AcDbEntity
  8
DEFAULT
100
AcDbCircle
 10
13.23933800000003
 20
19.59504273344611
 30
0.0
 40
0.0590549402928861
100
AcDbArc
 50
356.8209233279758
 51
0.0
  0
ARC
  5
175
330
1F
100
AcDbEntity
  8
DEFAULT
100
AcDbCircle
 10
0.9251970000000256
 20
35.68483673344609
 30
0.0
 40
0.5364174957656088
100
AcDbArc
 50
198.3405085450712
 51
262.0320249683487
  0
ARC
  5
176
330
1F
100
AcDbEntity
  8
DEFAULT
100
AcDbCircle
 10
19.44693200000006
 20
0.0
 30
0.0
 40
1.279527939310224
100
AcDbArc
 50
15.7620695672927
 51
18.57560333516714
  0
ARC
  5
177
330
1F
100
AcDbEntity
  8
DEFAULT
100
AcDbCircle
 10
20.672327
 20
0.5448949999999968
 30
0.0
 40
0.2362201456744931
100
AcDbArc
 50
283.2478113805403
 51
359.9999999999999
  0
SPLINE
  5
178
330
1F
100
AcDbEntity
  8
DEFAULT
100
AcDbSpline
210
0.0
220
0.0
230
1.0
 70
    24
 71
     2
 72
     6
 73
     3
 74
     0
 42
0.0000000001
 43
0.0000000001
 40
0.0
 40
0.0
 40
0.0
 40
1.0
 40
1.0
 40
1.0
 10
19.85133600000006
 20
1.456693000000001
 30
0.0
 10
20.37212850000003
 20
1.456693000000001
 30
0.0
 10
20.892921
 20
1.456693000000001
 30
0.0
  0
SPLINE
  5
179
330
1F
100
AcDbEntity
  8
DEFAULT
100
AcDbSpline
210
0.0
220
0.0
230
1.0
 70
     8
 71
     3
 72
    10
 73
     6
 74
     0
 42
0.0000000001
 43
0.0000000001
 40
0.0
 40
0.0
 40
0.0
 40
0.0
 40
0.3098884097075
 40
0.6612939512471
 40
1.0
 40
1.0
 40
1.0
 40
1.0
 10
12.44476323607
 20
1.982489443939997
 30
0.0
 10
12.22763796164003
 20
2.056479691899995
 30
0.0
 10
11.75864171793
 20
2.198341545609992
 30
0.0
 10
11.03477287166004
 20
2.356504488399992
 30
0.0
 10
10.52747001131002
 20
2.422190602779992
 30
0.0
 10
10.27768710723001
 20
2.443498356585991
 30
0.0
  0
ARC
  5
17A
330
1F
100
AcDbEntity
  8
DEFAULT
100
AcDbCircle
 10
4.749004526649514
 20
-65.37724701432583
 30
0.0
 40
70.00000232123381
100
AcDbArc
 50
76.77588180358266
 51
83.00237981337419
  0
ARC
  5
17B
330
1F
100
AcDbEntity
  8
DEFAULT
100
AcDbCircle
 10
9.62213010042143
 20
-25.67519294001684
 30
0.0
 40
29.99999668902039
100
AcDbArc
 50
83.00238018813934
 51
88.12036129383776
  0
SPLINE
  5
17C
330
1F
100
AcDbEntity
  8
DEFAULT
100
AcDbSpline
210
0.0
220
0.0
230
1.0
 70
    24
 71
     2
 72
     6
 73
     3
 74
     0
 42
0.0000000001
 43
0.0000000001
 40
0.0
 40
0.0
 40
0.0
 40
1.0
 40
1.0
 40
1.0
 10
13.29839300000003
 20
19.59504273344611
 30
0.0
 10
13.29784150000003
 20
19.59504273344611
 30
0.0
 10
13.29729000000003
 20
19.59504273344611
 30
0.0
  0
SPLINE
  5
17D
330
1F
100
AcDbEntity
  8
DEFAULT
100
AcDbSpline
210
0.0
220
0.0
230
1.0
 70
    24
 71
     2
 72
     6
 73
     3
 74
     0
 42
0.0000000001
 43
0.0000000001
 40
0.0
 40
0.0
 40
0.0
 40
1.0
 40
1.0
 40
1.0
 10
10.73933800000003
 20
39.94937273344611
 30
0.0
 10
10.73933800000003
 20
39.5900027334461
 30
0.0
 10
10.73933800000003
 20
39.23063273344609
 30
0.0
  0
SPLINE
  5
17E
330
1F
100
AcDbEntity
  8
DEFAULT
100
AcDbSpline
210
0.0
220
0.0
230
1.0
 70
    24
 71
     2
 72
     6
 73
     3
 74
     0
 42
0.0000000001
 43
0.0000000001
 40
0.0
 40
0.0
 40
0.0
 40
1.0
 40
1.0
 40
1.0
 10
10.25838000000005
 20
6.656255999999999
 30
0.0
 10
9.622130000000055
 20
6.656255999999999
 30
0.0
 10
8.985880000000066
 20
6.656255999999999
 30
0.0
  0
ARC
  5
17F
330
1F
100
AcDbEntity
  8
DEFAULT
100
AcDbCircle
 10
10.97555800000004
 20
40.3380427334461
 30
0.0
 40
0.2362205042417886
100
AcDbArc
 50
94.66042986320434
 51
180.0
  0
SPLINE
  5
180
330
1F
100
AcDbEntity
  8
DEFAULT
100
AcDbSpline
210
0.0
220
0.0
230
1.0
 70
    24
 71
     2
 72
     6
 73
     3
 74
     0
 42
0.0000000001
 43
0.0000000001
 40
0.0
 40
0.0
 40
0.0
 40
1.0
 40
1.0
 40
1.0
 10
0.5269550000000436
 20
22.68808373344611
 30
0.0
 10
-0.3762864999999636
 20
22.68808373344611
 30
0.0
 10
-1.279527999999971
 20
22.68808373344611
 30
0.0
  0
SPLINE
  5
181
330
1F
100
AcDbEntity
  8
DEFAULT
100
AcDbSpline
210
0.0
220
0.0
230
1.0
 70
    24
 71
     2
 72
     6
 73
     3
 74
     0
 42
0.0000000001
 43
0.0000000001
 40
0.0
 40
0.0
 40
0.0
 40
1.0
 40
1.0
 40
1.0
 10
10.38297299999999
 20
6.746856999999991
 30
0.0
 10
9.622129500000028
 20
6.746856999999991
 30
0.0
 10
8.861286000000064
 20
6.746856999999991
 30
0.0
  0
SPLINE
  5
182
330
1F
100
AcDbEntity
  8
DEFAULT
100
AcDbSpline
210
0.0
220
0.0
230
1.0
 70
    24
 71
     2
 72
     6
 73
     3
 74
     0
 42
0.0000000001
 43
0.0000000001
 40
0.0
 40
0.0
 40
0.0
 40
1.0
 40
1.0
 40
1.0
 10
0.5269550000000436
 20
23.4068237334461
 30
0.0
 10
-0.3762864999999636
 20
23.4068237334461
 30
0.0
 10
-1.279527999999971
 20
23.4068237334461
 30
0.0
  0
SPLINE
  5
183
330
1F
100
AcDbEntity
  8
DEFAULT
100
AcDbSpline
210
0.0
220
0.0
230
1.0
 70
     8
 71
     3
 72
     9
 73
     5
 74
     0
 42
0.0000000001
 43
0.0000000001
 40
0.0
 40
0.0
 40
0.0
 40
0.0
 40
0.6355962817661
 40
1.0
 40
1.0
 40
1.0
 40
1.0
 10
12.59237367111007
 20
39.97472890163608
 30
0.0
 10
12.59698938030004
 20
39.9839008651761
 30
0.0
 10
12.60543637205001
 20
39.99776349083611
 30
0.0
 10
12.61555413742002
 20
40.01038137500611
 30
0.0
 10
12.61944546287003
 20
40.01479724455611
 30
0.0
  0
SPLINE
  5
184
330
1F
100
AcDbEntity
  8
DEFAULT
100
AcDbSpline
210
0.0
220
0.0
230
1.0
 70
    24
 71
     2
 72
     6
 73
     3
 74
     0
 42
0.0000000001
 43
0.0000000001
 40
0.0
 40
0.0
 40
0.0
 40
1.0
 40
1.0
 40
1.0
 10
13.44987400000002
 20
39.67295073344609
 30
0.0
 10
13.05147300000004
 20
38.2742162334461
 30
0.0
 10
12.65307200000007
 20
36.87548173344611
 30
0.0
  0
SPLINE
  5
185
330
1F
100
AcDbEntity
  8
DEFAULT
100
AcDbSpline
210
0.0
220
0.0
230
1.0
 70
     8
 71
     3
 72
    11
 73
     7
 74
     0
 42
0.0000000001
 43
0.0000000001
 40
0.0
 40
0.0
 40
0.0
 40
0.0
 40
0.2497018616245
 40
0.4998288154303
 40
0.7499563046188
 40
1.0
 40
1.0
 40
1.0
 40
1.0
 10
13.39455264717003
 20
39.8662515673261
 30
0.0
 10
13.40761850686999
 20
39.85439401478611
 30
0.0
 10
13.43043576042004
 20
39.8270586346061
 30
0.0
 10
13.45219031222007
 20
39.7782034816661
 30
0.0
 10
13.45969863300002
 20
39.72527016304609
 30
0.0
 10
13.45473757121999
 20
39.6898638596161
 30
0.0
 10
13.44987429370002
 20
39.67295071692611
 30
0.0
  0
SPLINE
  5
186
330
1F
100
AcDbEntity
  8
DEFAULT
100
AcDbSpline
210
0.0
220
0.0
230
1.0
 70
    24
 71
     2
 72
     6
 73
     3
 74
     0
 42
0.0000000001
 43
0.0000000001
 40
0.0
 40
0.0
 40
0.0
 40
1.0
 40
1.0
 40
1.0
 10
-1.0625
 20
36.6683167334461
 30
0.0
 10
0.0
 20
36.6683167334461
 30
0.0
 10
1.0625
 20
36.6683167334461
 30
0.0
  0
SPLINE
  5
187
330
1F
100
AcDbEntity
  8
DEFAULT
100
AcDbSpline
210
0.0
220
0.0
230
1.0
 70
     8
 71
     3
 72
     9
 73
     5
 74
     0
 42
0.0000000001
 43
0.0000000001
 40
0.0
 40
0.0
 40
0.0
 40
0.0
 40
0.6723904811073
 40
1.0
 40
1.0
 40
1.0
 40
1.0
 10
0.4545504093540558
 20
35.4654708562861
 30
0.0
 10
0.4457266859170659
 20
35.4737172605161
 30
0.0
 10
0.4337489866690021
 20
35.4872692308161
 30
0.0
 10
0.4238764455529918
 20
35.50231270821611
 30
0.0
 10
0.4208786359910164
 20
35.50737928733609
 30
0.0
  0
SPLINE
  5
188
330
1F
100
AcDbEntity
  8
DEFAULT
100
AcDbSpline
210
0.0
220
0.0
230
1.0
 70
     8
 71
     3
 72
    11
 73
     7
 74
     0
 42
0.0000000001
 43
0.0000000001
 40
0.0
 40
0.0
 40
0.0
 40
0.0
 40
0.182353338924
 40
0.4556180219686
 40
0.728260423691
 40
1.0
 40
1.0
 40
1.0
 40
1.0
 10
12.61944546287003
 20
40.01479724455611
 30
0.0
 10
12.62723707429006
 20
40.02363915202609
 30
0.0
 10
12.64875202390999
 20
40.0439065781061
 30
0.0
 10
12.68991678986004
 20
40.06766634136609
 30
0.0
 10
12.74160692254003
 20
40.08069756367611
 30
0.0
 10
12.77718451146006
 20
40.0796833279861
 30
0.0
 10
12.79444576742003
 20
40.0767791079861
 30
0.0
  0
SPLINE
  5
189
330
1F
100
AcDbEntity
  8
DEFAULT
100
AcDbSpline
210
0.0
220
0.0
230
1.0
 70
     8
 71
     3
 72
     9
 73
     5
 74
     0
 42
0.0000000001
 43
0.0000000001
 40
0.0
 40
0.0
 40
0.0
 40
0.0
 40
0.4997935423101
 40
1.0
 40
1.0
 40
1.0
 40
1.0
 10
0.8173443800270661
 20
36.20667257395608
 30
0.0
 10
0.8280487431080701
 20
36.2115500908461
 30
0.0
 10
0.8503540775480474
 20
36.21933221476608
 30
0.0
 10
0.8737264005560519
 20
36.22287787588608
 30
0.0
 10
0.8854793419510543
 20
36.2235667610761
 30
0.0
  0
SPLINE
  5
18A
330
1F
100
AcDbEntity
  8
DEFAULT
100
AcDbSpline
210
0.0
220
0.0
230
1.0
 70
     8
 71
     3
 72
     8
 73
     4
 74
     0
 42
0.0000000001
 43
0.0000000001
 40
0.0
 40
0.0
 40
0.0
 40
0.0
 40
1.0
 40
1.0
 40
1.0
 40
1.0
 10
12.59000004703
 20
18.76245106373609
 30
0.0
 10
12.58764591356498
 20
18.76748436540471
 30
0.0
 10
12.58551668038683
 20
18.77261615474933
 30
0.0
 10
12.58362484470501
 20
18.7778239224961
 30
0.0
  0
SPLINE
  5
18B
330
1F
100
AcDbEntity
  8
DEFAULT
100
AcDbSpline
210
0.0
220
0.0
230
1.0
 70
    24
 71
     2
 72
     6
 73
     3
 74
     0
 42
0.0000000001
 43
0.0000000001
 40
0.0
 40
0.0
 40
0.0
 40
1.0
 40
1.0
 40
1.0
 10
12.58362484470501
 20
18.7778239224961
 30
0.0
 10
12.08378892235254
 20
20.14358132797109
 30
0.0
 10
11.58395300000007
 20
21.50933873344609
 30
0.0
  0
SPLINE
  5
18C
330
1F
100
AcDbEntity
  8
DEFAULT
100
AcDbSpline
210
0.0
220
0.0
230
1.0
 70
    24
 71
     2
 72
     6
 73
     3
 74
     0
 42
0.0000000001
 43
0.0000000001
 40
0.0
 40
0.0
 40
0.0
 40
1.0
 40
1.0
 40
1.0
 10
-1.279527999999971
 20
36.0442067334461
 30
0.0
 10
-1.279527999999971
 20
35.68483623344611
 30
0.0
 10
-1.279527999999971
 20
35.32546573344611
 30
0.0
  0
SPLINE
  5
18D
330
1F
100
AcDbEntity
  8
DEFAULT
100
AcDbSpline
210
0.0
220
0.0
230
1.0
 70
    24
 71
     2
 72
     6
 73
     3
 74
     0
 42
0.0000000001
 43
0.0000000001
 40
0.0
 40
0.0
 40
0.0
 40
1.0
 40
1.0
 40
1.0
 10
0.0
 20
35.32546573344611
 30
0.0
 10
0.0
 20
35.68483623344611
 30
0.0
 10
0.0
 20
36.0442067334461
 30
0.0
  0
ARC
  5
18E
330
1F
100
AcDbEntity
  8
DEFAULT
100
AcDbCircle
 10
10.79839300000003
 20
40.04275873344609
 30
0.0
 40
0.0590554999999986
100
AcDbArc
 50
180.0
 51
270.0
  0
CIRCLE
  5
18F
330
1F
100
AcDbEntity
  8
DEFAULT
100
AcDbCircle
 10
19.44693200000006
 20
0.0
 30
0.0
 40
1.0
  0
SPLINE
  5
190
330
1F
100
AcDbEntity
  8
DEFAULT
100
AcDbSpline
210
0.0
220
0.0
230
1.0
 70
    24
 71
     2
 72
     6
 73
     3
 74
     0
 42
0.0000000001
 43
0.0000000001
 40
0.0
 40
0.0
 40
0.0
 40
1.0
 40
1.0
 40
1.0
 10
2.755704000000037
 20
33.6601457334461
 30
0.0
 10
1.611467000000033
 20
34.5573897334461
 30
0.0
 10
0.4672300000000291
 20
35.4546337334461
 30
0.0
  0
SPLINE
  5
191
330
1F
100
AcDbEntity
  8
DEFAULT
100
AcDbSpline
210
0.0
220
0.0
230
1.0
 70
    24
 71
     2
 72
     6
 73
     3
 74
     0
 42
0.0000000001
 43
0.0000000001
 40
0.0
 40
0.0
 40
0.0
 40
1.0
 40
1.0
 40
1.0
 10
1.948373000000061
 20
8.798755999999997
 30
0.0
 10
1.969268970217399
 20
8.765315481389784
 30
0.0
 10
1.990164940434738
 20
8.731874962779571
 30
0.0
  0
ARC
  5
192
330
1F
100
AcDbEntity
  8
DEFAULT
100
AcDbCircle
 10
2.185216126712703
 20
8.853755929761874
 30
0.0
 40
0.2299998595238275
100
AcDbArc
 50
211.9998856292883
 51
269.999968434333
  0
SPLINE
  5
193
330
1F
100
AcDbEntity
  8
DEFAULT
100
AcDbSpline
210
0.0
220
0.0
230
1.0
 70
    24
 71
     2
 72
     6
 73
     3
 74
     0
 42
0.0000000001
 43
0.0000000001
 40
-1.0
 40
-1.0
 40
-1.0
 40
0.0
 40
0.0
 40
0.0
 10
2.185216000000025
 20
8.623756070238088
 30
0.0
 10
9.622129500000028
 20
8.623756070238088
 30
0.0
 10
17.05904300000003
 20
8.623756070238088
 30
0.0
  0
ARC
  5
194
330
1F
100
AcDbEntity
  8
DEFAULT
100
AcDbCircle
 10
17.05904287328741
 20
8.853755929761888
 30
0.0
 40
0.2299998595238402
100
AcDbArc
 50
270.0000315656671
 51
328.0001143707091
  0
SPLINE
  5
195
330
1F
100
AcDbEntity
  8
DEFAULT
100
AcDbSpline
210
0.0
220
0.0
230
1.0
 70
    24
 71
     2
 72
     6
 73
     3
 74
     0
 42
0.0000000001
 43
0.0000000001
 40
-1.0
 40
-1.0
 40
-1.0
 40
0.0
 40
0.0
 40
0.0
 10
17.25409405956538
 20
8.731874962779571
 30
0.0
 10
17.27499002978269
 20
8.765315481389784
 30
0.0
 10
17.295886
 20
8.798755999999997
 30
0.0
  0
SPLINE
  5
196
330
1F
100
AcDbEntity
  8
DEFAULT
100
AcDbSpline
210
0.0
220
0.0
230
1.0
 70
    24
 71
     2
 72
     6
 73
     3
 74
     0
 42
0.0000000001
 43
0.0000000001
 40
0.0
 40
0.0
 40
0.0
 40
1.0
 40
1.0
 40
1.0
 10
0.5608570000000555
 20
23.44115373344609
 30
0.0
 10
-0.3298069999999598
 20
23.44115373344609
 30
0.0
 10
-1.220470999999975
 20
23.44115373344609
 30
0.0
  0
SPLINE
  5
197
330
1F
100
AcDbEntity
  8
DEFAULT
100
AcDbSpline
210
0.0
220
0.0
230
1.0
 70
    24
 71
     2
 72
     6
 73
     3
 74
     0
 42
0.0000000001
 43
0.0000000001
 40
-1.0
 40
-1.0
 40
-1.0
 40
0.0
 40
0.0
 40
0.0
 10
17.40338600000007
 20
8.798755999999997
 30
0.0
 10
17.5376854365532
 20
9.013680539646266
 30
0.0
 10
17.67198487310634
 20
9.228605079292535
 30
0.0
  0
ARC
  5
198
330
1F
100
AcDbEntity
  8
DEFAULT
100
AcDbCircle
 10
17.39212981705708
 20
9.403478723788567
 30
0.0
 40
0.3299994605081066
100
AcDbArc
 50
327.9998826495004
 51
16.62705623837204
  0
ARC
  5
199
330
1F
100
AcDbEntity
  8
DEFAULT
100
AcDbCircle
 10
14.40258144265317
 20
8.510714507310098
 30
0.0
 40
3.450003856198021
100
AcDbArc
 50
16.62711566253543
 51
42.8173065398659
  0
ARC
  5
19A
330
1F
100
AcDbEntity
  8
DEFAULT
100
AcDbCircle
 10
16.49312981974708
 20
10.44775688232751
 30
0.0
 40
0.5999993510115813
100
AcDbArc
 50
42.81730060376242
 51
86.39895866622219
  0
ARC
  5
19B
330
1F
100
AcDbEntity
  8
DEFAULT
100
AcDbCircle
 10
9.621875000092018
 20
-98.73619634934046
 30
0.0
 40
109.9999526695194
100
AcDbArc
 50
86.39896361006541
 51
89.9998671779599
  0
ARC
  5
19C
330
1F
100
AcDbEntity
  8
DEFAULT
100
AcDbCircle
 10
9.622384000069133
 20
-98.73628128151871
 30
0.0
 40
110.0000376016953
100
AcDbArc
 50
90.00013230115653
 51
93.60103361145616
  0
ARC
  5
19D
330
1F
100
AcDbEntity
  8
DEFAULT
100
AcDbCircle
 10
2.751129772188335
 20
10.44775668863871
 30
0.0
 40
0.5999997491751065
100
AcDbArc
 50
93.60109658613247
 51
137.182724247455
  0
ARC
  5
19E
330
1F
100
AcDbEntity
  8
DEFAULT
100
AcDbCircle
 10
4.84167579566099
 20
8.510715156936342
 30
0.0
 40
3.450001954752505
100
AcDbArc
 50
137.1826814888883
 51
163.3728863033176
  0
ARC
  5
19F
330
1F
100
AcDbEntity
  8
DEFAULT
100
AcDbCircle
 10
1.85213017399883
 20
9.403478790063943
 30
0.0
 40
0.3300003636263555
100
AcDbArc
 50
163.3730040238584
 51
212.0000359252195
  0
SPLINE
  5
1A0
330
1F
100
AcDbEntity
  8
DEFAULT
100
AcDbSpline
210
0.0
220
0.0
230
1.0
 70
    24
 71
     2
 72
     6
 73
     3
 74
     0
 42
0.0000000001
 43
0.0000000001
 40
0.0
 40
0.0
 40
0.0
 40
1.0
 40
1.0
 40
1.0
 10
1.572274103542668
 20
9.228605064700844
 30
0.0
 10
1.706573551771356
 20
9.01368053235042
 30
0.0
 10
1.840873000000045
 20
8.798755999999997
 30
0.0
  0
ARC
  5
1A1
330
1F
100
AcDbEntity
  8
DEFAULT
100
AcDbCircle
 10
12.94406200000003
 20
39.5900027334461
 30
0.0
 40
0.5364170421116077
100
AcDbArc
 50
27.70658455023263
 51
116.21892342107
  0
ARC
  5
1A2
330
1F
100
AcDbEntity
  8
DEFAULT
100
AcDbCircle
 10
1.220472000000029
 20
36.13759173344609
 30
0.0
 40
0.0590554617686651
100
AcDbArc
 50
319.6785243044491
 51
0.0
  0
ARC
  5
1A3
330
1F
100
AcDbEntity
  8
DEFAULT
100
AcDbCircle
 10
12.94406200000003
 20
39.5900027334461
 30
0.0
 40
0.5364171456702272
100
AcDbArc
 50
126.2593273272782
 51
190.068567333684
  0
SPLINE
  5
1A4
330
1F
100
AcDbEntity
  8
DEFAULT
100
AcDbSpline
210
0.0
220
0.0
230
1.0
 70
    24
 71
     2
 72
     6
 73
     3
 74
     0
 42
0.0000000001
 43
0.0000000001
 40
0.0
 40
0.0
 40
0.0
 40
1.0
 40
1.0
 40
1.0
 10
12.30615399999999
 20
19.53598773344611
 30
0.0
 10
11.55227450000001
 20
19.53598773344611
 30
0.0
 10
10.79839500000003
 20
19.53598773344611
 30
0.0
  0
ENDSEC
  0
SECTION
  2
OBJECTS
  0
DICTIONARY
  5
C
330
0
100
AcDbDictionary
281
     1
  3
ACAD_GROUP
350
D
  3
ACAD_LAYOUT
350
1A
  3
ACAD_MLEADERSTYLE
350
1A6
  3
ACAD_MLINESTYLE
350
17
  3
ACAD_PLOTSETTINGS
350
19
  3
ACAD_PLOTSTYLENAME
350
E
  3
ACAD_SCALELIST
350
3B
  3
ACAD_TABLESTYLE
350
1A5
  3
ACAD_VISUALSTYLE
350
2A
  0
DICTIONARY
  5
D
102
{ACAD_REACTORS
330
C
102
}
330
C
100
AcDbDictionary
281
     1
  0
DICTIONARY
  5
1A
102
{ACAD_REACTORS
330
C
102
}
330
C
100
AcDbDictionary
281
     1
  3
Layout1
350
1E
  3
Layout2
350
26
  3
Model
350
22
  0
DICTIONARY
  5
1A6
102
{ACAD_REACTORS
330
C
102
}
330
C
100
AcDbDictionary
281
     1
  0
DICTIONARY
  5
17
102
{ACAD_REACTORS
330
C
102
}
330
C
100
AcDbDictionary
281
     1
  3
Standard
350
18
  0
DICTIONARY
  5
19
102
{ACAD_REACTORS
330
C
102
}
330
C
100
AcDbDictionary
281
     1
  0
ACDBDICTIONARYWDFLT
  5
E
102
{ACAD_REACTORS
330
C
102
}
330
C
100
AcDbDictionary
281
     1
  3
Normal
350
F
100
AcDbDictionaryWithDefault
340
F
  0
DICTIONARY
  5
3B
102
{ACAD_REACTORS
330
C
102
}
330
C
100
AcDbDictionary
281
     1
  3
A0
350
3C
  3
A1
350
3D
  3
A2
350
3E
  3
A3
350
3F
  3
A4
350
40
  3
A5
350
41
  3
A6
350
42
  3
A7
350
43
  3
A8
350
44
  3
A9
350
45
  3
B0
350
46
  3
B1
350
47
  3
B2
350
48
  3
B3
350
49
  3
B4
350
4A
  3
B5
350
4B
  3
B6
350
4C
  3
B7
350
4D
  3
B8
350
4E
  3
B9
350
4F
  3
C0
350
50
  3
C1
350
51
  3
C2
350
52
  3
C3
350
53
  3
C4
350
54
  3
C5
350
55
  3
C6
350
56
  3
C7
350
57
  3
C8
350
58
  3
C9
350
59
  3
D0
350
5A
  3
D1
350
5B
  3
D2
350
5C
  0
DICTIONARY
  5
1A5
102
{ACAD_REACTORS
330
C
102
}
330
C
100
AcDbDictionary
281
     1
  0
DICTIONARY
  5
2A
102
{ACAD_REACTORS
330
C
102
}
330
C
100
AcDbDictionary
281
     1
  3
2dWireframe
350
2F
  3
3D Hidden
350
31
  3
3dWireframe
350
30
  3
Basic
350
32
  3
Brighten
350
36
  3
ColorChange
350
3A
  3
Conceptual
350
34
  3
Dim
350
35
  3
Facepattern
350
39
  3
Flat
350
2B
  3
FlatWithEdges
350
2C
  3
Gouraud
350
2D
  3
GouraudWithEdges
350
2E
  3
Linepattern
350
38
  3
Realistic
350
33
  3
Thicken
350
37
  0
LAYOUT
  5
1E
102
{ACAD_REACTORS
330
1A
102
}
330
1A
100
AcDbPlotSettings
  1

  2
none_device
  4

  6

 40
0.0
 41
0.0
 42
0.0
 43
0.0
 44
0.0
 45
0.0
 46
0.0
 47
0.0
 48
0.0
 49
0.0
140
0.0
141
0.0
142
1.0
143
1.0
 70
   688
 72
     0
 73
     0
 74
     5
  7

 75
    16
 76
     0
 77
     2
 78
   300
147
1.0
148
0.0
149
0.0
100
AcDbLayout
  1
Layout1
 70
     1
 71
     1
 10
0.0
 20
0.0
 11
12.0
 21
9.0
 12
0.0
 22
0.0
 32
0.0
 14
1.000000000000000E+20
 24
1.000000000000000E+20
 34
1.000000000000000E+20
 15
-1.000000000000000E+20
 25
-1.000000000000000E+20
 35
-1.000000000000000E+20
146
0.0
 13
0.0
 23
0.0
 33
0.0
 16
1.0
 26
0.0
 36
0.0
 17
0.0
 27
1.0
 37
0.0
 76
     0
330
1B
  0
LAYOUT
  5
26
102
{ACAD_REACTORS
330
1A
102
}
330
1A
100
AcDbPlotSettings
  1

  2
none_device
  4

  6

 40
0.0
 41
0.0
 42
0.0
 43
0.0
 44
0.0
 45
0.0
 46
0.0
 47
0.0
 48
0.0
 49
0.0
140
0.0
141
0.0
142
1.0
143
1.0
 70
   688
 72
     0
 73
     0
 74
     5
  7

 75
    16
 76
     0
 77
     2
 78
   300
147
1.0
148
0.0
149
0.0
100
AcDbLayout
  1
Layout2
 70
     1
 71
     2
 10
0.0
 20
0.0
 11
0.0
 21
0.0
 12
0.0
 22
0.0
 32
0.0
 14
0.0
 24
0.0
 34
0.0
 15
0.0
 25
0.0
 35
0.0
146
0.0
 13
0.0
 23
0.0
 33
0.0
 16
1.0
 26
0.0
 36
0.0
 17
0.0
 27
1.0
 37
0.0
 76
     0
330
23
  0
LAYOUT
  5
22
102
{ACAD_REACTORS
330
1A
102
}
330
1A
100
AcDbPlotSettings
  1

  2
none_device
  4

  6

 40
0.0
 41
0.0
 42
0.0
 43
0.0
 44
0.0
 45
0.0
 46
0.0
 47
0.0
 48
0.0
 49
0.0
140
0.0
141
0.0
142
1.0
143
1.0
 70
  1712
 72
     0
 73
     0
 74
     0
  7

 75
     0
 76
     0
 77
     2
 78
   300
147
1.0
148
0.0
149
0.0
100
AcDbLayout
  1
Model
 70
     1
 71
     0
 10
0.0
 20
0.0
 11
12.0
 21
9.0
 12
0.0
 22
0.0
 32
0.0
 14
-1.279528004241763
 24
-1.279528000000001
 34
0.0
 15
20.90854714567449
 25
40.57348273344608
 35
0.0
146
0.0
 13
0.0
 23
0.0
 33
0.0
 16
1.0
 26
0.0
 36
0.0
 17
0.0
 27
1.0
 37
0.0
 76
     0
330
1F
331
29
  0
MLINESTYLE
  5
18
102
{ACAD_REACTORS
330
17
102
}
330
17
100
AcDbMlineStyle
  2
Standard
 70
     0
  3

 62
   256
 51
90.0
 52
90.0
 71
     2
 49
0.5
 62
   256
  6
BYLAYER
 49
-0.5
 62
   256
  6
BYLAYER
  0
ACDBPLACEHOLDER
  5
F
102
{ACAD_REACTORS
330
E
102
}
330
E
  0
SCALE
  5
3C
102
{ACAD_REACTORS
330
3B
102
}
330
3B
100
AcDbScale
 70
     0
300
1:1
140
1.0
141
1.0
290
     1
  0
SCALE
  5
3D
102
{ACAD_REACTORS
330
3B
102
}
330
3B
100
AcDbScale
 70
     0
300
1:2
140
1.0
141
2.0
290
     0
  0
SCALE
  5
3E
102
{ACAD_REACTORS
330
3B
102
}
330
3B
100
AcDbScale
 70
     0
300
1:4
140
1.0
141
4.0
290
     0
  0
SCALE
  5
3F
102
{ACAD_REACTORS
330
3B
102
}
330
3B
100
AcDbScale
 70
     0
300
1:5
140
1.0
141
5.0
290
     0
  0
SCALE
  5
40
102
{ACAD_REACTORS
330
3B
102
}
330
3B
100
AcDbScale
 70
     0
300
1:8
140
1.0
141
8.0
290
     0
  0
SCALE
  5
41
102
{ACAD_REACTORS
330
3B
102
}
330
3B
100
AcDbScale
 70
     0
300
1:10
140
1.0
141
10.0
290
     0
  0
SCALE
  5
42
102
{ACAD_REACTORS
330
3B
102
}
330
3B
100
AcDbScale
 70
     0
300
1:16
140
1.0
141
16.0
290
     0
  0
SCALE
  5
43
102
{ACAD_REACTORS
330
3B
102
}
330
3B
100
AcDbScale
 70
     0
300
1:20
140
1.0
141
20.0
290
     0
  0
SCALE
  5
44
102
{ACAD_REACTORS
330
3B
102
}
330
3B
100
AcDbScale
 70
     0
300
1:30
140
1.0
141
30.0
290
     0
  0
SCALE
  5
45
102
{ACAD_REACTORS
330
3B
102
}
330
3B
100
AcDbScale
 70
     0
300
1:40
140
1.0
141
40.0
290
     0
  0
SCALE
  5
46
102
{ACAD_REACTORS
330
3B
102
}
330
3B
100
AcDbScale
 70
     0
300
1:50
140
1.0
141
50.0
290
     0
  0
SCALE
  5
47
102
{ACAD_REACTORS
330
3B
102
}
330
3B
100
AcDbScale
 70
     0
300
1:100
140
1.0
141
100.0
290
     0
  0
SCALE
  5
48
102
{ACAD_REACTORS
330
3B
102
}
330
3B
100
AcDbScale
 70
     0
300
2:1
140
2.0
141
1.0
290
     0
  0
SCALE
  5
49
102
{ACAD_REACTORS
330
3B
102
}
330
3B
100
AcDbScale
 70
     0
300
4:1
140
4.0
141
1.0
290
     0
  0
SCALE
  5
4A
102
{ACAD_REACTORS
330
3B
102
}
330
3B
100
AcDbScale
 70
     0
300
8:1
140
8.0
141
1.0
290
     0
  0
SCALE
  5
4B
102
{ACAD_REACTORS
330
3B
102
}
330
3B
100
AcDbScale
 70
     0
300
10:1
140
10.0
141
1.0
290
     0
  0
SCALE
  5
4C
102
{ACAD_REACTORS
330
3B
102
}
330
3B
100
AcDbScale
 70
     0
300
100:1
140
100.0
141
1.0
290
     0
  0
SCALE
  5
4D
102
{ACAD_REACTORS
330
3B
102
}
330
3B
100
AcDbScale
 70
     0
300
1/128" = 1'-0"
140
0.0078125
141
12.0
290
     0
  0
SCALE
  5
4E
102
{ACAD_REACTORS
330
3B
102
}
330
3B
100
AcDbScale
 70
     0
300
1/64" = 1'-0"
140
0.015625
141
12.0
290
     0
  0
SCALE
  5
4F
102
{ACAD_REACTORS
330
3B
102
}
330
3B
100
AcDbScale
 70
     0
300
1/32" = 1'-0"
140
0.03125
141
12.0
290
     0
  0
SCALE
  5
50
102
{ACAD_REACTORS
330
3B
102
}
330
3B
100
AcDbScale
 70
     0
300
1/16" = 1'-0"
140
0.0625
141
12.0
290
     0
  0
SCALE
  5
51
102
{ACAD_REACTORS
330
3B
102
}
330
3B
100
AcDbScale
 70
     0
300
3/32" = 1'-0"
140
0.09375
141
12.0
290
     0
  0
SCALE
  5
52
102
{ACAD_REACTORS
330
3B
102
}
330
3B
100
AcDbScale
 70
     0
300
1/8" = 1'-0"
140
0.125
141
12.0
290
     0
  0
SCALE
  5
53
102
{ACAD_REACTORS
330
3B
102
}
330
3B
100
AcDbScale
 70
     0
300
3/16" = 1'-0"
140
0.1875
141
12.0
290
     0
  0
SCALE
  5
54
102
{ACAD_REACTORS
330
3B
102
}
330
3B
100
AcDbScale
 70
     0
300
1/4" = 1'-0"
140
0.25
141
12.0
290
     0
  0
SCALE
  5
55
102
{ACAD_REACTORS
330
3B
102
}
330
3B
100
AcDbScale
 70
     0
300
3/8" = 1'-0"
140
0.375
141
12.0
290
     0
  0
SCALE
  5
56
102
{ACAD_REACTORS
330
3B
102
}
330
3B
100
AcDbScale
 70
     0
300
1/2" = 1'-0"
140
0.5
141
12.0
290
     0
  0
SCALE
  5
57
102
{ACAD_REACTORS
330
3B
102
}
330
3B
100
AcDbScale
 70
     0
300
3/4" = 1'-0"
140
0.75
141
12.0
290
     0
  0
SCALE
  5
58
102
{ACAD_REACTORS
330
3B
102
}
330
3B
100
AcDbScale
 70
     0
300
1" = 1'-0"
140
1.0
141
12.0
290
     0
  0
SCALE
  5
59
102
{ACAD_REACTORS
330
3B
102
}
330
3B
100
AcDbScale
 70
     0
300
1-1/2" = 1'-0"
140
1.5
141
12.0
290
     0
  0
SCALE
  5
5A
102
{ACAD_REACTORS
330
3B
102
}
330
3B
100
AcDbScale
 70
     0
300
3" = 1'-0"
140
3.0
141
12.0
290
     0
  0
SCALE
  5
5B
102
{ACAD_REACTORS
330
3B
102
}
330
3B
100
AcDbScale
 70
     0
300
6" = 1'-0"
140
6.0
141
12.0
290
     0
  0
SCALE
  5
5C
102
{ACAD_REACTORS
330
3B
102
}
330
3B
100
AcDbScale
 70
     0
300
1'-0" = 1'-0"
140
12.0
141
12.0
290
     0
  0
VISUALSTYLE
  5
2F
102
{ACAD_REACTORS
330
2A
102
}
330
2A
100
AcDbVisualStyle
  2
2dWireframe
 70
     4
 71
     0
 72
     2
 73
     0
 90
        0
 40
-0.6
 41
-30.0
 62
     5
 63
     7
421
 16777215
 74
     1
 91
        4
 64
     7
 65
   257
 75
     1
175
     1
 42
1.0
 92
        0
 66
   257
 43
1.0
 76
     1
 77
     6
 78
     2
 67
     7
 79
     5
170
     0
171
     0
290
     0
174
     0
 93
        1
 44
0.0
173
     0
291
     0
 45
0.0
1001
ACAD
1000
AcDbSavedByObjectVersion
1070
     0
  0
VISUALSTYLE
  5
31
102
{ACAD_REACTORS
330
2A
102
}
330
2A
100
AcDbVisualStyle
  2
3D Hidden
 70
     6
 71
     1
 72
     2
 73
     2
 90
        0
 40
-0.6
 41
-30.0
 62
     5
 63
     7
421
 16777215
 74
     2
 91
        2
 64
     7
 65
   257
 75
     2
175
     1
 42
40.0
 92
        0
 66
   257
 43
1.0
 76
     1
 77
     6
 78
     2
 67
     7
 79
     3
170
     0
171
     0
290
     0
174
     0
 93
        1
 44
0.0
173
     0
291
     0
 45
0.0
1001
ACAD
1000
AcDbSavedByObjectVersion
1070
     0
  0
VISUALSTYLE
  5
30
102
{ACAD_REACTORS
330
2A
102
}
330
2A
100
AcDbVisualStyle
  2
3dWireframe
 70
     5
 71
     0
 72
     2
 73
     0
 90
        0
 40
-0.6
 41
-30.0
 62
     5
 63
     7
421
 16777215
 74
     1
 91
        4
 64
     7
 65
   257
 75
     1
175
     1
 42
1.0
 92
        0
 66
   257
 43
1.0
 76
     1
 77
     6
 78
     2
 67
     7
 79
     5
170
     0
171
     0
290
     0
174
     0
 93
        1
 44
0.0
173
     0
291
     0
 45
0.0
1001
ACAD
1000
AcDbSavedByObjectVersion
1070
     0
  0
VISUALSTYLE
  5
32
102
{ACAD_REACTORS
330
2A
102
}
330
2A
100
AcDbVisualStyle
  2
Basic
 70
     7
 71
     1
 72
     0
 73
     1
 90
        0
 40
-0.6
 41
-30.0
 62
     5
 63
     7
421
 16777215
 74
     0
 91
        4
 64
     7
 65
   257
 75
     1
175
     1
 42
1.0
 92
        8
 66
     7
 43
1.0
 76
     1
 77
     6
 78
     2
 67
     7
 79
     5
170
     0
171
     0
290
     0
174
     0
 93
        1
 44
0.0
173
     0
291
     1
 45
0.0
1001
ACAD
1000
AcDbSavedByObjectVersion
1070
     0
  0
VISUALSTYLE
  5
36
102
{ACAD_REACTORS
330
2A
102
}
330
2A
100
AcDbVisualStyle
  2
Brighten
 70
    12
 71
     2
 72
     2
 73
     0
 90
        0
 40
-0.6
 41
-30.0
 62
     5
 63
     7
421
 16777215
 74
     1
 91
        4
 64
     7
 65
   257
 75
     1
175
     1
 42
1.0
 92
        8
 66
     7
 43
1.0
 76
     1
 77
     6
 78
     2
 67
     7
 79
     5
170
     0
171
     0
290
     0
174
     0
 93
        1
 44
50.0
173
     0
291
     1
 45
0.0
1001
ACAD
1000
AcDbSavedByObjectVersion
1070
     0
  0
VISUALSTYLE
  5
3A
102
{ACAD_REACTORS
330
2A
102
}
330
2A
100
AcDbVisualStyle
  2
ColorChange
 70
    16
 71
     2
 72
     2
 73
     3
 90
        0
 40
-0.6
 41
-30.0
 62
     5
 63
     8
421
  8421504
 74
     1
 91
        4
 64
     7
 65
   257
 75
     1
175
     1
 42
1.0
 92
        8
 66
     8
424
  8421504
 43
1.0
 76
     1
 77
     6
 78
     2
 67
     7
 79
     5
170
     0
171
     0
290
     0
174
     0
 93
        1
 44
0.0
173
     0
291
     1
 45
0.0
1001
ACAD
1000
AcDbSavedByObjectVersion
1070
     0
  0
VISUALSTYLE
  5
34
102
{ACAD_REACTORS
330
2A
102
}
330
2A
100
AcDbVisualStyle
  2
Conceptual
 70
     9
 71
     3
 72
     2
 73
     0
 90
        0
 40
-0.6
 41
-30.0
 62
     5
 63
     7
421
 16777215
 74
     2
 91
        2
 64
     7
 65
   257
 75
     1
175
     1
 42
40.0
 92
        8
 66
     7
 43
1.0
 76
     1
 77
     6
 78
     2
 67
     7
 79
     3
170
     0
171
     0
290
     0
174
     0
 93
        1
 44
0.0
173
     0
291
     0
 45
0.0
1001
ACAD
1000
AcDbSavedByObjectVersion
1070
     0
  0
VISUALSTYLE
  5
35
102
{ACAD_REACTORS
330
2A
102
}
330
2A
100
AcDbVisualStyle
  2
Dim
 70
    11
 71
     2
 72
     2
 73
     0
 90
        0
 40
-0.6
 41
-30.0
 62
     5
 63
     7
421
 16777215
 74
     1
 91
        4
 64
     7
 65
   257
 75
     1
175
     1
 42
1.0
 92
        8
 66
     7
 43
1.0
 76
     1
 77
     6
 78
     2
 67
     7
 79
     5
170
     0
171
     0
290
     0
174
     0
 93
        1
 44
-50.0
173
     0
291
     1
 45
0.0
1001
ACAD
1000
AcDbSavedByObjectVersion
1070
     0
  0
VISUALSTYLE
  5
39
102
{ACAD_REACTORS
330
2A
102
}
330
2A
100
AcDbVisualStyle
  2
Facepattern
 70
    15
 71
     2
 72
     2
 73
     0
 90
        0
 40
-0.6
 41
-30.0
 62
     5
 63
     7
421
 16777215
 74
     1
 91
        4
 64
     7
 65
   257
 75
     1
175
     1
 42
1.0
 92
        8
 66
     7
 43
1.0
 76
     1
 77
     6
 78
     2
 67
     7
 79
     5
170
     0
171
     0
290
     0
174
     0
 93
        1
 44
0.0
173
     0
291
     1
 45
0.0
1001
ACAD
1000
AcDbSavedByObjectVersion
1070
     0
  0
VISUALSTYLE
  5
2B
102
{ACAD_REACTORS
330
2A
102
}
330
2A
100
AcDbVisualStyle
  2
Flat
 70
     0
 71
     2
 72
     1
 73
     1
 90
        2
 40
-0.6
 41
30.0
 62
     5
 63
     7
421
 16777215
 74
     0
 91
        4
 64
     7
 65
   257
 75
     1
175
     1
 42
1.0
 92
        8
 66
     7
 43
1.0
 76
     1
 77
     6
 78
     2
 67
     7
 79
     5
170
     0
171
     0
290
     0
174
     0
 93
       13
 44
0.0
173
     0
291
     1
 45
0.0
1001
ACAD
1000
AcDbSavedByObjectVersion
1070
     0
  0
VISUALSTYLE
  5
2C
102
{ACAD_REACTORS
330
2A
102
}
330
2A
100
AcDbVisualStyle
  2
FlatWithEdges
 70
     1
 71
     2
 72
     1
 73
     1
 90
        2
 40
-0.6
 41
30.0
 62
     5
 63
     7
421
 16777215
 74
     1
 91
        4
 64
     7
 65
   257
 75
     1
175
     1
 42
1.0
 92
        0
 66
   257
 43
1.0
 76
     1
 77
     6
 78
     2
 67
     7
 79
     5
170
     0
171
     0
290
     0
174
     0
 93
       13
 44
0.0
173
     0
291
     1
 45
0.0
1001
ACAD
1000
AcDbSavedByObjectVersion
1070
     0
  0
VISUALSTYLE
  5
2D
102
{ACAD_REACTORS
330
2A
102
}
330
2A
100
AcDbVisualStyle
  2
Gouraud
 70
     2
 71
     2
 72
     2
 73
     1
 90
        2
 40
-0.6
 41
30.0
 62
     5
 63
     7
421
 16777215
 74
     0
 91
        4
 64
     7
 65
   257
 75
     1
175
     1
 42
1.0
 92
        0
 66
     7
 43
1.0
 76
     1
 77
     6
 78
     2
 67
     7
 79
     5
170
     0
171
     0
290
     0
174
     0
 93
       13
 44
0.0
173
     0
291
     1
 45
0.0
1001
ACAD
1000
AcDbSavedByObjectVersion
1070
     0
  0
VISUALSTYLE
  5
2E
102
{ACAD_REACTORS
330
2A
102
}
330
2A
100
AcDbVisualStyle
  2
GouraudWithEdges
 70
     3
 71
     2
 72
     2
 73
     1
 90
        2
 40
-0.6
 41
30.0
 62
     5
 63
     7
421
 16777215
 74
     1
 91
        4
 64
     7
 65
   257
 75
     1
175
     1
 42
1.0
 92
        0
 66
   257
 43
1.0
 76
     1
 77
     6
 78
     2
 67
     7
 79
     5
170
     0
171
     0
290
     0
174
     0
 93
       13
 44
0.0
173
     0
291
     1
 45
0.0
1001
ACAD
1000
AcDbSavedByObjectVersion
1070
     0
  0
VISUALSTYLE
  5
38
102
{ACAD_REACTORS
330
2A
102
}
330
2A
100
AcDbVisualStyle
  2
Linepattern
 70
    14
 71
     2
 72
     2
 73
     0
 90
        0
 40
-0.6
 41
-30.0
 62
     5
 63
     7
421
 16777215
 74
     1
 91
        4
 64
     7
 65
   257
 75
     7
175
     7
 42
1.0
 92
        8
 66
     7
 43
1.0
 76
     1
 77
     6
 78
     2
 67
     7
 79
     5
170
     0
171
     0
290
     0
174
     0
 93
        1
 44
0.0
173
     0
291
     1
 45
0.0
1001
ACAD
1000
AcDbSavedByObjectVersion
1070
     0
  0
VISUALSTYLE
  5
33
102
{ACAD_REACTORS
330
2A
102
}
330
2A
100
AcDbVisualStyle
  2
Realistic
 70
     8
 71
     2
 72
     2
 73
     0
 90
        0
 40
-0.6
 41
-30.0
 62
     5
 63
     7
421
 16777215
 74
     1
 91
        0
 64
     7
 65
   257
 75
     1
175
     1
 42
1.0
 92
        8
 66
     8
424
  7895160
 43
1.0
 76
     1
 77
     6
 78
     2
 67
     7
 79
     5
170
     0
171
     0
290
     0
174
     0
 93
       13
 44
0.0
173
     0
291
     0
 45
0.0
1001
ACAD
1000
AcDbSavedByObjectVersion
1070
     0
  0
VISUALSTYLE
  5
37
102
{ACAD_REACTORS
330
2A
102
}
330
2A
100
AcDbVisualStyle
  2
Thicken
 70
    13
 71
     2
 72
     2
 73
     0
 90
        0
 40
-0.6
 41
-30.0
 62
     5
 63
     7
421
 16777215
 74
     1
 91
        4
 64
     7
 65
   257
 75
     1
175
     1
 42
1.0
 92
       12
 66
     7
 43
1.0
 76
     1
 77
     6
 78
     2
 67
     7
 79
     5
170
     0
171
     0
290
     0
174
     0
 93
        1
 44
0.0
173
     0
291
     1
 45
0.0
1001
ACAD
1000
AcDbSavedByObjectVersion
1070
     0
  0
ENDSEC
  0
EOF
