  0
SECTION
  2
HEADER
  9
$ACADVER
  1
AC1018
  9
$ACADMAINTVER
 70
     0
  9
$DWGCODEPAGE
  3
ANSI_1252
  9
$INSBASE
 10
0.0
 20
0.0
 30
0.0
  9
$EXTMIN
 10
-1.279528000000001
 20
-1.279528000000001
 30
0.0
  9
$EXTMAX
 10
25.43109114567447
 20
57.1680874924714
 30
0.0
  9
$LIMMIN
 10
0.0
 20
0.0
  9
$LIMMAX
 10
12.0
 20
9.0
  9
$ORTHOMODE
 70
     0
  9
$REGENMODE
 70
     1
  9
$FILLMODE
 70
     1
  9
$QTEXTMODE
 70
     0
  9
$MIRRTEXT
 70
     1
  9
$LTSCALE
 40
1.0
  9
$ATTMODE
 70
     1
  9
$TEXTSIZE
 40
0.2
  9
$TRACEWID
 40
0.05
  9
$TEXTSTYLE
  7
Standard
  9
$CLAYER
  8
DEFAULT
  9
$CELTYPE
  6
ByLayer
  9
$CECOLOR
 62
   256
  9
$CELTSCALE
 40
1.0
  9
$DISPSILH
 70
     0
  9
$DIMSCALE
 40
1.0
  9
$DIMASZ
 40
0.18
  9
$DIMEXO
 40
0.0625
  9
$DIMDLI
 40
0.38
  9
$DIMRND
 40
0.0
  9
$DIMDLE
 40
0.0
  9
$DIMEXE
 40
0.18
  9
$DIMTP
 40
0.0
  9
$DIMTM
 40
0.0
  9
$DIMTXT
 40
0.18
  9
$DIMCEN
 40
0.09
  9
$DIMTSZ
 40
0.0
  9
$DIMTOL
 70
     0
  9
$DIMLIM
 70
     0
  9
$DIMTIH
 70
     1
  9
$DIMTOH
 70
     1
  9
$DIMSE1
 70
     0
  9
$DIMSE2
 70
     0
  9
$DIMTAD
 70
     0
  9
$DIMZIN
 70
     0
  9
$DIMBLK
  1

  9
$DIMASO
 70
     1
  9
$DIMSHO
 70
     1
  9
$DIMPOST
  1

  9
$DIMAPOST
  1

  9
$DIMALT
 70
     0
  9
$DIMALTD
 70
     2
  9
$DIMALTF
 40
25.4
  9
$DIMLFAC
 40
1.0
  9
$DIMTOFL
 70
     0
  9
$DIMTVP
 40
0.0
  9
$DIMTIX
 70
     0
  9
$DIMSOXD
 70
     0
  9
$DIMSAH
 70
     0
  9
$DIMBLK1
  1

  9
$DIMBLK2
  1

  9
$DIMSTYLE
  2
Standard
  9
$DIMCLRD
 70
     0
  9
$DIMCLRE
 70
     0
  9
$DIMCLRT
 70
     0
  9
$DIMTFAC
 40
1.0
  9
$DIMGAP
 40
0.09
  9
$DIMJUST
 70
     0
  9
$DIMSD1
 70
     0
  9
$DIMSD2
 70
     0
  9
$DIMTOLJ
 70
     1
  9
$DIMTZIN
 70
     0
  9
$DIMALTZ
 70
     0
  9
$DIMALTTZ
 70
     0
  9
$DIMUPT
 70
     0
  9
$DIMDEC
 70
     4
  9
$DIMTDEC
 70
     4
  9
$DIMALTU
 70
     2
  9
$DIMALTTD
 70
     2
  9
$DIMTXSTY
  7
Standard
  9
$DIMAUNIT
 70
     0
  9
$DIMADEC
 70
     0
  9
$DIMALTRND
 40
0.0
  9
$DIMAZIN
 70
     0
  9
$DIMDSEP
 70
    46
  9
$DIMATFIT
 70
     3
  9
$DIMFRAC
 70
     0
  9
$DIMLDRBLK
  1

  9
$DIMLUNIT
 70
     2
  9
$DIMLWD
 70
    -2
  9
$DIMLWE
 70
    -2
  9
$DIMTMOVE
 70
     0
  9
$LUNITS
 70
     2
  9
$LUPREC
 70
     3
  9
$SKETCHINC
 40
0.1
  9
$FILLETRAD
 40
0.5
  9
$AUNITS
 70
     0
  9
$AUPREC
 70
     0
  9
$MENU
  1
.
  9
$ELEVATION
 40
0.0
  9
$PELEVATION
 40
0.0
  9
$THICKNESS
 40
0.0
  9
$LIMCHECK
 70
     0
  9
$CHAMFERA
 40
0.5
  9
$CHAMFERB
 40
0.5
  9
$CHAMFERC
 40
1.0
  9
$CHAMFERD
 40
0.0
  9
$SKPOLY
 70
     0
  9
$TDCREATE
 40
2454651.639972894
  9
$TDUCREATE
 40
2454651.80663956
  9
$TDUPDATE
 40
2454651.639972905
  9
$TDUUPDATE
 40
2454651.806639572
  9
$TDINDWG
 40
0.0000000116
  9
$TDUSRTIMER
 40
0.0000000116
  9
$USRTIMER
 70
     1
  9
$ANGBASE
 50
0.0
  9
$ANGDIR
 70
     0
  9
$PDMODE
 70
     0
  9
$PDSIZE
 40
0.0
  9
$PLINEWID
 40
0.0
  9
$SPLFRAME
 70
     0
  9
$SPLINETYPE
 70
     6
  9
$SPLINESEGS
 70
     8
  9
$HANDSEED
  5
202
  9
$SURFTAB1
 70
     6
  9
$SURFTAB2
 70
     6
  9
$SURFTYPE
 70
     6
  9
$SURFU
 70
     6
  9
$SURFV
 70
     6
  9
$UCSBASE
  2

  9
$UCSNAME
  2

  9
$UCSORG
 10
0.0
 20
0.0
 30
0.0
  9
$UCSXDIR
 10
1.0
 20
0.0
 30
0.0
  9
$UCSYDIR
 10
0.0
 20
1.0
 30
0.0
  9
$UCSORTHOREF
  2

  9
$UCSORTHOVIEW
 70
     0
  9
$UCSORGTOP
 10
0.0
 20
0.0
 30
0.0
  9
$UCSORGBOTTOM
 10
0.0
 20
0.0
 30
0.0
  9
$UCSORGLEFT
 10
0.0
 20
0.0
 30
0.0
  9
$UCSORGRIGHT
 10
0.0
 20
0.0
 30
0.0
  9
$UCSORGFRONT
 10
0.0
 20
0.0
 30
0.0
  9
$UCSORGBACK
 10
0.0
 20
0.0
 30
0.0
  9
$PUCSBASE
  2

  9
$PUCSNAME
  2

  9
$PUCSORG
 10
0.0
 20
0.0
 30
0.0
  9
$PUCSXDIR
 10
1.0
 20
0.0
 30
0.0
  9
$PUCSYDIR
 10
0.0
 20
1.0
 30
0.0
  9
$PUCSORTHOREF
  2

  9
$PUCSORTHOVIEW
 70
     0
  9
$PUCSORGTOP
 10
0.0
 20
0.0
 30
0.0
  9
$PUCSORGBOTTOM
 10
0.0
 20
0.0
 30
0.0
  9
$PUCSORGLEFT
 10
0.0
 20
0.0
 30
0.0
  9
$PUCSORGRIGHT
 10
0.0
 20
0.0
 30
0.0
  9
$PUCSORGFRONT
 10
0.0
 20
0.0
 30
0.0
  9
$PUCSORGBACK
 10
0.0
 20
0.0
 30
0.0
  9
$USERI1
 70
     0
  9
$USERI2
 70
     0
  9
$USERI3
 70
     0
  9
$USERI4
 70
     0
  9
$USERI5
 70
     0
  9
$USERR1
 40
0.0
  9
$USERR2
 40
0.0
  9
$USERR3
 40
0.0
  9
$USERR4
 40
0.0
  9
$USERR5
 40
0.0
  9
$WORLDVIEW
 70
     1
  9
$SHADEDGE
 70
     3
  9
$SHADEDIF
 70
    70
  9
$TILEMODE
 70
     1
  9
$MAXACTVP
 70
    64
  9
$PINSBASE
 10
0.0
 20
0.0
 30
0.0
  9
$PLIMCHECK
 70
     0
  9
$PEXTMIN
 10
1.000000000000000E+20
 20
1.000000000000000E+20
 30
1.000000000000000E+20
  9
$PEXTMAX
 10
-1.000000000000000E+20
 20
-1.000000000000000E+20
 30
-1.000000000000000E+20
  9
$PLIMMIN
 10
0.0
 20
0.0
  9
$PLIMMAX
 10
12.0
 20
9.0
  9
$UNITMODE
 70
     0
  9
$VISRETAIN
 70
     1
  9
$PLINEGEN
 70
     0
  9
$PSLTSCALE
 70
     1
  9
$TREEDEPTH
 70
  3020
  9
$CMLSTYLE
  2
Standard
  9
$CMLJUST
 70
     0
  9
$CMLSCALE
 40
1.0
  9
$PROXYGRAPHICS
 70
     1
  9
$MEASUREMENT
 70
     0
  9
$CELWEIGHT
370
    -1
  9
$ENDCAPS
280
     0
  9
$JOINSTYLE
280
     0
  9
$LWDISPLAY
290
     0
  9
$INSUNITS
 70
     1
  9
$HYPERLINKBASE
  1

  9
$STYLESHEET
  1

  9
$XEDIT
290
     1
  9
$CEPSNTYPE
380
     0
  9
$PSTYLEMODE
290
     1
  9
$FINGERPRINTGUID
  2
{08A03EB2-EA1A-4E65-AA7D-BBE49565A230}
  9
$VERSIONGUID
  2
{FAEB1C32-E019-11D5-929B-00C0DF256EC4}
  9
$EXTNAMES
290
     1
  9
$PSVPSCALE
 40
0.0
  9
$OLESTARTUP
290
     0
  9
$SORTENTS
280
   127
  9
$INDEXCTL
280
     0
  9
$HIDETEXT
280
     1
  9
$XCLIPFRAME
290
     0
  9
$HALOGAP
280
     0
  9
$OBSCOLOR
 70
   257
  9
$OBSLTYPE
280
     0
  9
$INTERSECTIONDISPLAY
280
     0
  9
$INTERSECTIONCOLOR
 70
   257
  9
$DIMASSOC
280
     2
  9
$PROJECTNAME
  1

  0
ENDSEC
  0
SECTION
  2
CLASSES
  0
CLASS
  1
ACDBDICTIONARYWDFLT
  2
AcDbDictionaryWithDefault
  3
ObjectDBX Classes
 90
        0
 91
        3
280
     0
281
     0
  0
CLASS
  1
VISUALSTYLE
  2
AcDbVisualStyle
  3
ObjectDBX Classes
 90
     4095
 91
        3
280
     0
281
     0
  0
CLASS
  1
SCALE
  2
AcDbScale
  3
ObjectDBX Classes
 90
     1153
 91
        3
280
     0
281
     0
  0
ENDSEC
  0
SECTION
  2
TABLES
  0
TABLE
  2
VPORT
  5
8
330
0
100
AcDbSymbolTable
 70
     1
  0
VPORT
  5
29
330
8
100
AcDbSymbolTableRecord
100
AcDbViewportTableRecord
  2
*Active
 70
     0
 10
0.0
 20
0.0
 11
1.0
 21
1.0
 12
0.0
 22
0.0
 13
0.0
 23
0.0
 14
0.5
 24
0.5
 15
0.5
 25
0.5
 16
0.0
 26
0.0
 36
1.0
 17
12.07578157283724
 27
27.9442797462357
 37
0.0
 40
59.61656780232083
 41
0.4570010071516955
 42
50.0
 43
0.0
 44
0.0
 50
0.0
 51
0.0
 71
     0
 72
   100
 73
     1
 74
     3
 75
     0
 76
     0
 77
     0
 78
     0
281
     0
 65
     1
110
0.0
120
0.0
130
0.0
111
1.0
121
0.0
131
0.0
112
0.0
122
1.0
132
0.0
 79
     0
146
0.0
  0
ENDTAB
  0
TABLE
  2
LTYPE
  5
5
330
0
100
AcDbSymbolTable
 70
     1
  0
LTYPE
  5
14
330
5
100
AcDbSymbolTableRecord
100
AcDbLinetypeTableRecord
  2
ByBlock
 70
     0
  3

 72
    65
 73
     0
 40
0.0
  0
LTYPE
  5
15
330
5
100
AcDbSymbolTableRecord
100
AcDbLinetypeTableRecord
  2
ByLayer
 70
     0
  3

 72
    65
 73
     0
 40
0.0
  0
LTYPE
  5
16
330
5
100
AcDbSymbolTableRecord
100
AcDbLinetypeTableRecord
  2
Continuous
 70
     0
  3
Solid line
 72
    65
 73
     0
 40
0.0
  0
ENDTAB
  0
TABLE
  2
LAYER
  5
2
330
0
100
AcDbSymbolTable
 70
     2
  0
LAYER
  5
10
330
2
100
AcDbSymbolTableRecord
100
AcDbLayerTableRecord
  2
0
 70
     0
 62
     7
  6
Continuous
370
    -3
390
F
  0
LAYER
  5
5D
330
2
100
AcDbSymbolTableRecord
100
AcDbLayerTableRecord
  2
DEFAULT
 70
     0
 62
     7
  6
Continuous
370
    -3
390
F
  0
ENDTAB
  0
TABLE
  2
STYLE
  5
3
330
0
100
AcDbSymbolTable
 70
     1
  0
STYLE
  5
11
330
3
100
AcDbSymbolTableRecord
100
AcDbTextStyleTableRecord
  2
Standard
 70
     0
 40
0.0
 41
1.0
 50
0.0
 71
     0
 42
0.2
  3
txt
  4

  0
ENDTAB
  0
TABLE
  2
VIEW
  5
6
330
0
100
AcDbSymbolTable
 70
     0
  0
ENDTAB
  0
TABLE
  2
UCS
  5
7
330
0
100
AcDbSymbolTable
 70
     0
  0
ENDTAB
  0
TABLE
  2
APPID
  5
9
330
0
100
AcDbSymbolTable
 70
     1
  0
APPID
  5
12
330
9
100
AcDbSymbolTableRecord
100
AcDbRegAppTableRecord
  2
ACAD
 70
     0
  0
ENDTAB
  0
TABLE
  2
DIMSTYLE
  5
A
330
0
100
AcDbSymbolTable
 70
     1
100
AcDbDimStyleTable
  0
DIMSTYLE
105
27
330
A
100
AcDbSymbolTableRecord
100
AcDbDimStyleTableRecord
  2
Standard
 70
     0
340
11
  0
ENDTAB
  0
TABLE
  2
BLOCK_RECORD
  5
1
330
0
100
AcDbSymbolTable
 70
     1
  0
BLOCK_RECORD
  5
1F
330
1
100
AcDbSymbolTableRecord
100
AcDbBlockTableRecord
  2
*Model_Space
340
22
  0
BLOCK_RECORD
  5
1B
330
1
100
AcDbSymbolTableRecord
100
AcDbBlockTableRecord
  2
*Paper_Space
340
1E
  0
BLOCK_RECORD
  5
23
330
1
100
AcDbSymbolTableRecord
100
AcDbBlockTableRecord
  2
*Paper_Space0
340
26
  0
ENDTAB
  0
ENDSEC
  0
SECTION
  2
BLOCKS
  0
BLOCK
  5
20
330
1F
100
AcDbEntity
  8
0
100
AcDbBlockBegin
  2
*Model_Space
 70
     0
 10
0.0
 20
0.0
 30
0.0
  3
*Model_Space
  1

  0
ENDBLK
  5
21
330
1F
100
AcDbEntity
  8
0
100
AcDbBlockEnd
  0
BLOCK
  5
1C
330
1B
100
AcDbEntity
 67
     1
  8
0
100
AcDbBlockBegin
  2
*Paper_Space
 70
     0
 10
0.0
 20
0.0
 30
0.0
  3
*Paper_Space
  1

  0
ENDBLK
  5
1D
330
1B
100
AcDbEntity
 67
     1
  8
0
100
AcDbBlockEnd
  0
BLOCK
  5
24
330
23
100
AcDbEntity
  8
0
100
AcDbBlockBegin
  2
*Paper_Space0
 70
     0
 10
0.0
 20
0.0
 30
0.0
  3
*Paper_Space0
  1

  0
ENDBLK
  5
25
330
23
100
AcDbEntity
  8
0
100
AcDbBlockEnd
  0
ENDSEC
  0
SECTION
  2
ENTITIES
  0
ARC
  5
5E
330
1F
100
AcDbEntity
  8
DEFAULT
100
AcDbCircle
 10
25.27254099999999
 20
1.634802999999991
 30
0.0
 40
0.0599997758533285
100
AcDbArc
 50
270.0
 51
2.000043803911041
  0
ARC
  5
5F
330
1F
100
AcDbEntity
  8
DEFAULT
100
AcDbCircle
 10
2.044672999999989
 20
7.640362999999994
 30
0.0
 40
0.2999999141766412
100
AcDbArc
 50
90.0
 51
257.999896820203
  0
SPLINE
  5
60
330
1F
100
AcDbEntity
  8
DEFAULT
100
AcDbSpline
210
0.0
220
0.0
230
1.0
 70
     8
 71
     3
 72
    12
 73
     8
 74
     0
 42
0.0000000001
 43
0.0000000001
 40
0.0
 40
0.0
 40
0.0
 40
0.0
 40
0.1904218250629
 40
0.261437522579
 40
0.401253888132
 40
0.677453543699
 40
1.0
 40
1.0
 40
1.0
 40
1.0
 10
0.5081703401619961
 20
2.77661712199
 30
0.0
 10
0.503911179625959
 20
2.776831982529998
 30
0.0
 10
0.4974238824859754
 20
2.775365820389993
 30
0.0
 10
0.4905454223359698
 20
2.78429305697
 30
0.0
 10
0.5049659240839901
 20
2.789909955740001
 30
0.0
 10
0.5176904713990211
 20
2.795619967980002
 30
0.0
 10
0.5311177511819665
 20
2.799506852859992
 30
0.0
 10
0.5382179008329899
 20
2.801450366330002
 30
0.0
  0
SPLINE
  5
61
330
1F
100
AcDbEntity
  8
DEFAULT
100
AcDbSpline
210
0.0
220
0.0
230
1.0
 70
     8
 71
     3
 72
    11
 73
     7
 74
     0
 42
0.0000000001
 43
0.0000000001
 40
0.0
 40
0.0
 40
0.0
 40
0.0
 40
0.2644554190053
 40
0.5206854907126
 40
0.7648104430241
 40
1.0
 40
1.0
 40
1.0
 40
1.0
 10
13.07581626322298
 20
5.358363253039997
 30
0.0
 10
13.07581626322298
 20
5.35188806971999
 30
0.0
 10
13.07361336453801
 20
5.339024108609991
 30
0.0
 10
13.06403301108202
 20
5.32245310255999
 30
0.0
 10
13.04942329687901
 20
5.311096531030003
 30
0.0
 10
13.03754013422002
 20
5.30836325304
 30
0.0
 10
13.03178152469098
 20
5.30836325304
 30
0.0
  0
ARC
  5
62
330
1F
100
AcDbEntity
  8
DEFAULT
100
AcDbCircle
 10
11.98967299999998
 20
7.310362999999995
 30
0.0
 40
0.0300000000000002
100
AcDbArc
 50
0.0
 51
90.0
  0
SPLINE
  5
63
330
1F
100
AcDbEntity
  8
DEFAULT
100
AcDbSpline
210
0.0
220
0.0
230
1.0
 70
    24
 71
     2
 72
     6
 73
     3
 74
     0
 42
0.0000000001
 43
0.0000000001
 40
0.0
 40
0.0
 40
0.0
 40
1.0
 40
1.0
 40
1.0
 10
1.944673000000023
 20
6.733362999999997
 30
0.0
 10
1.944673000000023
 20
7.036862999999997
 30
0.0
 10
1.944673000000023
 20
7.340362999999996
 30
0.0
  0
ARC
  5
64
330
1F
100
AcDbEntity
  8
DEFAULT
100
AcDbCircle
 10
16.25993999999997
 20
1.441068000000001
 30
0.0
 40
0.015625
100
AcDbArc
 50
0.0
 51
90.0
  0
SPLINE
  5
65
330
1F
100
AcDbEntity
  8
DEFAULT
100
AcDbSpline
210
0.0
220
0.0
230
1.0
 70
    24
 71
     2
 72
     6
 73
     3
 74
     0
 42
0.0000000001
 43
0.0000000001
 40
0.0
 40
0.0
 40
0.0
 40
1.0
 40
1.0
 40
1.0
 10
15.20272999999997
 20
1.441068000000001
 30
0.0
 10
15.20272999999997
 20
1.360298
 30
0.0
 10
15.20272999999997
 20
1.279527999999999
 30
0.0
  0
SPLINE
  5
66
330
1F
100
AcDbEntity
  8
DEFAULT
100
AcDbSpline
210
0.0
220
0.0
230
1.0
 70
    24
 71
     2
 72
     6
 73
     3
 74
     0
 42
0.0000000001
 43
0.0000000001
 40
0.0
 40
0.0
 40
0.0
 40
1.0
 40
1.0
 40
1.0
 10
11.26967299999995
 20
7.310362999999995
 30
0.0
 10
11.26967299999995
 20
7.261862999999998
 30
0.0
 10
11.26967299999995
 20
7.213363000000001
 30
0.0
  0
ARC
  5
67
330
1F
100
AcDbEntity
  8
DEFAULT
100
AcDbCircle
 10
1.994672999999977
 20
6.733362999999997
 30
0.0
 40
0.0499999999999986
100
AcDbArc
 50
180.0
 51
270.0
  0
ARC
  5
68
330
1F
100
AcDbEntity
  8
DEFAULT
100
AcDbCircle
 10
10.59886299999999
 20
4.388362999999998
 30
0.0
 40
0.0799996434140348
100
AcDbArc
 50
181.1911324318155
 51
270.0
  0
ARC
  5
69
330
1F
100
AcDbEntity
  8
DEFAULT
100
AcDbCircle
 10
-1.043305999999973
 20
50.62322199999998
 30
0.0
 40
0.2362205058949281
100
AcDbArc
 50
180.0
 51
265.339550429352
  0
SPLINE
  5
6A
330
1F
100
AcDbEntity
  8
DEFAULT
100
AcDbSpline
210
0.0
220
0.0
230
1.0
 70
     8
 71
     3
 72
     9
 73
     5
 74
     0
 42
0.0000000001
 43
0.0000000001
 40
0.0
 40
0.0
 40
0.0
 40
0.0
 40
1.0
 40
2.0
 40
2.0
 40
2.0
 40
2.0
 10
16.17739499999999
 20
2.791983000000002
 30
0.0
 10
15.6908409935092
 20
3.15441940343085
 30
0.0
 10
14.66067779920007
 20
3.810950054106343
 30
0.0
 10
13.4928939238892
 20
4.189124557873939
 30
0.0
 10
12.89071899999999
 20
4.272122999999993
 30
0.0
  0
SPLINE
  5
6B
330
1F
100
AcDbEntity
  8
DEFAULT
100
AcDbSpline
210
0.0
220
0.0
230
1.0
 70
    24
 71
     2
 72
     6
 73
     3
 74
     0
 42
0.0000000001
 43
0.0000000001
 40
0.0
 40
0.0
 40
0.0
 40
1.0
 40
1.0
 40
1.0
 10
1.062500999999997
 20
52.354743
 30
0.0
 10
0.0000009999999975
 20
52.354743
 30
0.0
 10
-1.062499000000003
 20
52.354743
 30
0.0
  0
SPLINE
  5
6C
330
1F
100
AcDbEntity
  8
DEFAULT
100
AcDbSpline
210
0.0
220
0.0
230
1.0
 70
     8
 71
     3
 72
     9
 73
     5
 74
     0
 42
0.0000000001
 43
0.0000000001
 40
0.0
 40
0.0
 40
0.0
 40
0.0
 40
1.0
 40
2.0
 40
2.0
 40
2.0
 40
2.0
 10
15.22305368638996
 20
1.984682149479994
 30
0.0
 10
14.75240170518151
 20
2.140017533255858
 30
0.0
 10
13.78681805546904
 20
2.378813557081088
 30
0.0
 10
12.7944844613184
 20
2.452366797159698
 30
0.0
 10
12.29885783657602
 20
2.444803113730003
 30
0.0
  0
ARC
  5
6D
330
1F
100
AcDbEntity
  8
DEFAULT
100
AcDbCircle
 10
1.364131999999984
 20
1.634803190376303
 30
0.0
 40
0.0600005682155926
100
AcDbArc
 50
270.0
 51
359.5615067429646
  0
SPLINE
  5
6E
330
1F
100
AcDbEntity
  8
DEFAULT
100
AcDbSpline
210
0.0
220
0.0
230
1.0
 70
    24
 71
     2
 72
     6
 73
     3
 74
     0
 42
0.0000000001
 43
0.0000000001
 40
0.0
 40
0.0
 40
0.0
 40
1.0
 40
1.0
 40
1.0
 10
1.424130811085888
 20
1.634344001445214
 30
0.0
 10
1.427083155542931
 20
2.018644750722608
 30
0.0
 10
1.430035499999974
 20
2.402945500000001
 30
0.0
  0
SPLINE
  5
6F
330
1F
100
AcDbEntity
  8
DEFAULT
100
AcDbSpline
210
0.0
220
0.0
230
1.0
 70
     8
 71
     3
 72
     9
 73
     5
 74
     0
 42
0.0000000001
 43
0.0000000001
 40
0.0
 40
0.0
 40
0.0
 40
0.0
 40
0.999997703594369
 40
2.0
 40
2.0
 40
2.0
 40
2.0
 10
1.430035499999974
 20
2.402945500000001
 30
0.0
 10
1.430882119689102
 20
2.438346468171957
 30
0.0
 10
1.446066907143859
 20
2.510162831119729
 30
0.0
 10
1.501230681855247
 20
2.562402556786694
 30
0.0
 10
1.535725000000014
 20
2.571394999999995
 30
0.0
  0
ARC
  5
70
330
1F
100
AcDbEntity
  8
DEFAULT
100
AcDbCircle
 10
10.88382899999999
 20
18.62290399999999
 30
0.0
 40
0.0250000400499361
100
AcDbArc
 50
235.5922788969563
 51
270.0
  0
SPLINE
  5
71
330
1F
100
AcDbEntity
  8
DEFAULT
100
AcDbSpline
210
0.0
220
0.0
230
1.0
 70
    24
 71
     2
 72
     6
 73
     3
 74
     0
 42
0.0000000001
 43
0.0000000001
 40
0.0
 40
0.0
 40
0.0
 40
1.0
 40
1.0
 40
1.0
 10
3.970915999999988
 20
20.64980299999999
 30
0.0
 10
3.991811970217327
 20
20.61636248138978
 30
0.0
 10
4.012707940434666
 20
20.58292196277957
 30
0.0
  0
ARC
  5
72
330
1F
100
AcDbEntity
  8
DEFAULT
100
AcDbCircle
 10
4.207759126712631
 20
20.70480292976187
 30
0.0
 40
0.2299998595238275
100
AcDbArc
 50
211.9998856292889
 51
269.9999684343338
  0
SPLINE
  5
73
330
1F
100
AcDbEntity
  8
DEFAULT
100
AcDbSpline
210
0.0
220
0.0
230
1.0
 70
    24
 71
     2
 72
     6
 73
     3
 74
     0
 42
0.0000000001
 43
0.0000000001
 40
-1.0
 40
-1.0
 40
-1.0
 40
0.0
 40
0.0
 40
0.0
 10
4.207758999999953
 20
20.47480307023808
 30
0.0
 10
11.64467249999996
 20
20.47480307023808
 30
0.0
 10
19.08158599999996
 20
20.47480307023808
 30
0.0
  0
ARC
  5
74
330
1F
100
AcDbEntity
  8
DEFAULT
100
AcDbCircle
 10
19.08158587328734
 20
20.70480292976188
 30
0.0
 40
0.2299998595238402
100
AcDbArc
 50
270.0000315656671
 51
328.0001143707087
  0
SPLINE
  5
75
330
1F
100
AcDbEntity
  8
DEFAULT
100
AcDbSpline
210
0.0
220
0.0
230
1.0
 70
    24
 71
     2
 72
     6
 73
     3
 74
     0
 42
0.0000000001
 43
0.0000000001
 40
-1.0
 40
-1.0
 40
-1.0
 40
0.0
 40
0.0
 40
0.0
 10
19.2766370595653
 20
20.58292196277957
 30
0.0
 10
19.29753302978264
 20
20.61636248138978
 30
0.0
 10
19.31842899999998
 20
20.64980299999999
 30
0.0
  0
SPLINE
  5
76
330
1F
100
AcDbEntity
  8
DEFAULT
100
AcDbSpline
210
0.0
220
0.0
230
1.0
 70
    24
 71
     2
 72
     6
 73
     3
 74
     0
 42
0.0000000001
 43
0.0000000001
 40
0.0
 40
0.0
 40
0.0
 40
1.0
 40
1.0
 40
1.0
 10
10.73365999999999
 20
5.058363
 30
0.0
 10
10.73365999999999
 20
5.183363
 30
0.0
 10
10.73365999999999
 20
5.308363
 30
0.0
  0
ARC
  5
77
330
1F
100
AcDbEntity
  8
DEFAULT
100
AcDbCircle
 10
21.244687
 20
7.640362999999994
 30
0.0
 40
0.2999999141766412
100
AcDbArc
 50
282.0001031797967
 51
90.0
  0
SPLINE
  5
78
330
1F
100
AcDbEntity
  8
DEFAULT
100
AcDbSpline
210
0.0
220
0.0
230
1.0
 70
    24
 71
     2
 72
     6
 73
     3
 74
     0
 42
0.0000000001
 43
0.0000000001
 40
0.0
 40
0.0
 40
0.0
 40
1.0
 40
1.0
 40
1.0
 10
21.29463900000002
 20
6.683363
 30
0.0
 10
20.55625350000003
 20
6.683363
 30
0.0
 10
19.81786800000003
 20
6.683363
 30
0.0
  0
ARC
  5
79
330
1F
100
AcDbEntity
  8
DEFAULT
100
AcDbCircle
 10
21.29468700000001
 20
6.733362999999997
 30
0.0
 40
0.0499999999999986
100
AcDbArc
 50
270.0
 51
0.0
  0
SPLINE
  5
7A
330
1F
100
AcDbEntity
  8
DEFAULT
100
AcDbSpline
210
0.0
220
0.0
230
1.0
 70
    24
 71
     2
 72
     6
 73
     3
 74
     0
 42
0.0000000001
 43
0.0000000001
 40
0.0
 40
0.0
 40
0.0
 40
1.0
 40
1.0
 40
1.0
 10
12.19467300000002
 20
16.07480299999999
 30
0.0
 10
12.19467300000002
 20
17.29105299999999
 30
0.0
 10
12.19467300000002
 20
18.50730299999999
 30
0.0
  0
SPLINE
  5
7B
330
1F
100
AcDbEntity
  8
DEFAULT
100
AcDbSpline
210
0.0
220
0.0
230
1.0
 70
    24
 71
     2
 72
     6
 73
     3
 74
     0
 42
0.0000000001
 43
0.0000000001
 40
0.0
 40
0.0
 40
0.0
 40
1.0
 40
1.0
 40
1.0
 10
15.15232299999997
 20
31.34097999999999
 30
0.0
 10
14.34337349999998
 20
31.34097999999999
 30
0.0
 10
13.534424
 20
31.34097999999999
 30
0.0
  0
ARC
  5
7C
330
1F
100
AcDbEntity
  8
DEFAULT
100
AcDbCircle
 10
0.5285984793798093
 20
2.696816994570284
 30
0.0
 40
0.0963546383563139
100
AcDbArc
 50
103.5380123368086
 51
135.5140511771032
  0
ARC
  5
7D
330
1F
100
AcDbEntity
  8
DEFAULT
100
AcDbCircle
 10
0.5020572828913714
 20
2.722886164209044
 30
0.0
 40
0.0591519944086942
100
AcDbArc
 50
135.5140511771042
 51
177.4470017652904
  0
LINE
  5
7E
330
1F
100
AcDbEntity
  8
DEFAULT
100
AcDbLine
 10
0.4429640000000177
 20
2.725521000000001
 30
0.0
 11
0.3944500000000062
 21
1.637463999999994
 31
0.0
  0
SPLINE
  5
7F
330
1F
100
AcDbEntity
  8
DEFAULT
100
AcDbSpline
210
0.0
220
0.0
230
1.0
 70
    24
 71
     2
 72
     6
 73
     3
 74
     0
 42
0.0000000001
 43
0.0000000001
 40
0.0
 40
0.0
 40
0.0
 40
1.0
 40
1.0
 40
1.0
 10
0.5269559999999842
 20
35.43558399999999
 30
0.0
 10
-0.3762854999999945
 20
35.43558399999999
 30
0.0
 10
-1.279526999999973
 20
35.43558399999999
 30
0.0
  0
SPLINE
  5
80
330
1F
100
AcDbEntity
  8
DEFAULT
100
AcDbSpline
210
0.0
220
0.0
230
1.0
 70
    24
 71
     2
 72
     6
 73
     3
 74
     0
 42
0.0000000001
 43
0.0000000001
 40
0.0
 40
0.0
 40
0.0
 40
1.0
 40
1.0
 40
1.0
 10
0.5269559999999842
 20
36.15432399999999
 30
0.0
 10
-0.3762854999999945
 20
36.15432399999999
 30
0.0
 10
-1.279526999999973
 20
36.15432399999999
 30
0.0
  0
ARC
  5
81
330
1F
100
AcDbEntity
  8
DEFAULT
100
AcDbCircle
 10
14.81395099999997
 20
0.0
 30
0.0
 40
1.279527939310224
100
AcDbArc
 50
15.7620695672927
 51
18.57560333516714
  0
CIRCLE
  5
82
330
1F
100
AcDbEntity
  8
DEFAULT
100
AcDbCircle
 10
14.81395099999997
 20
0.0
 30
0.0
 40
1.0625
  0
SPLINE
  5
83
330
1F
100
AcDbEntity
  8
DEFAULT
100
AcDbSpline
210
0.0
220
0.0
230
1.0
 70
    24
 71
     2
 72
     6
 73
     3
 74
     0
 42
0.0000000001
 43
0.0000000001
 40
0.0
 40
0.0
 40
0.0
 40
1.0
 40
1.0
 40
1.0
 10
13.534424
 20
55.73185099999999
 30
0.0
 10
13.534424
 20
55.58420849999999
 30
0.0
 10
13.534424
 20
55.43656599999998
 30
0.0
  0
ARC
  5
84
330
1F
100
AcDbEntity
  8
DEFAULT
100
AcDbCircle
 10
15.21835499999997
 20
1.441068000000001
 30
0.0
 40
0.015625
100
AcDbArc
 50
90.0
 51
180.0
  0
SPLINE
  5
85
330
1F
100
AcDbEntity
  8
DEFAULT
100
AcDbSpline
210
0.0
220
0.0
230
1.0
 70
    24
 71
     2
 72
     6
 73
     3
 74
     0
 42
0.0000000001
 43
0.0000000001
 40
0.0
 40
0.0
 40
0.0
 40
1.0
 40
1.0
 40
1.0
 10
15.34090599999996
 20
56.543977
 30
0.0
 10
14.43766499999998
 20
56.543977
 30
0.0
 10
13.534424
 20
56.543977
 30
0.0
  0
SPLINE
  5
86
330
1F
100
AcDbEntity
  8
DEFAULT
100
AcDbSpline
210
0.0
220
0.0
230
1.0
 70
    24
 71
     2
 72
     6
 73
     3
 74
     0
 42
0.0000000001
 43
0.0000000001
 40
0.0
 40
0.0
 40
0.0
 40
1.0
 40
1.0
 40
1.0
 10
22.68994800000002
 20
43.085516
 30
0.0
 10
22.68994800000002
 20
42.9602915
 30
0.0
 10
22.68994800000002
 20
42.835067
 30
0.0
  0
LINE
  5
87
330
1F
100
AcDbEntity
  8
DEFAULT
100
AcDbLine
 10
19.84468699999996
 20
7.183363
 30
0.0
 11
19.84468699999996
 21
6.683363
 31
0.0
  0
SPLINE
  5
88
330
1F
100
AcDbEntity
  8
DEFAULT
100
AcDbSpline
210
0.0
220
0.0
230
1.0
 70
    24
 71
     2
 72
     6
 73
     3
 74
     0
 42
0.0000000001
 43
0.0000000001
 40
0.0
 40
0.0
 40
0.0
 40
1.0
 40
1.0
 40
1.0
 10
12.01968700000003
 20
7.183363
 30
0.0
 10
12.08163400000001
 20
7.183363
 30
0.0
 10
12.14358099999998
 20
7.183363
 30
0.0
  0
SPLINE
  5
89
330
1F
100
AcDbEntity
  8
DEFAULT
100
AcDbSpline
210
0.0
220
0.0
230
1.0
 70
    12
 71
     2
 72
     8
 73
     5
 74
     0
 42
0.0000000001
 43
0.0000000001
 40
0.6084078194389045
 40
0.6084078194389045
 40
0.6084078194389045
 40
1.405008326934524
 40
1.405008326934524
 40
2.405008326934524
 40
2.405008326934524
 40
2.405008326934524
 10
13.90940236112493
 20
5.32978074845785
 30
0.0
 41
1.0
 10
14.49944037075031
 20
6.089454019238924
 30
0.0
 41
0.921721575516506
 10
15.34472699999998
 20
6.183374000000001
 30
0.0
 41
1.0
 10
17.58146099999999
 20
6.43189799999999
 30
0.0
 41
1.0
 10
19.81786800000003
 20
6.683363
 30
0.0
 41
1.0
  0
LINE
  5
8A
330
1F
100
AcDbEntity
  8
DEFAULT
100
AcDbLine
 10
20.87698599999999
 20
7.189639
 30
0.0
 11
20.87698599999999
 21
6.683363
 31
0.0
  0
SPLINE
  5
8B
330
1F
100
AcDbEntity
  8
DEFAULT
100
AcDbSpline
210
0.0
220
0.0
230
1.0
 70
    24
 71
     2
 72
     6
 73
     3
 74
     0
 42
0.0000000001
 43
0.0000000001
 40
0.0
 40
0.0
 40
0.0
 40
1.0
 40
1.0
 40
1.0
 10
0.5269559999999842
 20
51.730633
 30
0.0
 10
-0.3762854999999945
 20
51.730633
 30
0.0
 10
-1.279526999999973
 20
51.730633
 30
0.0
  0
SPLINE
  5
8C
330
1F
100
AcDbEntity
  8
DEFAULT
100
AcDbSpline
210
0.0
220
0.0
230
1.0
 70
     8
 71
     3
 72
    10
 73
     6
 74
     0
 42
0.0000000001
 43
0.0000000001
 40
0.0
 40
0.0
 40
0.0
 40
0.0
 40
0.3396236604826
 40
0.6742178260732
 40
1.0
 40
1.0
 40
1.0
 40
1.0
 10
11.74467272982599
 20
5.71729150022999
 30
0.0
 10
11.74642145940601
 20
5.67632593223
 30
0.0
 10
11.75361613895097
 20
5.595158105319996
 30
0.0
 10
11.770624405359
 20
5.475612043859996
 30
0.0
 10
11.78429281918898
 20
5.397055141259997
 30
0.0
 10
11.79135886358
 20
5.358363273839998
 30
0.0
  0
SPLINE
  5
8D
330
1F
100
AcDbEntity
  8
DEFAULT
100
AcDbSpline
210
0.0
220
0.0
230
1.0
 70
    24
 71
     2
 72
     6
 73
     3
 74
     0
 42
0.0000000001
 43
0.0000000001
 40
0.0
 40
0.0
 40
0.0
 40
1.0
 40
1.0
 40
1.0
 10
0.5269559999999842
 20
51.011893
 30
0.0
 10
-0.3762854999999945
 20
51.011893
 30
0.0
 10
-1.279526999999973
 20
51.011893
 30
0.0
  0
SPLINE
  5
8E
330
1F
100
AcDbEntity
  8
DEFAULT
100
AcDbSpline
210
0.0
220
0.0
230
1.0
 70
    24
 71
     2
 72
     6
 73
     3
 74
     0
 42
0.0000000001
 43
0.0000000001
 40
0.0
 40
0.0
 40
0.0
 40
1.0
 40
1.0
 40
1.0
 10
16.093479
 20
55.73185099999999
 30
0.0
 10
16.093479
 20
55.58420849999999
 30
0.0
 10
16.093479
 20
55.43656599999998
 30
0.0
  0
SPLINE
  5
8F
330
1F
100
AcDbEntity
  8
DEFAULT
100
AcDbSpline
210
0.0
220
0.0
230
1.0
 70
    24
 71
     2
 72
     6
 73
     3
 74
     0
 42
0.0000000001
 43
0.0000000001
 40
0.0
 40
0.0
 40
0.0
 40
1.0
 40
1.0
 40
1.0
 10
16.093479
 20
30.528854
 30
0.0
 10
16.093479
 20
30.3812115
 30
0.0
 10
16.093479
 20
30.233569
 30
0.0
  0
SPLINE
  5
90
330
1F
100
AcDbEntity
  8
DEFAULT
100
AcDbSpline
210
0.0
220
0.0
230
1.0
 70
    24
 71
     2
 72
     6
 73
     3
 74
     0
 42
0.0000000001
 43
0.0000000001
 40
0.0
 40
0.0
 40
0.0
 40
1.0
 40
1.0
 40
1.0
 10
14.81395099999997
 20
30.62223899999999
 30
0.0
 10
14.81395099999997
 20
30.98160949999999
 30
0.0
 10
14.81395099999997
 20
31.34097999999999
 30
0.0
  0
SPLINE
  5
91
330
1F
100
AcDbEntity
  8
DEFAULT
100
AcDbSpline
210
0.0
220
0.0
230
1.0
 70
    24
 71
     2
 72
     6
 73
     3
 74
     0
 42
0.0000000001
 43
0.0000000001
 40
0.0
 40
0.0
 40
0.0
 40
1.0
 40
1.0
 40
1.0
 10
6.838284999999985
 20
19.54012399999999
 30
0.0
 10
7.045501004243874
 20
19.55098391902291
 30
0.0
 10
7.252717008487764
 20
19.56184383804583
 30
0.0
  0
ARC
  5
92
330
1F
100
AcDbEntity
  8
DEFAULT
100
AcDbCircle
 10
7.208754595934124
 20
20.40069219363095
 30
0.0
 40
0.8399995579673843
100
AcDbArc
 50
273.0000158765847
 51
302.9999810560499
  0
SPLINE
  5
93
330
1F
100
AcDbEntity
  8
DEFAULT
100
AcDbSpline
210
0.0
220
0.0
230
1.0
 70
    24
 71
     2
 72
     6
 73
     3
 74
     0
 42
0.0000000001
 43
0.0000000001
 40
0.0
 40
0.0
 40
0.0
 40
1.0
 40
1.0
 40
1.0
 10
7.666250911672307
 20
19.69620913601256
 30
0.0
 10
7.905668955836148
 20
19.85168906800627
 30
0.0
 10
8.14508699999999
 20
20.00716899999999
 30
0.0
  0
SPLINE
  5
94
330
1F
100
AcDbEntity
  8
DEFAULT
100
AcDbSpline
210
0.0
220
0.0
230
1.0
 70
     8
 71
     3
 72
     9
 73
     5
 74
     0
 42
0.0000000001
 43
0.0000000001
 40
0.0
 40
0.0
 40
0.0
 40
0.0
 40
1.0
 40
2.0
 40
2.0
 40
2.0
 40
2.0
 10
4.095602211219955
 20
19.07287579687599
 30
0.0
 10
4.123656972591505
 20
19.12574034293333
 30
0.0
 10
4.117565322215682
 20
19.24884242522286
 30
0.0
 10
4.120231484820579
 20
19.37478864395754
 30
0.0
 10
4.083040543580012
 20
19.422660475291
 30
0.0
  0
SPLINE
  5
95
330
1F
100
AcDbEntity
  8
DEFAULT
100
AcDbSpline
210
0.0
220
0.0
230
1.0
 70
    24
 71
     2
 72
     6
 73
     3
 74
     0
 42
0.0000000001
 43
0.0000000001
 40
0.0
 40
0.0
 40
0.0
 40
1.0
 40
1.0
 40
1.0
 10
2.563334999999995
 20
19.003075
 30
0.0
 10
2.563360499999987
 20
19.00309849999999
 30
0.0
 10
2.56338599999998
 20
19.00312199999999
 30
0.0
  0
SPLINE
  5
96
330
1F
100
AcDbEntity
  8
DEFAULT
100
AcDbSpline
210
0.0
220
0.0
230
1.0
 70
    24
 71
     2
 72
     6
 73
     3
 74
     0
 42
0.0000000001
 43
0.0000000001
 40
0.0
 40
0.0
 40
0.0
 40
1.0
 40
1.0
 40
1.0
 10
6.859187999999961
 20
19.14127599999999
 30
0.0
 10
6.846618999999976
 20
19.38110699999999
 30
0.0
 10
6.834049999999991
 20
19.620938
 30
0.0
  0
ARC
  5
97
330
1F
100
AcDbEntity
  8
DEFAULT
100
AcDbCircle
 10
25.18994800000002
 20
43.130352
 30
0.0
 40
0.0590552931447625
100
AcDbArc
 50
0.0
 51
37.07713299743973
  0
SPLINE
  5
98
330
1F
100
AcDbEntity
  8
DEFAULT
100
AcDbSpline
210
0.0
220
0.0
230
1.0
 70
    24
 71
     2
 72
     6
 73
     3
 74
     0
 42
0.0000000001
 43
0.0000000001
 40
0.0
 40
0.0
 40
0.0
 40
1.0
 40
1.0
 40
1.0
 10
13.534424
 20
56.93264799999999
 30
0.0
 10
13.534424
 20
56.7850055
 30
0.0
 10
13.534424
 20
56.63736300000001
 30
0.0
  0
SPLINE
  5
99
330
1F
100
AcDbEntity
  8
DEFAULT
100
AcDbSpline
210
0.0
220
0.0
230
1.0
 70
    24
 71
     2
 72
     6
 73
     3
 74
     0
 42
0.0000000001
 43
0.0000000001
 40
0.0
 40
0.0
 40
0.0
 40
1.0
 40
1.0
 40
1.0
 10
25.33250399999997
 20
1.63689699999999
 30
0.0
 10
25.31363799999997
 20
2.17714999999999
 30
0.0
 10
25.29477199999997
 20
2.71740299999999
 30
0.0
  0
SPLINE
  5
9A
330
1F
100
AcDbEntity
  8
DEFAULT
100
AcDbSpline
210
0.0
220
0.0
230
1.0
 70
     8
 71
     3
 72
    11
 73
     7
 74
     0
 42
0.0000000001
 43
0.0000000001
 40
0.0
 40
0.0
 40
0.0
 40
0.0
 40
0.2644554190053
 40
0.5206854907126
 40
0.7648104430241
 40
1.0
 40
1.0
 40
1.0
 40
1.0
 10
10.21354373677701
 20
5.358363253039997
 30
0.0
 10
10.21354373677701
 20
5.35188806971999
 30
0.0
 10
10.21574663546198
 20
5.339024108609991
 30
0.0
 10
10.22532698891797
 20
5.32245310255999
 30
0.0
 10
10.23993670312097
 20
5.311096531030003
 30
0.0
 10
10.25181986577996
 20
5.30836325304
 30
0.0
 10
10.257578475309
 20
5.30836325304
 30
0.0
  0
SPLINE
  5
9B
330
1F
100
AcDbEntity
  8
DEFAULT
100
AcDbSpline
210
0.0
220
0.0
230
1.0
 70
    24
 71
     2
 72
     6
 73
     3
 74
     0
 42
0.0000000001
 43
0.0000000001
 40
0.0
 40
0.0
 40
0.0
 40
1.0
 40
1.0
 40
1.0
 10
12.594673
 20
16.07480299999999
 30
0.0
 10
12.594673
 20
12.00758299999999
 30
0.0
 10
12.594673
 20
7.940362999999991
 30
0.0
  0
SPLINE
  5
9C
330
1F
100
AcDbEntity
  8
DEFAULT
100
AcDbSpline
210
0.0
220
0.0
230
1.0
 70
    24
 71
     2
 72
     6
 73
     3
 74
     0
 42
0.0000000001
 43
0.0000000001
 40
0.0
 40
0.0
 40
0.0
 40
1.0
 40
1.0
 40
1.0
 10
16.093479
 20
56.93264799999999
 30
0.0
 10
16.093479
 20
56.7850055
 30
0.0
 10
16.093479
 20
56.63736300000001
 30
0.0
  0
SPLINE
  5
9D
330
1F
100
AcDbEntity
  8
DEFAULT
100
AcDbSpline
210
0.0
220
0.0
230
1.0
 70
    24
 71
     2
 72
     6
 73
     3
 74
     0
 42
0.0000000001
 43
0.0000000001
 40
-1.0
 40
-1.0
 40
-1.0
 40
0.0
 40
0.0
 40
0.0
 10
19.425929
 20
20.64980299999999
 30
0.0
 10
19.56022843655313
 20
20.86472753964626
 30
0.0
 10
19.69452787310627
 20
21.07965207929253
 30
0.0
  0
ARC
  5
9E
330
1F
100
AcDbEntity
  8
DEFAULT
100
AcDbCircle
 10
19.41467281705701
 20
21.25452572378856
 30
0.0
 40
0.3299994605081066
100
AcDbArc
 50
327.9998826495015
 51
16.62705623837251
  0
ARC
  5
9F
330
1F
100
AcDbEntity
  8
DEFAULT
100
AcDbCircle
 10
16.4251244426531
 20
20.36176150731009
 30
0.0
 40
3.450003856198021
100
AcDbArc
 50
16.62711566253618
 51
42.81730653986661
  0
ARC
  5
A0
330
1F
100
AcDbEntity
  8
DEFAULT
100
AcDbCircle
 10
18.51567281974701
 20
22.2988038823275
 30
0.0
 40
0.5999993510115813
100
AcDbArc
 50
42.81730060376229
 51
86.39895866622219
  0
ARC
  5
A1
330
1F
100
AcDbEntity
  8
DEFAULT
100
AcDbCircle
 10
11.64441800009195
 20
-86.88514934934047
 30
0.0
 40
109.9999526695194
100
AcDbArc
 50
86.39896361006214
 51
89.99986717795665
  0
ARC
  5
A2
330
1F
100
AcDbEntity
  8
DEFAULT
100
AcDbCircle
 10
11.64492700006906
 20
-86.88523428151872
 30
0.0
 40
110.0000376016953
100
AcDbArc
 50
90.00013230115323
 51
93.60103361145285
  0
ARC
  5
A3
330
1F
100
AcDbEntity
  8
DEFAULT
100
AcDbCircle
 10
4.773672772188263
 20
22.2988036886387
 30
0.0
 40
0.5999997491751065
100
AcDbArc
 50
93.60109658613251
 51
137.182724247455
  0
ARC
  5
A4
330
1F
100
AcDbEntity
  8
DEFAULT
100
AcDbCircle
 10
6.864218795660975
 20
20.36176215693634
 30
0.0
 40
3.450001954752505
100
AcDbArc
 50
137.1826814888883
 51
163.3728863033176
  0
ARC
  5
A5
330
1F
100
AcDbEntity
  8
DEFAULT
100
AcDbCircle
 10
3.874673173998815
 20
21.25452579006394
 30
0.0
 40
0.3300003636263555
100
AcDbArc
 50
163.3730040238588
 51
212.0000359252194
  0
SPLINE
  5
A6
330
1F
100
AcDbEntity
  8
DEFAULT
100
AcDbSpline
210
0.0
220
0.0
230
1.0
 70
    24
 71
     2
 72
     6
 73
     3
 74
     0
 42
0.0000000001
 43
0.0000000001
 40
0.0
 40
0.0
 40
0.0
 40
1.0
 40
1.0
 40
1.0
 10
3.594817103542653
 20
21.07965206470084
 30
0.0
 10
3.729116551771313
 20
20.86472753235041
 30
0.0
 10
3.863415999999972
 20
20.64980299999999
 30
0.0
  0
SPLINE
  5
A7
330
1F
100
AcDbEntity
  8
DEFAULT
100
AcDbSpline
210
0.0
220
0.0
230
1.0
 70
    24
 71
     2
 72
     6
 73
     3
 74
     0
 42
0.0000000001
 43
0.0000000001
 40
0.0
 40
0.0
 40
0.0
 40
1.0
 40
1.0
 40
1.0
 10
1.279527999999971
 20
0.3149609999999967
 30
0.0
 10
1.279527999999971
 20
0.1574804999999984
 30
0.0
 10
1.279527999999971
 20
0.0
 30
0.0
  0
CIRCLE
  5
A8
330
1F
100
AcDbEntity
  8
DEFAULT
100
AcDbCircle
 10
11.64467299999995
 20
43.583108
 30
0.0
 40
6.908685000000002
  0
SPLINE
  5
A9
330
1F
100
AcDbEntity
  8
DEFAULT
100
AcDbSpline
210
0.0
220
0.0
230
1.0
 70
     8
 71
     3
 72
    12
 73
     8
 74
     0
 42
0.0000000001
 43
0.0000000001
 40
0.0
 40
0.0
 40
0.0
 40
0.0
 40
0.2019030208471
 40
0.4028010810718
 40
0.6033397257016
 40
0.8032226618697
 40
1.0
 40
1.0
 40
1.0
 40
1.0
 10
24.40695736473998
 20
2.57059094089
 30
0.0
 10
24.42276422448998
 20
2.567380268959994
 30
0.0
 10
24.45359114859997
 20
2.556651602239995
 30
0.0
 10
24.49372468690996
 20
2.528972846960002
 30
0.0
 10
24.52501338126996
 20
2.491745313409993
 30
0.0
 10
24.54517843456
 20
2.447903409709994
 30
0.0
 10
24.55045730142001
 20
2.416217846169999
 30
0.0
 10
24.55098437828002
 20
2.40050652731999
 30
0.0
  0
SPLINE
  5
AA
330
1F
100
AcDbEntity
  8
DEFAULT
100
AcDbSpline
210
0.0
220
0.0
230
1.0
 70
    24
 71
     2
 72
     6
 73
     3
 74
     0
 42
0.0000000001
 43
0.0000000001
 40
0.0
 40
0.0
 40
0.0
 40
1.0
 40
1.0
 40
1.0
 10
1.062500999999997
 20
34.81147299999999
 30
0.0
 10
0.0000009999999975
 20
34.81147299999999
 30
0.0
 10
-1.062499000000003
 20
34.81147299999999
 30
0.0
  0
ARC
  5
AB
330
1F
100
AcDbEntity
  8
DEFAULT
100
AcDbCircle
 10
13.770644
 20
55.43656599999998
 30
0.0
 40
0.2362200058949278
100
AcDbArc
 50
180.0
 51
265.3395504293522
  0
ARC
  5
AC
330
1F
100
AcDbEntity
  8
DEFAULT
100
AcDbCircle
 10
13.593479
 20
56.63736300000001
 30
0.0
 40
0.0590550000000007
100
AcDbArc
 50
180.0
 51
270.0
  0
CIRCLE
  5
AD
330
1F
100
AcDbEntity
  8
DEFAULT
100
AcDbCircle
 10
14.81395099999997
 20
0.0
 30
0.0
 40
1.279528000000001
  0
SPLINE
  5
AE
330
1F
100
AcDbEntity
  8
DEFAULT
100
AcDbSpline
210
0.0
220
0.0
230
1.0
 70
    24
 71
     2
 72
     6
 73
     3
 74
     0
 42
0.0000000001
 43
0.0000000001
 40
0.0
 40
0.0
 40
0.0
 40
1.0
 40
1.0
 40
1.0
 10
12.40551599999998
 20
18.59790399999999
 30
0.0
 10
11.64467249999998
 20
18.59790399999999
 30
0.0
 10
10.88382899999999
 20
18.59790399999999
 30
0.0
  0
CIRCLE
  5
AF
330
1F
100
AcDbEntity
  8
DEFAULT
100
AcDbCircle
 10
0.0
 20
0.0
 30
0.0
 40
1.279528000000001
  0
ARC
  5
B0
330
1F
100
AcDbEntity
  8
DEFAULT
100
AcDbCircle
 10
1.220473000000027
 20
51.82401900000001
 30
0.0
 40
0.0590552853089289
100
AcDbArc
 50
319.6777845980486
 51
0.0
  0
LINE
  5
B1
330
1F
100
AcDbEntity
  8
DEFAULT
100
AcDbLine
 10
3.962631047846969
 20
49.82374069637
 30
0.0
 11
1.564383732922977
 21
51.45737273682001
 31
0.0
  0
ARC
  5
B2
330
1F
100
AcDbEntity
  8
DEFAULT
100
AcDbCircle
 10
4.305289605241057
 20
55.4745269185883
 30
0.0
 40
4.863136099371109
100
AcDbArc
 50
233.6618073259808
 51
235.6942665475205
  0
SPLINE
  5
B3
330
1F
100
AcDbEntity
  8
DEFAULT
100
AcDbSpline
210
0.0
220
0.0
230
1.0
 70
     8
 71
     3
 72
     9
 73
     5
 74
     0
 42
0.0000000001
 43
0.0000000001
 40
0.0
 40
0.0
 40
0.0
 40
0.0
 40
1.000003667316845
 40
2.0
 40
2.0
 40
2.0
 40
2.0
 10
1.423636999999985
 20
51.55710799999999
 30
0.0
 10
1.422012246190718
 20
51.56997619526381
 30
0.0
 10
1.41345576033001
 20
51.59510222112256
 30
0.0
 10
1.395058770777212
 20
51.61428568416274
 30
0.0
 10
1.384299571764984
 20
51.62152697048499
 30
0.0
  0
SPLINE
  5
B4
330
1F
100
AcDbEntity
  8
DEFAULT
100
AcDbSpline
210
0.0
220
0.0
230
1.0
 70
    24
 71
     2
 72
     6
 73
     3
 74
     0
 42
0.0000000001
 43
0.0000000001
 40
0.0
 40
0.0
 40
0.0
 40
1.0
 40
1.0
 40
1.0
 10
1.384299571764984
 20
51.62152697048499
 30
0.0
 10
1.193420991573475
 20
51.7497871391425
 30
0.0
 10
1.002542411381967
 20
51.8780473078
 30
0.0
  0
SPLINE
  5
B5
330
1F
100
AcDbEntity
  8
DEFAULT
100
AcDbSpline
210
0.0
220
0.0
230
1.0
 70
     8
 71
     3
 72
     9
 73
     5
 74
     0
 42
0.0000000001
 43
0.0000000001
 40
0.0
 40
0.0
 40
0.0
 40
0.0
 40
1.0
 40
2.0
 40
2.0
 40
2.0
 40
2.0
 10
1.002542411381967
 20
51.8780473078
 30
0.0
 10
0.9661481803199194
 20
51.90266743386461
 30
0.0
 10
0.8757684163307999
 20
51.92482776459327
 30
0.0
 10
0.7917423322917898
 20
51.8848491877615
 30
0.0
 10
0.7610886638794909
 20
51.85339918843114
 30
0.0
  0
SPLINE
  5
B6
330
1F
100
AcDbEntity
  8
DEFAULT
100
AcDbSpline
210
0.0
220
0.0
230
1.0
 70
     8
 71
     3
 72
     9
 73
     5
 74
     0
 42
0.0000000001
 43
0.0000000001
 40
0.0
 40
0.0
 40
0.0
 40
0.0
 40
1.0
 40
2.0
 40
2.0
 40
2.0
 40
2.0
 10
0.7610886638794909
 20
51.85339918843114
 30
0.0
 10
0.6839599310226845
 20
51.7757085403647
 30
0.0
 10
0.5477250394365569
 20
51.6058122499682
 30
0.0
 10
0.4279512070061742
 20
51.4200922985347
 30
0.0
 10
0.3961562131719916
 20
51.31593731608
 30
0.0
  0
SPLINE
  5
B7
330
1F
100
AcDbEntity
  8
DEFAULT
100
AcDbSpline
210
0.0
220
0.0
230
1.0
 70
     8
 71
     3
 72
    10
 73
     6
 74
     0
 42
0.0000000001
 43
0.0000000001
 40
0.0
 40
0.0
 40
0.0
 40
0.0
 40
0.3334658583551
 40
0.6666811283343
 40
1.0
 40
1.0
 40
1.0
 40
1.0
 10
0.3961562131719916
 20
51.31593731608
 30
0.0
 10
0.3932105600690079
 20
51.29415795401
 30
0.0
 10
0.3949830096440223
 20
51.24967360074
 30
0.0
 10
0.4200720609080122
 20
51.18778934390001
 30
0.0
 10
0.4499725711060023
 20
51.15457146702001
 30
0.0
 10
0.4671382693180135
 20
51.14108240941501
 30
0.0
  0
SPLINE
  5
B8
330
1F
100
AcDbEntity
  8
DEFAULT
100
AcDbSpline
210
0.0
220
0.0
230
1.0
 70
     8
 71
     3
 72
     9
 73
     5
 74
     0
 42
0.0000000001
 43
0.0000000001
 40
0.0
 40
0.0
 40
0.0
 40
0.0
 40
1.0
 40
2.0
 40
2.0
 40
2.0
 40
2.0
 10
0.4671382693180135
 20
51.14108240941501
 30
0.0
 10
0.5293911327976843
 20
51.0921400513255
 30
0.0
 10
0.6543122349626742
 20
50.99484717473352
 30
0.0
 10
0.7782512780217417
 20
50.89614672090961
 30
0.0
 10
0.8417429849759515
 20
50.84897824355998
 30
0.0
  0
SPLINE
  5
B9
330
1F
100
AcDbEntity
  8
DEFAULT
100
AcDbSpline
210
0.0
220
0.0
230
1.0
 70
     8
 71
     3
 72
     9
 73
     5
 74
     0
 42
0.0000000001
 43
0.0000000001
 40
0.0
 40
0.0
 40
0.0
 40
0.0
 40
1.0
 40
2.0
 40
2.0
 40
2.0
 40
2.0
 10
0.8417429849759515
 20
50.84897824355998
 30
0.0
 10
0.8503113076002364
 20
50.84432594964663
 30
0.0
 10
0.8689772543440881
 20
50.83785199085001
 30
0.0
 10
0.8887331060361134
 20
50.83765998804641
 30
0.0
 10
0.8983676936970255
 20
50.83915486795
 30
0.0
  0
ARC
  5
BA
330
1F
100
AcDbEntity
  8
DEFAULT
100
AcDbCircle
 10
-0.4766820658671804
 20
48.77603182145667
 30
0.0
 40
2.479362528201416
100
AcDbArc
 50
52.26183210332818
 51
56.31696229112012
  0
LINE
  5
BB
330
1F
100
AcDbEntity
  8
DEFAULT
100
AcDbLine
 10
1.040821643186007
 20
50.73675134226001
 30
0.0
 11
3.33439957939521
 21
48.96163104163999
 31
0.0
  0
SPLINE
  5
BC
330
1F
100
AcDbEntity
  8
DEFAULT
100
AcDbSpline
210
0.0
220
0.0
230
1.0
 70
    24
 71
     2
 72
     6
 73
     3
 74
     0
 42
0.0000000001
 43
0.0000000001
 40
0.0
 40
0.0
 40
0.0
 40
1.0
 40
1.0
 40
1.0
 10
21.24467299999998
 20
7.940362999999991
 30
0.0
 10
11.64467999999999
 20
7.940362999999991
 30
0.0
 10
2.04468700000001
 20
7.940362999999991
 30
0.0
  0
ARC
  5
BD
330
1F
100
AcDbEntity
  8
DEFAULT
100
AcDbCircle
 10
13.593479
 20
30.528854
 30
0.0
 40
0.0590550000000007
100
AcDbArc
 50
90.0
 51
180.0
  0
ARC
  5
BE
330
1F
100
AcDbEntity
  8
DEFAULT
100
AcDbCircle
 10
25.01278299999996
 20
42.835067
 30
0.0
 40
0.2362200058949278
100
AcDbArc
 50
274.6604495706482
 51
0.0
  0
ARC
  5
BF
330
1F
100
AcDbEntity
  8
DEFAULT
100
AcDbCircle
 10
15.857258
 20
31.72964999999999
 30
0.0
 40
0.2362210911222643
100
AcDbArc
 50
0.0
 51
79.06229165365484
  0
SPLINE
  5
C0
330
1F
100
AcDbEntity
  8
DEFAULT
100
AcDbSpline
210
0.0
220
0.0
230
1.0
 70
    24
 71
     2
 72
     6
 73
     3
 74
     0
 42
0.0000000001
 43
0.0000000001
 40
0.0
 40
0.0
 40
0.0
 40
1.0
 40
1.0
 40
1.0
 10
13.534424
 20
56.543977
 30
0.0
 10
13.534424
 20
56.184607
 30
0.0
 10
13.534424
 20
55.825237
 30
0.0
  0
ARC
  5
C1
330
1F
100
AcDbEntity
  8
DEFAULT
100
AcDbCircle
 10
1.220473000000027
 20
35.342198
 30
0.0
 40
0.0590552853089243
100
AcDbArc
 50
0.0
 51
40.32221540193868
  0
SPLINE
  5
C2
330
1F
100
AcDbEntity
  8
DEFAULT
100
AcDbSpline
210
0.0
220
0.0
230
1.0
 70
     8
 71
     3
 72
    10
 73
     6
 74
     0
 42
0.0000000001
 43
0.0000000001
 40
0.0
 40
0.0
 40
0.0
 40
0.0
 40
0.3388354985206
 40
0.6721992487632
 40
1.0
 40
1.0
 40
1.0
 40
1.0
 10
11.79135884733097
 20
5.358363273839998
 30
0.0
 10
11.79135885117302
 20
5.349757269370002
 30
0.0
 10
11.78694557302703
 20
5.332366467059998
 30
0.0
 10
11.76868072027298
 20
5.313159951139994
 30
0.0
 10
11.75156027714701
 20
5.308363245379994
 30
0.0
 10
11.74323454166898
 20
5.30836325304
 30
0.0
  0
ARC
  5
C3
330
1F
100
AcDbEntity
  8
DEFAULT
100
AcDbCircle
 10
15.739148
 20
30.98160899999999
 30
0.0
 40
0.5364174439713716
100
AcDbArc
 50
342.2528339451158
 51
52.25831389290908
  0
ARC
  5
C4
330
1F
100
AcDbEntity
  8
DEFAULT
100
AcDbCircle
 10
13.770644
 20
30.233569
 30
0.0
 40
0.2362205042417922
100
AcDbArc
 50
180.0
 51
265.3395701367958
  0
SPLINE
  5
C5
330
1F
100
AcDbEntity
  8
DEFAULT
100
AcDbSpline
210
0.0
220
0.0
230
1.0
 70
    24
 71
     2
 72
     6
 73
     3
 74
     0
 42
0.0000000001
 43
0.0000000001
 40
0.0
 40
0.0
 40
0.0
 40
1.0
 40
1.0
 40
1.0
 10
1.240157000000011
 20
0.3149609999999967
 30
0.0
 10
1.259842499999991
 20
0.3149609999999967
 30
0.0
 10
1.279527999999971
 20
0.3149609999999967
 30
0.0
  0
SPLINE
  5
C6
330
1F
100
AcDbEntity
  8
DEFAULT
100
AcDbSpline
210
0.0
220
0.0
230
1.0
 70
    24
 71
     2
 72
     6
 73
     3
 74
     0
 42
0.0000000001
 43
0.0000000001
 40
0.0
 40
0.0
 40
0.0
 40
1.0
 40
1.0
 40
1.0
 10
11.26967299999995
 20
7.183363
 30
0.0
 10
11.20772599999998
 20
7.183363
 30
0.0
 10
11.145779
 20
7.183363
 30
0.0
  0
SPLINE
  5
C7
330
1F
100
AcDbEntity
  8
DEFAULT
100
AcDbSpline
210
0.0
220
0.0
230
1.0
 70
    24
 71
     2
 72
     6
 73
     3
 74
     0
 42
0.0000000001
 43
0.0000000001
 40
0.0
 40
0.0
 40
0.0
 40
1.0
 40
1.0
 40
1.0
 10
12.33092299999998
 20
18.59790399999999
 30
0.0
 10
12.33092299999998
 20
18.57760349999999
 30
0.0
 10
12.33092299999998
 20
18.55730299999999
 30
0.0
  0
ARC
  5
C8
330
1F
100
AcDbEntity
  8
DEFAULT
100
AcDbCircle
 10
-1.043305999999973
 20
52.11930399999999
 30
0.0
 40
0.2362205058949281
100
AcDbArc
 50
94.66044957064801
 51
180.0
  0
SPLINE
  5
C9
330
1F
100
AcDbEntity
  8
DEFAULT
100
AcDbSpline
210
0.0
220
0.0
230
1.0
 70
     8
 71
     3
 72
    11
 73
     7
 74
     0
 42
0.0000000001
 43
0.0000000001
 40
0.0
 40
0.0
 40
0.0
 40
0.0
 40
0.2857994331608
 40
0.5535232494026
 40
0.7900445159736
 40
1.0
 40
1.0
 40
1.0
 40
1.0
 10
12.36107689142898
 20
4.386700184839995
 30
0.0
 10
12.36092786754494
 20
4.376610725139997
 30
0.0
 10
12.35802930773599
 20
4.356988368529997
 30
0.0
 10
12.34606752398099
 20
4.33129974117
 30
0.0
 10
12.32760541035401
 20
4.313068125499996
 30
0.0
 10
12.31165372964296
 20
4.30836325304
 30
0.0
 10
12.30424094918999
 20
4.30836325304
 30
0.0
  0
ARC
  5
CA
330
1F
100
AcDbEntity
  8
DEFAULT
100
AcDbCircle
 10
12.69048299999997
 20
4.388362999999998
 30
0.0
 40
0.0799996434140348
100
AcDbArc
 50
270.0
 51
358.8088675681845
  0
SPLINE
  5
CB
330
1F
100
AcDbEntity
  8
DEFAULT
100
AcDbSpline
210
0.0
220
0.0
230
1.0
 70
     8
 71
     3
 72
     9
 73
     5
 74
     0
 42
0.0000000001
 43
0.0000000001
 40
0.0
 40
0.0
 40
0.0
 40
0.0
 40
1.0
 40
2.0
 40
2.0
 40
2.0
 40
2.0
 10
11.30981953136097
 20
4.293168325509995
 30
0.0
 10
11.27242066584932
 20
4.295527478744376
 30
0.0
 10
11.19745395624892
 20
4.295753612807104
 30
0.0
 10
11.12253677756314
 20
4.294547065527468
 30
0.0
 10
11.08509152595298
 20
4.293168325509995
 30
0.0
  0
SPLINE
  5
CC
330
1F
100
AcDbEntity
  8
DEFAULT
100
AcDbSpline
210
0.0
220
0.0
230
1.0
 70
     8
 71
     3
 72
    22
 73
    18
 74
     0
 42
0.0000000001
 43
0.0000000001
 40
0.0
 40
0.0
 40
0.0
 40
0.0
 40
0.1167500873722
 40
0.2243633665626
 40
0.3234661086496
 40
0.4146584866172
 40
0.4983865594995
 40
0.5751927987383
 40
0.6458186264644
 40
0.7102228255037
 40
0.767575789936
 40
0.8177842197205
 40
0.8615342953004
 40
0.9001349047782
 40
0.9349316304662
 40
0.9678090363997
 40
1.0
 40
1.0
 40
1.0
 40
1.0
 10
12.51310484938398
 20
4.386700184839995
 30
0.0
 10
12.51353166461098
 20
4.415597130050003
 30
0.0
 10
12.51484215950296
 20
4.471124282899993
 30
0.0
 10
12.51839901228294
 20
4.551121786989995
 30
0.0
 10
12.52342951928796
 20
4.624701759659999
 30
0.0
 10
12.52992204912198
 20
4.692231530320001
 30
0.0
 10
12.537892192122
 20
4.754044583039999
 30
0.0
 10
12.547399574944
 20
4.81048743385
 30
0.0
 10
12.55854238233496
 20
4.861751786580001
 30
0.0
 10
12.57139166195498
 20
4.907643676630002
 30
0.0
 10
12.58592094999096
 20
4.947708784859998
 30
0.0
 10
12.60202909312198
 20
4.981603659089998
 30
0.0
 10
12.61971024021494
 20
5.00937153449
 30
0.0
 10
12.63908693093799
 20
5.031156432060001
 30
0.0
 10
12.66040245470697
 20
5.046966309859997
 30
0.0
 10
12.68354773848398
 20
5.05641742652999
 30
0.0
 10
12.69974554389597
 20
5.05836325304
 30
0.0
 10
12.70771403450198
 20
5.05836325304
 30
0.0
  0
ARC
  5
CD
330
1F
100
AcDbEntity
  8
DEFAULT
100
AcDbCircle
 10
16.03934599999997
 20
0.5448949999999968
 30
0.0
 40
0.2362201456744931
100
AcDbArc
 50
283.2478113805403
 51
359.9999999999999
  0
SPLINE
  5
CE
330
1F
100
AcDbEntity
  8
DEFAULT
100
AcDbSpline
210
0.0
220
0.0
230
1.0
 70
    24
 71
     2
 72
     6
 73
     3
 74
     0
 42
0.0000000001
 43
0.0000000001
 40
0.0
 40
0.0
 40
0.0
 40
1.0
 40
1.0
 40
1.0
 10
-1.279526999999973
 20
50.91850699999999
 30
0.0
 10
-1.279526999999973
 20
50.77086449999999
 30
0.0
 10
-1.279526999999973
 20
50.62322199999998
 30
0.0
  0
ARC
  5
CF
330
1F
100
AcDbEntity
  8
DEFAULT
100
AcDbCircle
 10
-1.220472000000029
 20
35.342198
 30
0.0
 40
0.0590550000000005
100
AcDbArc
 50
90.0
 51
180.0
  0
SPLINE
  5
D0
330
1F
100
AcDbEntity
  8
DEFAULT
100
AcDbSpline
210
0.0
220
0.0
230
1.0
 70
    24
 71
     2
 72
     6
 73
     3
 74
     0
 42
0.0000000001
 43
0.0000000001
 40
0.0
 40
0.0
 40
0.0
 40
1.0
 40
1.0
 40
1.0
 10
12.70771399999995
 20
5.058363
 30
0.0
 10
12.70771399999995
 20
5.183363
 30
0.0
 10
12.70771399999995
 20
5.308363
 30
0.0
  0
SPLINE
  5
D1
330
1F
100
AcDbEntity
  8
DEFAULT
100
AcDbSpline
210
0.0
220
0.0
230
1.0
 70
    24
 71
     2
 72
     6
 73
     3
 74
     0
 42
0.0000000001
 43
0.0000000001
 40
0.0
 40
0.0
 40
0.0
 40
1.0
 40
1.0
 40
1.0
 10
12.55568599999998
 20
5.058363
 30
0.0
 10
12.55568599999998
 20
5.183363
 30
0.0
 10
12.55568599999998
 20
5.308363
 30
0.0
  0
SPLINE
  5
D2
330
1F
100
AcDbEntity
  8
DEFAULT
100
AcDbSpline
210
0.0
220
0.0
230
1.0
 70
     8
 71
     3
 72
    11
 73
     7
 74
     0
 42
0.0000000001
 43
0.0000000001
 40
0.0
 40
0.0
 40
0.0
 40
0.0
 40
0.2099554840264
 40
0.4464767505974
 40
0.7142005668392
 40
1.0
 40
1.0
 40
1.0
 40
1.0
 10
12.45626890714499
 20
4.30836325304
 30
0.0
 10
12.46368168759801
 20
4.30836325304
 30
0.0
 10
12.47963336830895
 20
4.313068125499996
 30
0.0
 10
12.49809548193599
 20
4.33129974117
 30
0.0
 10
12.51005726569196
 20
4.356988368529997
 30
0.0
 10
12.5129558255
 20
4.376610725139997
 30
0.0
 10
12.51310484938398
 20
4.386700184839995
 30
0.0
  0
CIRCLE
  5
D3
330
1F
100
AcDbEntity
  8
DEFAULT
100
AcDbCircle
 10
11.64467299999995
 20
43.583108
 30
0.0
 40
8.099999999999998
  0
SPLINE
  5
D4
330
1F
100
AcDbEntity
  8
DEFAULT
100
AcDbSpline
210
0.0
220
0.0
230
1.0
 70
     8
 71
     3
 72
    14
 73
    10
 74
     0
 42
0.0000000001
 43
0.0000000001
 40
0.0
 40
0.0
 40
0.0
 40
0.0
 40
0.06772835396254
 40
0.1354567079251
 40
0.2709134158502
 40
0.4063701237752
 40
0.5418268317003
 40
0.8127402475505
 40
1.0
 40
1.0
 40
1.0
 40
1.0
 10
13.04467327017397
 20
5.05836325304
 30
0.0
 10
13.02331910350699
 20
5.05836325304
 30
0.0
 10
12.98715246493902
 20
5.051821558269992
 30
0.0
 10
12.93073537468098
 20
5.022821981859991
 30
0.0
 10
12.88053411819897
 20
4.966252405009996
 30
0.0
 10
12.83884301050398
 20
4.879818512710003
 30
0.0
 10
12.80029053321101
 20
4.747537656669991
 30
0.0
 10
12.77809103118199
 20
4.58257077159999
 30
0.0
 10
12.77166346604196
 20
4.444540282969996
 30
0.0
 10
12.77046211213599
 20
4.386700249779992
 30
0.0
  0
SPLINE
  5
D5
330
1F
100
AcDbEntity
  8
DEFAULT
100
AcDbSpline
210
0.0
220
0.0
230
1.0
 70
     8
 71
     3
 72
    22
 73
    18
 74
     0
 42
0.0000000001
 43
0.0000000001
 40
0.0
 40
0.0
 40
0.0
 40
0.0
 40
0.03224395920562
 40
0.06516053164785
 40
0.09997471003698
 40
0.1385729705325
 40
0.1823155546999
 40
0.2325208678284
 40
0.289874924307
 40
0.3542798855111
 40
0.4249033629272
 40
0.5017027446386
 40
0.5854199733651
 40
0.6765973481372
 40
0.7756816683752
 40
0.8832736446482
 40
1.0
 40
1.0
 40
1.0
 40
1.0
 10
12.55568607654698
 20
5.05836325304
 30
0.0
 10
12.54770447080097
 20
5.05836325304
 30
0.0
 10
12.53148337909698
 20
5.056411249039996
 30
0.0
 10
12.50831787926501
 20
5.04693565318
 30
0.0
 10
12.48700225205397
 20
5.031103500429992
 30
0.0
 10
12.46763554723498
 20
5.009307719459997
 30
0.0
 10
12.44996527019299
 20
4.981537021180003
 30
0.0
 10
12.43386527210697
 20
4.947641034079993
 30
0.0
 10
12.41934180403098
 20
4.907574229559998
 30
0.0
 10
12.40649718243196
 20
4.861681220080001
 30
0.0
 10
12.395358510074
 20
4.810418153629996
 30
0.0
 10
12.38585482090701
 20
4.753979754629995
 30
0.0
 10
12.37788787136299
 20
4.692174490550002
 30
0.0
 10
12.37139793293596
 20
4.624655516399997
 30
0.0
 10
12.366369358437
 20
4.551089027419991
 30
0.0
 10
12.36281375238599
 20
4.47110722907
 30
0.0
 10
12.36150361971994
 20
4.415591244200002
 30
0.0
 10
12.36107689142898
 20
4.386700184839995
 30
0.0
  0
SPLINE
  5
D6
330
1F
100
AcDbEntity
  8
DEFAULT
100
AcDbSpline
210
0.0
220
0.0
230
1.0
 70
    24
 71
     2
 72
     6
 73
     3
 74
     0
 42
0.0000000001
 43
0.0000000001
 40
0.0
 40
0.0
 40
0.0
 40
1.0
 40
1.0
 40
1.0
 10
14.81395099999997
 20
55.825237
 30
0.0
 10
14.81395099999997
 20
56.184607
 30
0.0
 10
14.81395099999997
 20
56.543977
 30
0.0
  0
SPLINE
  5
D7
330
1F
100
AcDbEntity
  8
DEFAULT
100
AcDbSpline
210
0.0
220
0.0
230
1.0
 70
     8
 71
     3
 72
    13
 73
     9
 74
     0
 42
0.0000000001
 43
0.0000000001
 40
0.0
 40
0.0
 40
0.0
 40
0.0
 40
0.1983372897061
 40
0.382736114032
 40
0.5542088850058
 40
0.7136951690739
 40
0.8620461467553
 40
1.0
 40
1.0
 40
1.0
 40
1.0
 10
20.80501491027957
 20
7.18336325304
 30
0.0
 10
20.8097980908264
 20
7.18336325304
 30
0.0
 10
20.81902899018843
 20
7.183506443070002
 30
0.0
 10
20.83238223900611
 20
7.184122213699993
 30
0.0
 10
20.84477663486092
 20
7.185068733089992
 30
0.0
 10
20.85627174842938
 20
7.18630275052999
 30
0.0
 10
20.86692035756477
 20
7.187795552379995
 30
0.0
 10
20.87372212369951
 20
7.188994124969994
 30
0.0
 10
20.87698605863937
 20
7.189638580579995
 30
0.0
  0
SPLINE
  5
D8
330
1F
100
AcDbEntity
  8
DEFAULT
100
AcDbSpline
210
0.0
220
0.0
230
1.0
 70
    24
 71
     2
 72
     6
 73
     3
 74
     0
 42
0.0000000001
 43
0.0000000001
 40
0.0
 40
0.0
 40
0.0
 40
1.0
 40
1.0
 40
1.0
 10
10.87493599999999
 20
5.358362999999997
 30
0.0
 10
10.87493599999999
 20
6.334362999999996
 30
0.0
 10
10.87493599999999
 20
7.310362999999995
 30
0.0
  0
SPLINE
  5
D9
330
1F
100
AcDbEntity
  8
DEFAULT
100
AcDbSpline
210
0.0
220
0.0
230
1.0
 70
    24
 71
     2
 72
     6
 73
     3
 74
     0
 42
0.0000000001
 43
0.0000000001
 40
0.0
 40
0.0
 40
0.0
 40
1.0
 40
1.0
 40
1.0
 10
10.89467299999995
 20
1.824803000000003
 30
0.0
 10
10.89467299999995
 20
1.699803000000003
 30
0.0
 10
10.89467299999995
 20
1.574803000000003
 30
0.0
  0
SPLINE
  5
DA
330
1F
100
AcDbEntity
  8
DEFAULT
100
AcDbSpline
210
0.0
220
0.0
230
1.0
 70
     8
 71
     3
 72
    11
 73
     7
 74
     0
 42
0.0000000001
 43
0.0000000001
 40
0.0
 40
0.0
 40
0.0
 40
0.0
 40
0.2075532299286
 40
0.4418436459466
 40
0.7053076879961
 40
1.0
 40
1.0
 40
1.0
 40
1.0
 10
11.14577930326499
 20
7.18336325304
 30
0.0
 10
11.12691299612601
 20
7.18336325304
 30
0.0
 10
11.08675511500201
 20
7.185444161429999
 30
0.0
 10
11.02299647071499
 20
7.192246030159993
 30
0.0
 10
10.95162650155601
 20
7.202041154520003
 30
0.0
 10
10.90144316186701
 20
7.209501280349997
 30
0.0
 10
10.87493588772099
 20
7.213363253040001
 30
0.0
  0
SPLINE
  5
DB
330
1F
100
AcDbEntity
  8
DEFAULT
100
AcDbSpline
210
0.0
220
0.0
230
1.0
 70
     8
 71
     3
 72
    14
 73
    10
 74
     0
 42
0.0000000001
 43
0.0000000001
 40
0.0
 40
0.0
 40
0.0
 40
0.0
 40
0.06772835396254
 40
0.1354567079251
 40
0.2709134158502
 40
0.4063701237752
 40
0.5418268317003
 40
0.8127402475505
 40
1.0
 40
1.0
 40
1.0
 40
1.0
 10
10.24467272982599
 20
5.05836325304
 30
0.0
 10
10.26602689649297
 20
5.05836325304
 30
0.0
 10
10.30219353506101
 20
5.051821558269992
 30
0.0
 10
10.35861062531899
 20
5.022821981859991
 30
0.0
 10
10.408811881801
 20
4.966252405009996
 30
0.0
 10
10.45050298949599
 20
4.879818512710003
 30
0.0
 10
10.48905546678901
 20
4.747537656669991
 30
0.0
 10
10.51125496881798
 20
4.58257077159999
 30
0.0
 10
10.51768253395795
 20
4.444540282969996
 30
0.0
 10
10.51888388786398
 20
4.386700249779992
 30
0.0
  0
ARC
  5
DC
330
1F
100
AcDbEntity
  8
DEFAULT
100
AcDbCircle
 10
23.61718999999999
 20
1.195945999999992
 30
0.0
 40
0.7499994176200921
100
AcDbArc
 50
33.18794770287657
 51
83.9324215644768
  0
ARC
  5
DD
330
1F
100
AcDbEntity
  8
DEFAULT
100
AcDbCircle
 10
16.034424
 20
31.434365
 30
0.0
 40
0.0590545805575153
100
AcDbArc
 50
319.6778964960102
 51
0.0
  0
SPLINE
  5
DE
330
1F
100
AcDbEntity
  8
DEFAULT
100
AcDbSpline
210
0.0
220
0.0
230
1.0
 70
    24
 71
     2
 72
     6
 73
     3
 74
     0
 42
0.0000000001
 43
0.0000000001
 40
0.0
 40
0.0
 40
0.0
 40
1.0
 40
1.0
 40
1.0
 10
1.062500999999997
 20
36.77843399999999
 30
0.0
 10
0.0000009999999975
 20
36.77843399999999
 30
0.0
 10
-1.062499000000003
 20
36.77843399999999
 30
0.0
  0
ARC
  5
DF
330
1F
100
AcDbEntity
  8
DEFAULT
100
AcDbCircle
 10
-1.220472000000029
 20
50.91850699999999
 30
0.0
 40
0.0590550000000005
100
AcDbArc
 50
90.0
 51
180.0
  0
ARC
  5
E0
330
1F
100
AcDbEntity
  8
DEFAULT
100
AcDbCircle
 10
1.043307999999968
 20
50.62322199999998
 30
0.0
 40
0.2362200046778422
100
AcDbArc
 50
274.6604495706479
 51
344.2552071581238
  0
ARC
  5
E1
330
1F
100
AcDbEntity
  8
DEFAULT
100
AcDbCircle
 10
24.30343099999999
 20
1.644802999999996
 30
0.0
 40
0.070000154331804
100
AcDbArc
 50
213.1876810034019
 51
270.0
  0
ARC
  5
E2
330
1F
100
AcDbEntity
  8
DEFAULT
100
AcDbCircle
 10
25.23482100000001
 20
2.714978000000002
 30
0.0
 40
0.0599998134574723
100
AcDbArc
 50
2.000043803910955
 51
77.85422116720478
  0
ARC
  5
E3
330
1F
100
AcDbEntity
  8
DEFAULT
100
AcDbCircle
 10
11.00842299999999
 20
18.55730299999999
 30
0.0
 40
0.0500000000000007
100
AcDbArc
 50
180.0
 51
270.0
  0
SPLINE
  5
E4
330
1F
100
AcDbEntity
  8
DEFAULT
100
AcDbSpline
210
0.0
220
0.0
230
1.0
 70
    24
 71
     2
 72
     6
 73
     3
 74
     0
 42
0.0000000001
 43
0.0000000001
 40
0.0
 40
0.0
 40
0.0
 40
1.0
 40
1.0
 40
1.0
 10
10.01820099999998
 20
7.183363
 30
0.0
 10
6.251272999999998
 20
7.183363
 30
0.0
 10
2.484345000000019
 20
7.183363
 30
0.0
  0
SPLINE
  5
E5
330
1F
100
AcDbEntity
  8
DEFAULT
100
AcDbSpline
210
0.0
220
0.0
230
1.0
 70
    24
 71
     2
 72
     6
 73
     3
 74
     0
 42
0.0000000001
 43
0.0000000001
 40
0.0
 40
0.0
 40
0.0
 40
1.0
 40
1.0
 40
1.0
 10
1.944748000000004
 20
7.340362999999996
 30
0.0
 10
11.64467299999998
 20
7.340362999999996
 30
0.0
 10
21.34459799999996
 20
7.340362999999996
 30
0.0
  0
SPLINE
  5
E6
330
1F
100
AcDbEntity
  8
DEFAULT
100
AcDbSpline
210
0.0
220
0.0
230
1.0
 70
    24
 71
     2
 72
     6
 73
     3
 74
     0
 42
0.0000000001
 43
0.0000000001
 40
0.0
 40
0.0
 40
0.0
 40
1.0
 40
1.0
 40
1.0
 10
15.34090599999996
 20
30.62223899999999
 30
0.0
 10
14.43766499999998
 20
30.62223899999999
 30
0.0
 10
13.534424
 20
30.62223899999999
 30
0.0
  0
ARC
  5
E7
330
1F
100
AcDbEntity
  8
DEFAULT
100
AcDbCircle
 10
25.01278299999996
 20
44.331149
 30
0.0
 40
0.2362205042417923
100
AcDbArc
 50
0.0
 51
85.33957013679536
  0
SPLINE
  5
E8
330
1F
100
AcDbEntity
  8
DEFAULT
100
AcDbSpline
210
0.0
220
0.0
230
1.0
 70
     8
 71
     3
 72
    10
 73
     6
 74
     0
 42
0.0000000001
 43
0.0000000001
 40
0.0
 40
0.0
 40
0.0
 40
0.0
 40
0.3077322598062
 40
0.6415592093998
 40
1.0
 40
1.0
 40
1.0
 40
1.0
 10
2.412373941360613
 20
7.189638580579995
 30
0.0
 10
2.402742040489272
 20
7.191540374799999
 30
0.0
 10
2.382775913658463
 20
7.196085536870001
 30
0.0
 10
2.351929124351102
 20
7.204238708129992
 30
0.0
 10
2.330676696565376
 20
7.210250861239999
 30
0.0
 10
2.319672729826095
 20
7.213363253040001
 30
0.0
  0
SPLINE
  5
E9
330
1F
100
AcDbEntity
  8
DEFAULT
100
AcDbSpline
210
0.0
220
0.0
230
1.0
 70
    24
 71
     2
 72
     6
 73
     3
 74
     0
 42
0.0000000001
 43
0.0000000001
 40
0.0
 40
0.0
 40
0.0
 40
1.0
 40
1.0
 40
1.0
 10
12.55568599999998
 20
5.058363
 30
0.0
 10
11.64467299999998
 20
5.058363
 30
0.0
 10
10.73365999999999
 20
5.058363
 30
0.0
  0
CIRCLE
  5
EA
330
1F
100
AcDbEntity
  8
DEFAULT
100
AcDbCircle
 10
0.0
 20
0.0
 30
0.0
 40
1.0
  0
ARC
  5
EB
330
1F
100
AcDbEntity
  8
DEFAULT
100
AcDbCircle
 10
0.4044039999999995
 20
1.441068000000001
 30
0.0
 40
0.015625
100
AcDbArc
 50
90.0
 51
180.0
  0
ARC
  5
EC
330
1F
100
AcDbEntity
  8
DEFAULT
100
AcDbCircle
 10
16.034424
 20
30.528854
 30
0.0
 40
0.0590545805575153
100
AcDbArc
 50
0.0
 51
40.32210350398974
  0
ARC
  5
ED
330
1F
100
AcDbEntity
  8
DEFAULT
100
AcDbCircle
 10
1.225394999999992
 20
0.5448949999999968
 30
0.0
 40
0.2362201456744931
100
AcDbArc
 50
283.2478113805402
 51
359.9999999999999
  0
ARC
  5
EE
330
1F
100
AcDbEntity
  8
DEFAULT
100
AcDbCircle
 10
1.445988999999997
 20
1.441068000000001
 30
0.0
 40
0.015625
100
AcDbArc
 50
0.0
 51
90.0
  0
SPLINE
  5
EF
330
1F
100
AcDbEntity
  8
DEFAULT
100
AcDbSpline
210
0.0
220
0.0
230
1.0
 70
    24
 71
     2
 72
     6
 73
     3
 74
     0
 42
0.0000000001
 43
0.0000000001
 40
0.0
 40
0.0
 40
0.0
 40
1.0
 40
1.0
 40
1.0
 10
0.3887789999999995
 20
1.441068000000001
 30
0.0
 10
0.3887789999999995
 20
1.360298
 30
0.0
 10
0.3887789999999995
 20
1.279527999999999
 30
0.0
  0
SPLINE
  5
F0
330
1F
100
AcDbEntity
  8
DEFAULT
100
AcDbSpline
210
0.0
220
0.0
230
1.0
 70
    24
 71
     2
 72
     6
 73
     3
 74
     0
 42
0.0000000001
 43
0.0000000001
 40
0.0
 40
0.0
 40
0.0
 40
1.0
 40
1.0
 40
1.0
 10
0.5269549999999867
 20
1.279527999999999
 30
0.0
 10
0.5269549999999867
 20
1.222747499999997
 30
0.0
 10
0.5269549999999867
 20
1.165966999999995
 30
0.0
  0
SPLINE
  5
F1
330
1F
100
AcDbEntity
  8
DEFAULT
100
AcDbSpline
210
0.0
220
0.0
230
1.0
 70
    24
 71
     2
 72
     6
 73
     3
 74
     0
 42
0.0000000001
 43
0.0000000001
 40
0.0
 40
0.0
 40
0.0
 40
1.0
 40
1.0
 40
1.0
 10
0.5269549999999867
 20
1.279527999999999
 30
0.0
 10
0.2634774999999934
 20
1.279527999999999
 30
0.0
 10
0.0
 20
1.279527999999999
 30
0.0
  0
SPLINE
  5
F2
330
1F
100
AcDbEntity
  8
DEFAULT
100
AcDbSpline
210
0.0
220
0.0
230
1.0
 70
     8
 71
     3
 72
    11
 73
     7
 74
     0
 42
0.0000000001
 43
0.0000000001
 40
0.0
 40
0.0
 40
0.0
 40
0.0
 40
0.3238269159132
 40
0.6105068404741
 40
0.8343663280072
 40
1.0
 40
1.0
 40
1.0
 40
1.0
 10
10.87493588733599
 20
5.358363253039997
 30
0.0
 10
10.87493588733599
 20
5.351956947839994
 30
0.0
 10
10.87598930401498
 20
5.339830799970002
 30
0.0
 10
10.88075809098001
 20
5.323919441909993
 30
0.0
 10
10.88779696098101
 20
5.312228067829992
 30
0.0
 10
10.89534334821502
 20
5.30836325304
 30
0.0
 10
10.89862009823599
 20
5.30836325304
 30
0.0
  0
ARC
  5
F3
330
1F
100
AcDbEntity
  8
DEFAULT
100
AcDbCircle
 10
1.043307999999968
 20
35.046913
 30
0.0
 40
0.2362205042417924
100
AcDbArc
 50
274.6604298632044
 51
0.0
  0
SPLINE
  5
F4
330
1F
100
AcDbEntity
  8
DEFAULT
100
AcDbSpline
210
0.0
220
0.0
230
1.0
 70
    24
 71
     2
 72
     6
 73
     3
 74
     0
 42
0.0000000001
 43
0.0000000001
 40
0.0
 40
0.0
 40
0.0
 40
1.0
 40
1.0
 40
1.0
 10
13.75145099999997
 20
31.96508999999999
 30
0.0
 10
14.34010749999999
 20
31.96508999999999
 30
0.0
 10
14.928764
 20
31.96508999999999
 30
0.0
  0
ARC
  5
F5
330
1F
100
AcDbEntity
  8
DEFAULT
100
AcDbCircle
 10
-1.220472000000029
 20
36.24771
 30
0.0
 40
0.0590550000000005
100
AcDbArc
 50
180.0
 51
270.0
  0
ARC
  5
F6
330
1F
100
AcDbEntity
  8
DEFAULT
100
AcDbCircle
 10
16.19230699999997
 20
1.634802999999991
 30
0.0
 40
0.0600003445855202
100
AcDbArc
 50
270.0
 51
2.378430564960792
  0
SPLINE
  5
F7
330
1F
100
AcDbEntity
  8
DEFAULT
100
AcDbSpline
210
0.0
220
0.0
230
1.0
 70
    24
 71
     2
 72
     6
 73
     3
 74
     0
 42
0.0000000001
 43
0.0000000001
 40
0.0
 40
0.0
 40
0.0
 40
1.0
 40
1.0
 40
1.0
 10
0.5608579999999961
 20
51.76496400000001
 30
0.0
 10
-0.3298060000000191
 20
51.76496400000001
 30
0.0
 10
-1.220470000000034
 20
51.76496400000001
 30
0.0
  0
ARC
  5
F8
330
1F
100
AcDbEntity
  8
DEFAULT
100
AcDbCircle
 10
15.27512400000001
 20
1.634802999999991
 30
0.0
 40
0.0599999668541479
100
AcDbArc
 50
178.7651789988416
 51
270.0
  0
SPLINE
  5
F9
330
1F
100
AcDbEntity
  8
DEFAULT
100
AcDbSpline
210
0.0
220
0.0
230
1.0
 70
    24
 71
     2
 72
     6
 73
     3
 74
     0
 42
0.0000000001
 43
0.0000000001
 40
0.0
 40
0.0
 40
0.0
 40
1.0
 40
1.0
 40
1.0
 10
1.279527999999971
 20
35.342198
 30
0.0
 10
1.279527999999971
 20
35.1945555
 30
0.0
 10
1.279527999999971
 20
35.046913
 30
0.0
  0
SPLINE
  5
FA
330
1F
100
AcDbEntity
  8
DEFAULT
100
AcDbSpline
210
0.0
220
0.0
230
1.0
 70
     8
 71
     3
 72
     9
 73
     5
 74
     0
 42
0.0000000001
 43
0.0000000001
 40
0.0
 40
0.0
 40
0.0
 40
0.0
 40
1.0
 40
2.0
 40
2.0
 40
2.0
 40
2.0
 10
12.29973999999999
 20
2.44480999999999
 30
0.0
 10
12.28290840277015
 20
2.444689588788378
 30
0.0
 10
12.25099601404253
 20
2.431828037121946
 30
0.0
 10
12.22699576650592
 20
2.40809867929714
 30
0.0
 10
12.216683207458
 20
2.395019415479993
 30
0.0
  0
SPLINE
  5
FB
330
1F
100
AcDbEntity
  8
DEFAULT
100
AcDbSpline
210
0.0
220
0.0
230
1.0
 70
     8
 71
     3
 72
     9
 73
     5
 74
     0
 42
0.0000000001
 43
0.0000000001
 40
0.0
 40
0.0
 40
0.0
 40
0.0
 40
1.0
 40
2.0
 40
2.0
 40
2.0
 40
2.0
 10
12.216683207458
 20
2.395019415479993
 30
0.0
 10
12.15799745804918
 20
2.31704821536168
 30
0.0
 10
12.11167025673552
 20
2.128369349103266
 30
0.0
 10
12.05945415262397
 20
1.944326479944806
 30
0.0
 10
12.04210702713948
 20
1.849809978704997
 30
0.0
  0
SPLINE
  5
FC
330
1F
100
AcDbEntity
  8
DEFAULT
100
AcDbSpline
210
0.0
220
0.0
230
1.0
 70
     8
 71
     3
 72
     9
 73
     5
 74
     0
 42
0.0000000001
 43
0.0000000001
 40
0.0
 40
0.0
 40
0.0
 40
0.0
 40
1.0
 40
2.0
 40
2.0
 40
2.0
 40
2.0
 10
12.04210702713948
 20
1.849809978704997
 30
0.0
 10
12.04093361390642
 20
1.844767668119076
 30
0.0
 10
12.03795826881475
 20
1.835283664050067
 30
0.0
 10
12.03252057381729
 20
1.825587700925837
 30
0.0
 10
12.027082877152
 20
1.824803113729999
 30
0.0
  0
SPLINE
  5
FD
330
1F
100
AcDbEntity
  8
DEFAULT
100
AcDbSpline
210
0.0
220
0.0
230
1.0
 70
     8
 71
     3
 72
    19
 73
    15
 74
     0
 42
0.0000000001
 43
0.0000000001
 40
0.0
 40
0.0
 40
0.0
 40
0.0
 40
1.0
 40
2.0
 40
3.0
 40
4.0
 40
5.0
 40
6.0
 40
7.0
 40
8.0
 40
9.0
 40
10.0
 40
11.0
 40
12.0
 40
12.0
 40
12.0
 40
12.0
 10
16.14535871895998
 20
2.802828593320001
 30
0.0
 10
16.15539058906467
 20
2.781971903701063
 30
0.0
 10
16.10253045761777
 20
2.777805292678735
 30
0.0
 10
16.0493577281058
 20
2.775711662906176
 30
0.0
 10
15.98908095139046
 20
2.7747076247107
 30
0.0
 10
15.93069854690725
 20
2.773935708666855
 30
0.0
 10
15.87180333123302
 20
2.773604088329989
 30
0.0
 10
15.81304317329153
 20
2.77363785246682
 30
0.0
 10
15.75424961049379
 20
2.7740503774762
 30
0.0
 10
15.69546282224911
 20
2.774791845073636
 30
0.0
 10
15.63670358844212
 20
2.775984465199912
 30
0.0
 10
15.57786074136578
 20
2.777139962624247
 30
0.0
 10
15.51955636988691
 20
2.784460552364976
 30
0.0
 10
15.4810371643797
 20
2.793346281623755
 30
0.0
 10
15.46377506982998
 20
2.802828593329991
 30
0.0
  0
SPLINE
  5
FE
330
1F
100
AcDbEntity
  8
DEFAULT
100
AcDbSpline
210
0.0
220
0.0
230
1.0
 70
     8
 71
     3
 72
    10
 73
     6
 74
     0
 42
0.0000000001
 43
0.0000000001
 40
-1.0
 40
-1.0
 40
-1.0
 40
-1.0
 40
-0.7651359920157
 40
-0.4197938519476
 40
0.0
 40
0.0
 40
0.0
 40
0.0
 10
11.06877335018197
 20
3.923283865949998
 30
0.0
 10
11.077521115031
 20
3.923721259849998
 30
0.0
 10
11.09851363456897
 20
3.936317482669992
 30
0.0
 10
11.113258027808
 20
3.971846305079993
 30
0.0
 10
11.11626886191698
 20
4.000667157530003
 30
0.0
 10
11.11555775761946
 20
4.016346911900001
 30
0.0
  0
SPLINE
  5
FF
330
1F
100
AcDbEntity
  8
DEFAULT
100
AcDbSpline
210
0.0
220
0.0
230
1.0
 70
    24
 71
     2
 72
     6
 73
     3
 74
     0
 42
0.0000000001
 43
0.0000000001
 40
0.0
 40
0.0
 40
0.0
 40
1.0
 40
1.0
 40
1.0
 10
11.11555775761946
 20
4.016346911900001
 30
0.0
 10
11.11747123866598
 20
4.125824953195
 30
0.0
 10
11.11938471971251
 20
4.235302994489999
 30
0.0
  0
SPLINE
  5
100
330
1F
100
AcDbEntity
  8
DEFAULT
100
AcDbSpline
210
0.0
220
0.0
230
1.0
 70
     8
 71
     3
 72
    10
 73
     6
 74
     0
 42
0.0000000001
 43
0.0000000001
 40
0.0
 40
0.0
 40
0.0
 40
0.0
 40
0.4067300435643714
 40
0.7466630140210986
 40
1.0
 40
1.0
 40
1.0
 40
1.0
 10
11.11938471971251
 20
4.235302994489999
 30
0.0
 10
11.1189474192509
 20
4.24504808210493
 30
0.0
 10
11.11564589409022
 20
4.262906743560308
 30
0.0
 10
11.104685014854
 20
4.284770181919995
 30
0.0
 10
11.09116350455298
 20
4.29294843564
 30
0.0
 10
11.08509152564801
 20
4.293168346969992
 30
0.0
  0
SPLINE
  5
101
330
1F
100
AcDbEntity
  8
DEFAULT
100
AcDbSpline
210
0.0
220
0.0
230
1.0
 70
    24
 71
     2
 72
     6
 73
     3
 74
     0
 42
0.0000000001
 43
0.0000000001
 40
0.0
 40
0.0
 40
0.0
 40
1.0
 40
1.0
 40
1.0
 10
1.210630999999978
 20
1.574803000000003
 30
0.0
 10
1.210630999999978
 20
1.515748000000002
 30
0.0
 10
1.210630999999978
 20
1.456693000000001
 30
0.0
  0
SPLINE
  5
102
330
1F
100
AcDbEntity
  8
DEFAULT
100
AcDbSpline
210
0.0
220
0.0
230
1.0
 70
    24
 71
     2
 72
     6
 73
     3
 74
     0
 42
0.0000000001
 43
0.0000000001
 40
0.0
 40
0.0
 40
0.0
 40
1.0
 40
1.0
 40
1.0
 10
16.27556499999997
 20
1.441068000000001
 30
0.0
 10
16.27556499999997
 20
0.9929814999999991
 30
0.0
 10
16.27556499999997
 20
0.5448949999999968
 30
0.0
  0
SPLINE
  5
103
330
1F
100
AcDbEntity
  8
DEFAULT
100
AcDbSpline
210
0.0
220
0.0
230
1.0
 70
    24
 71
     2
 72
     6
 73
     3
 74
     0
 42
0.0000000001
 43
0.0000000001
 40
0.0
 40
0.0
 40
0.0
 40
1.0
 40
1.0
 40
1.0
 10
16.093479
 20
0.3149609999999967
 30
0.0
 10
16.093479
 20
0.1574804999999984
 30
0.0
 10
16.093479
 20
0.0
 30
0.0
  0
SPLINE
  5
104
330
1F
100
AcDbEntity
  8
DEFAULT
100
AcDbSpline
210
0.0
220
0.0
230
1.0
 70
    24
 71
     2
 72
     6
 73
     3
 74
     0
 42
0.0000000001
 43
0.0000000001
 40
0.0
 40
0.0
 40
0.0
 40
1.0
 40
1.0
 40
1.0
 10
16.05410799999999
 20
0.3149609999999967
 30
0.0
 10
16.07379349999999
 20
0.3149609999999967
 30
0.0
 10
16.093479
 20
0.3149609999999967
 30
0.0
  0
CIRCLE
  5
105
330
1F
100
AcDbEntity
  8
DEFAULT
100
AcDbCircle
 10
14.81395099999997
 20
0.0
 30
0.0
 40
1.0
  0
SPLINE
  5
106
330
1F
100
AcDbEntity
  8
DEFAULT
100
AcDbSpline
210
0.0
220
0.0
230
1.0
 70
     8
 71
     3
 72
     9
 73
     5
 74
     0
 42
0.0000000001
 43
0.0000000001
 40
0.0
 40
0.0
 40
0.0
 40
0.0
 40
1.0
 40
2.0
 40
2.0
 40
2.0
 40
2.0
 10
11.08509152595298
 20
4.293168325509995
 30
0.0
 10
9.378121944078202
 20
4.22780780657672
 30
0.0
 10
5.971837445404446
 20
3.907563459878986
 30
0.0
 10
2.618676990975757
 20
3.229196002726539
 30
0.0
 10
0.9645493480250025
 20
2.802828593320001
 30
0.0
  0
SPLINE
  5
107
330
1F
100
AcDbEntity
  8
DEFAULT
100
AcDbSpline
210
0.0
220
0.0
230
1.0
 70
     8
 71
     3
 72
     9
 73
     5
 74
     0
 42
0.0000000001
 43
0.0000000001
 40
0.0
 40
0.0
 40
0.0
 40
0.0
 40
1.0
 40
2.0
 40
2.0
 40
2.0
 40
2.0
 10
0.5382179999999721
 20
2.801450000000003
 30
0.0
 10
2.18667503342698
 20
3.245090324252757
 30
0.0
 10
5.533680975848881
 20
3.946407243978669
 30
0.0
 10
8.939548176160429
 20
4.258948954957404
 30
0.0
 10
10.64602299864913
 20
4.308404044493145
 30
0.0
  0
SPLINE
  5
108
330
1F
100
AcDbEntity
  8
DEFAULT
100
AcDbSpline
210
0.0
220
0.0
230
1.0
 70
     8
 71
     3
 72
     9
 73
     5
 74
     0
 42
0.0000000001
 43
0.0000000001
 40
0.0
 40
0.0
 40
0.0
 40
0.0
 40
1.0
 40
2.0
 40
2.0
 40
2.0
 40
2.0
 10
14.35237336675999
 20
3.860380560439992
 30
0.0
 10
16.04089550961362
 20
3.768730640890041
 30
0.0
 10
19.41111336572442
 20
3.460611308546618
 30
0.0
 10
22.74987742620954
 20
2.907611522435872
 30
0.0
 10
24.40695735699995
 20
2.570590943529993
 30
0.0
  0
SPLINE
  5
109
330
1F
100
AcDbEntity
  8
DEFAULT
100
AcDbSpline
210
0.0
220
0.0
230
1.0
 70
     8
 71
     3
 72
    14
 73
    10
 74
     0
 42
0.0000000001
 43
0.0000000001
 40
0.0
 40
0.0
 40
0.0
 40
0.0
 40
1.0
 40
2.0
 40
3.0
 40
4.0
 40
5.0
 40
6.0
 40
7.0
 40
7.0
 40
7.0
 40
7.0
 10
9.993865551113004
 20
2.442549823210001
 30
0.0
 10
10.03641527894627
 20
2.438383892167906
 30
0.0
 10
10.12036929981588
 20
2.418421551368212
 30
0.0
 10
10.23426989795541
 20
2.357671458785404
 30
0.0
 10
10.33252718899342
 20
2.273794634603874
 30
0.0
 10
10.40927935413174
 20
2.170648251048789
 30
0.0
 10
10.48009418830515
 20
2.06375233725494
 30
0.0
 10
10.55232297127577
 20
1.957755503676438
 30
0.0
 10
10.60066320301377
 20
1.887193059199703
 30
0.0
 10
10.62260499999996
 20
1.850492000000003
 30
0.0
  0
SPLINE
  5
10A
330
1F
100
AcDbEntity
  8
DEFAULT
100
AcDbSpline
210
0.0
220
0.0
230
1.0
 70
     8
 71
     2
 72
    18
 73
    15
 74
     0
 42
0.0000000001
 43
0.0000000001
 40
0.0
 40
0.0
 40
0.0
 40
1.001676237485527
 40
1.001676237485527
 40
2.003352474971055
 40
2.003352474971055
 40
3.005028712456582
 40
3.005028712456582
 40
4.00670494994211
 40
4.00670494994211
 40
5.008381187427638
 40
5.008381187427638
 40
6.010057424913165
 40
6.010057424913165
 40
7.0
 40
7.0
 40
7.0
 10
10.62260499999996
 20
1.850492000000003
 30
0.0
 10
10.62577699999997
 20
1.8469525
 30
0.0
 10
10.62894899999998
 20
1.843412999999998
 30
0.0
 10
10.632565
 20
1.84037
 30
0.0
 10
10.63618100000002
 20
1.837327000000002
 30
0.0
 10
10.640175
 20
1.834837
 30
0.0
 10
10.64416899999998
 20
1.832346999999999
 30
0.0
 10
10.64842349999998
 20
1.830472499999999
 30
0.0
 10
10.65267799999998
 20
1.828598
 30
0.0
 10
10.65711549999997
 20
1.827355999999995
 30
0.0
 10
10.66155299999997
 20
1.82611399999999
 30
0.0
 10
10.66613249999997
 20
1.82551449999999
 30
0.0
 10
10.67071199999998
 20
1.82491499999999
 30
0.0
 10
10.67262974999997
 20
1.824858999999996
 30
0.0
 10
10.67454749999996
 20
1.824803000000003
 30
0.0
  0
SPLINE
  5
10B
330
1F
100
AcDbEntity
  8
DEFAULT
100
AcDbSpline
210
0.0
220
0.0
230
1.0
 70
    24
 71
     2
 72
     6
 73
     3
 74
     0
 42
0.0000000001
 43
0.0000000001
 40
0.0
 40
0.0
 40
0.0
 40
1.0
 40
1.0
 40
1.0
 10
10.67454749999996
 20
1.824803000000003
 30
0.0
 10
11.75328924999997
 20
1.824803005882146
 30
0.0
 10
12.83203099999997
 20
1.824803011764288
 30
0.0
  0
ARC
  5
10C
330
1F
100
AcDbEntity
  8
DEFAULT
100
AcDbCircle
 10
12.83203097477207
 20
1.89480298823571
 30
0.0
 40
0.0699999764714284
100
AcDbArc
 50
270.0000206493471
 51
320.0011985761656
  0
SPLINE
  5
10D
330
1F
100
AcDbEntity
  8
DEFAULT
100
AcDbSpline
210
0.0
220
0.0
230
1.0
 70
    24
 71
     2
 72
     6
 73
     3
 74
     0
 42
0.0000000001
 43
0.0000000001
 40
0.0
 40
0.0
 40
0.0
 40
1.0
 40
1.0
 40
1.0
 10
12.88565500901211
 20
1.849808992438241
 30
0.0
 10
13.02288745203572
 20
2.013356040246912
 30
0.0
 10
13.16011989505932
 20
2.176903088055582
 30
0.0
  0
ARC
  5
10E
330
1F
100
AcDbEntity
  8
DEFAULT
100
AcDbCircle
 10
13.73465250263149
 20
1.694814165417
 30
0.0
 40
0.7499982976610524
100
AcDbArc
 50
113.1114806271858
 51
140.0000688491951
  0
SPLINE
  5
10F
330
1F
100
AcDbEntity
  8
DEFAULT
100
AcDbSpline
210
0.0
220
0.0
230
1.0
 70
     8
 71
     3
 72
     9
 73
     5
 74
     0
 42
0.0000000001
 43
0.0000000001
 40
-2.0
 40
-2.0
 40
-2.0
 40
-2.0
 40
-1.0
 40
0.0
 40
0.0
 40
0.0
 40
0.0
 10
9.993865551113004
 20
2.442549823210001
 30
0.0
 10
8.647643317228358
 20
2.454920364761605
 30
0.0
 10
5.954272633150367
 20
2.37872904503017
 30
0.0
 10
3.245585045562507
 20
2.137066928192624
 30
0.0
 10
1.913233083400485
 20
1.94313179884
 30
0.0
  0
SPLINE
  5
110
330
1F
100
AcDbEntity
  8
DEFAULT
100
AcDbSpline
210
0.0
220
0.0
230
1.0
 70
    12
 71
     3
 72
    22
 73
    18
 74
     0
 42
0.0000000001
 43
0.0000000001
 40
-9.762480602687548
 40
-9.762480602687548
 40
-9.762480602687548
 40
-9.762480602687548
 40
-8.762480221164985
 40
-7.762480602687548
 40
-7.762480602687548
 40
-7.762480602687548
 40
-6.762483223644307
 40
-5.762480602687548
 40
-5.762480602687548
 40
-5.762480602687548
 40
-4.71238898038469
 40
-4.71238898038469
 40
-4.71238898038469
 40
-3.904808554698578
 40
-3.904808554698578
 40
-3.904808554698578
 40
-3.097228129012466
 40
-3.097228129012466
 40
-3.097228129012466
 40
-3.097228129012466
 10
1.913233083400485
 20
1.94313179884
 30
0.0
 41
1.0
 10
1.821879763048685
 20
1.929834548186747
 30
0.0
 41
1.0
 10
1.62770637989388
 20
1.841701474365493
 30
0.0
 41
1.0
 10
1.512447519802379
 20
1.693038631826994
 30
0.0
 41
1.0
 10
1.469762500000002
 20
1.611790499999998
 30
0.0
 41
1.0
 10
1.463773803765662
 20
1.601039310068984
 30
0.0
 41
1.0
 10
1.446710431666872
 20
1.582013823979253
 30
0.0
 41
1.0
 10
1.422026032382121
 20
1.575069698283471
 30
0.0
 41
1.0
 10
1.409711999999956
 20
1.574803000000003
 30
0.0
 41
1.0
 10
1.091279166666652
 20
1.574802996943049
 30
0.0
 41
1.0
 10
0.772846333333348
 20
1.574802993886109
 30
0.0
 41
1.0
 10
0.4544134999999869
 20
1.57480299082917
 30
0.0
 41
1.0
 10
0.4378038921702808
 20
1.574798421360472
 30
0.0
 41
0.9463675853276875
 10
0.4225287087393971
 20
1.581321293756043
 30
0.0
 41
0.9463675853276875
 10
0.4110456846232751
 20
1.593322095824348
 30
0.0
 41
1.0
 10
0.3995626605070245
 20
1.605322897892655
 30
0.0
 41
0.9463675853276875
 10
0.3937193826388048
 20
1.620870733654899
 30
0.0
 41
0.9463675853276875
 10
0.3944560183236376
 20
1.637463999186551
 30
0.0
 41
1.0
  0
SPLINE
  5
111
330
1F
100
AcDbEntity
  8
DEFAULT
100
AcDbSpline
210
0.0
220
0.0
230
1.0
 70
    24
 71
     2
 72
     6
 73
     3
 74
     0
 42
0.0000000001
 43
0.0000000001
 40
0.0
 40
0.0
 40
0.0
 40
1.0
 40
1.0
 40
1.0
 10
24.60924
 20
1.574803000000003
 30
0.0
 10
24.60924
 20
1.515748000000002
 30
0.0
 10
24.60924
 20
1.456693000000001
 30
0.0
  0
SPLINE
  5
112
330
1F
100
AcDbEntity
  8
DEFAULT
100
AcDbSpline
210
0.0
220
0.0
230
1.0
 70
    24
 71
     2
 72
     6
 73
     3
 74
     0
 42
0.0000000001
 43
0.0000000001
 40
0.0
 40
0.0
 40
0.0
 40
1.0
 40
1.0
 40
1.0
 10
11.26967299999995
 20
6.733362999999997
 30
0.0
 10
11.26967299999995
 20
6.973362999999999
 30
0.0
 10
11.26967299999995
 20
7.213363000000001
 30
0.0
  0
SPLINE
  5
113
330
1F
100
AcDbEntity
  8
DEFAULT
100
AcDbSpline
210
0.0
220
0.0
230
1.0
 70
    24
 71
     2
 72
     6
 73
     3
 74
     0
 42
0.0000000001
 43
0.0000000001
 40
0.0
 40
0.0
 40
0.0
 40
1.0
 40
1.0
 40
1.0
 10
-1.220470000000034
 20
50.97756199999999
 30
0.0
 10
-0.3298060000000191
 20
50.97756199999999
 30
0.0
 10
0.5608579999999961
 20
50.97756199999999
 30
0.0
  0
SPLINE
  5
114
330
1F
100
AcDbEntity
  8
DEFAULT
100
AcDbSpline
210
0.0
220
0.0
230
1.0
 70
    24
 71
     2
 72
     6
 73
     3
 74
     0
 42
0.0000000001
 43
0.0000000001
 40
0.0
 40
0.0
 40
0.0
 40
1.0
 40
1.0
 40
1.0
 10
22.90697599999999
 20
42.599628
 30
0.0
 10
23.96947599999999
 20
42.599628
 30
0.0
 10
25.03197599999999
 20
42.599628
 30
0.0
  0
SPLINE
  5
115
330
1F
100
AcDbEntity
  8
DEFAULT
100
AcDbSpline
210
0.0
220
0.0
230
1.0
 70
    24
 71
     2
 72
     6
 73
     3
 74
     0
 42
0.0000000001
 43
0.0000000001
 40
0.0
 40
0.0
 40
0.0
 40
1.0
 40
1.0
 40
1.0
 10
2.319673000000023
 20
7.310362999999995
 30
0.0
 10
2.319673000000023
 20
7.261862999999998
 30
0.0
 10
2.319673000000023
 20
7.213363000000001
 30
0.0
  0
SPLINE
  5
116
330
1F
100
AcDbEntity
  8
DEFAULT
100
AcDbSpline
210
0.0
220
0.0
230
1.0
 70
    24
 71
     2
 72
     6
 73
     3
 74
     0
 42
0.0000000001
 43
0.0000000001
 40
0.0
 40
0.0
 40
0.0
 40
1.0
 40
1.0
 40
1.0
 10
16.093479
 20
31.72964999999999
 30
0.0
 10
16.093479
 20
31.5820075
 30
0.0
 10
16.093479
 20
31.434365
 30
0.0
  0
SPLINE
  5
117
330
1F
100
AcDbEntity
  8
DEFAULT
100
AcDbSpline
210
0.0
220
0.0
230
1.0
 70
    24
 71
     2
 72
     6
 73
     3
 74
     0
 42
0.0000000001
 43
0.0000000001
 40
0.0
 40
0.0
 40
0.0
 40
1.0
 40
1.0
 40
1.0
 10
13.534424
 20
30.528854
 30
0.0
 10
13.534424
 20
30.3812115
 30
0.0
 10
13.534424
 20
30.233569
 30
0.0
  0
SPLINE
  5
118
330
1F
100
AcDbEntity
  8
DEFAULT
100
AcDbSpline
210
0.0
220
0.0
230
1.0
 70
    24
 71
     2
 72
     6
 73
     3
 74
     0
 42
0.0000000001
 43
0.0000000001
 40
0.0
 40
0.0
 40
0.0
 40
1.0
 40
1.0
 40
1.0
 10
13.75145099999997
 20
55.201127
 30
0.0
 10
14.34012149999998
 20
55.201127
 30
0.0
 10
14.92879199999999
 20
55.201127
 30
0.0
  0
SPLINE
  5
119
330
1F
100
AcDbEntity
  8
DEFAULT
100
AcDbSpline
210
0.0
220
0.0
230
1.0
 70
    24
 71
     2
 72
     6
 73
     3
 74
     0
 42
0.0000000001
 43
0.0000000001
 40
0.0
 40
0.0
 40
0.0
 40
1.0
 40
1.0
 40
1.0
 10
25.18010599999997
 20
1.574803000000003
 30
0.0
 10
25.18010599999997
 20
1.515748000000002
 30
0.0
 10
25.18010599999997
 20
1.456693000000001
 30
0.0
  0
SPLINE
  5
11A
330
1F
100
AcDbEntity
  8
DEFAULT
100
AcDbSpline
210
0.0
220
0.0
230
1.0
 70
    24
 71
     2
 72
     6
 73
     3
 74
     0
 42
0.0000000001
 43
0.0000000001
 40
0.0
 40
0.0
 40
0.0
 40
1.0
 40
1.0
 40
1.0
 10
12.28092299999997
 20
18.50730299999999
 30
0.0
 10
11.64467299999998
 20
18.50730299999999
 30
0.0
 10
11.00842299999999
 20
18.50730299999999
 30
0.0
  0
SPLINE
  5
11B
330
1F
100
AcDbEntity
  8
DEFAULT
100
AcDbSpline
210
0.0
220
0.0
230
1.0
 70
    12
 71
     2
 72
     8
 73
     5
 74
     0
 42
0.0000000001
 43
0.0000000001
 40
0.6084078194389045
 40
0.6084078194389045
 40
0.6084078194389045
 40
1.405008326934524
 40
1.405008326934524
 40
2.405008326934524
 40
2.405008326934524
 40
2.405008326934524
 10
9.379957638875055
 20
5.32978074845785
 30
0.0
 41
1.0
 10
8.789919629249638
 20
6.089454019238924
 30
0.0
 41
0.921721575516506
 10
7.94463300000001
 20
6.183374000000001
 30
0.0
 41
1.0
 10
5.707898999999998
 20
6.43189799999999
 30
0.0
 41
1.0
 10
3.471491999999955
 20
6.683363
 30
0.0
 41
1.0
  0
SPLINE
  5
11C
330
1F
100
AcDbEntity
  8
DEFAULT
100
AcDbSpline
210
0.0
220
0.0
230
1.0
 70
    24
 71
     2
 72
     6
 73
     3
 74
     0
 42
0.0000000001
 43
0.0000000001
 40
0.0
 40
0.0
 40
0.0
 40
1.0
 40
1.0
 40
1.0
 10
10.69467300000002
 20
16.07480299999999
 30
0.0
 10
11.64467300000001
 20
16.07480299999999
 30
0.0
 10
12.594673
 20
16.07480299999999
 30
0.0
  0
SPLINE
  5
11D
330
1F
100
AcDbEntity
  8
DEFAULT
100
AcDbSpline
210
0.0
220
0.0
230
1.0
 70
    24
 71
     2
 72
     6
 73
     3
 74
     0
 42
0.0000000001
 43
0.0000000001
 40
0.0
 40
0.0
 40
0.0
 40
1.0
 40
1.0
 40
1.0
 10
15.45371499999999
 20
1.574803000000003
 30
0.0
 10
15.45371499999999
 20
1.515748000000002
 30
0.0
 10
15.45371499999999
 20
1.456693000000001
 30
0.0
  0
SPLINE
  5
11E
330
1F
100
AcDbEntity
  8
DEFAULT
100
AcDbSpline
210
0.0
220
0.0
230
1.0
 70
    24
 71
     2
 72
     6
 73
     3
 74
     0
 42
0.0000000001
 43
0.0000000001
 40
0.0
 40
0.0
 40
0.0
 40
1.0
 40
1.0
 40
1.0
 10
10.21354400000001
 20
7.310362999999995
 30
0.0
 10
10.21354400000001
 20
6.334362999999996
 30
0.0
 10
10.21354400000001
 20
5.358362999999997
 30
0.0
  0
SPLINE
  5
11F
330
1F
100
AcDbEntity
  8
DEFAULT
100
AcDbSpline
210
0.0
220
0.0
230
1.0
 70
    24
 71
     2
 72
     6
 73
     3
 74
     0
 42
0.0000000001
 43
0.0000000001
 40
0.0
 40
0.0
 40
0.0
 40
1.0
 40
1.0
 40
1.0
 10
10.58163199999996
 20
5.058363
 30
0.0
 10
10.58163199999996
 20
5.183363
 30
0.0
 10
10.58163199999996
 20
5.308363
 30
0.0
  0
SPLINE
  5
120
330
1F
100
AcDbEntity
  8
DEFAULT
100
AcDbSpline
210
0.0
220
0.0
230
1.0
 70
    24
 71
     2
 72
     6
 73
     3
 74
     0
 42
0.0000000001
 43
0.0000000001
 40
0.0
 40
0.0
 40
0.0
 40
1.0
 40
1.0
 40
1.0
 10
13.534424
 20
31.34097999999999
 30
0.0
 10
13.534424
 20
30.98160949999999
 30
0.0
 10
13.534424
 20
30.62223899999999
 30
0.0
  0
SPLINE
  5
121
330
1F
100
AcDbEntity
  8
DEFAULT
100
AcDbSpline
210
0.0
220
0.0
230
1.0
 70
    24
 71
     2
 72
     6
 73
     3
 74
     0
 42
0.0000000001
 43
0.0000000001
 40
0.0
 40
0.0
 40
0.0
 40
1.0
 40
1.0
 40
1.0
 10
13.534424
 20
31.72964999999999
 30
0.0
 10
13.534424
 20
31.5820075
 30
0.0
 10
13.534424
 20
31.434365
 30
0.0
  0
SPLINE
  5
122
330
1F
100
AcDbEntity
  8
DEFAULT
100
AcDbSpline
210
0.0
220
0.0
230
1.0
 70
    24
 71
     2
 72
     6
 73
     3
 74
     0
 42
0.0000000001
 43
0.0000000001
 40
0.0
 40
0.0
 40
0.0
 40
1.0
 40
1.0
 40
1.0
 10
1.99472099999997
 20
6.683363
 30
0.0
 10
2.733106499999963
 20
6.683363
 30
0.0
 10
3.471491999999955
 20
6.683363
 30
0.0
  0
SPLINE
  5
123
330
1F
100
AcDbEntity
  8
DEFAULT
100
AcDbSpline
210
0.0
220
0.0
230
1.0
 70
    24
 71
     2
 72
     6
 73
     3
 74
     0
 42
0.0000000001
 43
0.0000000001
 40
0.0
 40
0.0
 40
0.0
 40
1.0
 40
1.0
 40
1.0
 10
10.69467300000002
 20
16.07480299999999
 30
0.0
 10
10.69467300000002
 20
12.00758299999999
 30
0.0
 10
10.69467300000002
 20
7.940362999999991
 30
0.0
  0
SPLINE
  5
124
330
1F
100
AcDbEntity
  8
DEFAULT
100
AcDbSpline
210
0.0
220
0.0
230
1.0
 70
    24
 71
     2
 72
     6
 73
     3
 74
     0
 42
0.0000000001
 43
0.0000000001
 40
0.0
 40
0.0
 40
0.0
 40
1.0
 40
1.0
 40
1.0
 10
10.24467299999998
 20
5.058363
 30
0.0
 10
10.24467299999998
 20
5.183363
 30
0.0
 10
10.24467299999998
 20
5.308363
 30
0.0
  0
SPLINE
  5
125
330
1F
100
AcDbEntity
  8
DEFAULT
100
AcDbSpline
210
0.0
220
0.0
230
1.0
 70
    24
 71
     2
 72
     6
 73
     3
 74
     0
 42
0.0000000001
 43
0.0000000001
 40
0.0
 40
0.0
 40
0.0
 40
1.0
 40
1.0
 40
1.0
 10
3.863415999999972
 20
20.64980299999999
 30
0.0
 10
11.64467249999998
 20
20.64980299999999
 30
0.0
 10
19.425929
 20
20.64980299999999
 30
0.0
  0
SPLINE
  5
126
330
1F
100
AcDbEntity
  8
DEFAULT
100
AcDbSpline
210
0.0
220
0.0
230
1.0
 70
    24
 71
     2
 72
     6
 73
     3
 74
     0
 42
0.0000000001
 43
0.0000000001
 40
0.0
 40
0.0
 40
0.0
 40
1.0
 40
1.0
 40
1.0
 10
12.01967299999995
 20
7.310362999999995
 30
0.0
 10
12.01967299999995
 20
7.261862999999998
 30
0.0
 10
12.01967299999995
 20
7.213363000000001
 30
0.0
  0
SPLINE
  5
127
330
1F
100
AcDbEntity
  8
DEFAULT
100
AcDbSpline
210
0.0
220
0.0
230
1.0
 70
    24
 71
     2
 72
     6
 73
     3
 74
     0
 42
0.0000000001
 43
0.0000000001
 40
0.0
 40
0.0
 40
0.0
 40
1.0
 40
1.0
 40
1.0
 10
10.95842299999998
 20
18.59790399999999
 30
0.0
 10
10.95842299999998
 20
18.57760349999999
 30
0.0
 10
10.95842299999998
 20
18.55730299999999
 30
0.0
  0
ARC
  5
128
330
1F
100
AcDbEntity
  8
DEFAULT
100
AcDbCircle
 10
12.28092299999997
 20
18.55730299999999
 30
0.0
 40
0.0500000000000007
100
AcDbArc
 50
270.0
 51
0.0
  0
ARC
  5
129
330
1F
100
AcDbEntity
  8
DEFAULT
100
AcDbCircle
 10
12.40551599999998
 20
18.62290399999999
 30
0.0
 40
0.0250000400499361
100
AcDbArc
 50
270.0
 51
304.4077211030437
  0
SPLINE
  5
12A
330
1F
100
AcDbEntity
  8
DEFAULT
100
AcDbSpline
210
0.0
220
0.0
230
1.0
 70
    24
 71
     2
 72
     6
 73
     3
 74
     0
 42
0.0000000001
 43
0.0000000001
 40
0.0
 40
0.0
 40
0.0
 40
1.0
 40
1.0
 40
1.0
 10
22.90697599999999
 20
44.56658900000001
 30
0.0
 10
23.96947599999999
 20
44.56658900000001
 30
0.0
 10
25.03197599999999
 20
44.56658900000001
 30
0.0
  0
SPLINE
  5
12B
330
1F
100
AcDbEntity
  8
DEFAULT
100
AcDbSpline
210
0.0
220
0.0
230
1.0
 70
    24
 71
     2
 72
     6
 73
     3
 74
     0
 42
0.0000000001
 43
0.0000000001
 40
0.0
 40
0.0
 40
0.0
 40
1.0
 40
1.0
 40
1.0
 10
24.55098399999997
 20
2.40050699999999
 30
0.0
 10
24.56403099999997
 20
2.016607999999991
 30
0.0
 10
24.57707799999997
 20
1.632708999999991
 30
0.0
  0
SPLINE
  5
12C
330
1F
100
AcDbEntity
  8
DEFAULT
100
AcDbSpline
210
0.0
220
0.0
230
1.0
 70
     8
 71
     2
 72
    18
 73
    15
 74
     0
 42
0.0000000001
 43
0.0000000001
 40
0.0
 40
0.0
 40
0.0
 40
1.0
 40
1.0
 40
2.0
 40
2.0
 40
3.0
 40
3.0
 40
4.0
 40
4.0
 40
5.0
 40
5.0
 40
6.0
 40
6.0
 40
7.0
 40
7.0
 40
7.0
 10
16.20641599999999
 20
2.739077999999992
 30
0.0
 10
16.20606100000001
 20
2.742706499999997
 30
0.0
 10
16.20570600000002
 20
2.746335000000002
 30
0.0
 10
16.20444900000001
 20
2.7515845
 30
0.0
 10
16.203192
 20
2.756833999999998
 30
0.0
 10
16.2011215
 20
2.761777499999994
 30
0.0
 10
16.199051
 20
2.76672099999999
 30
0.0
 10
16.19626449999998
 20
2.77123799999999
 30
0.0
 10
16.19347799999997
 20
2.77575499999999
 30
0.0
 10
16.19020949999998
 20
2.779647999999995
 30
0.0
 10
16.18694099999999
 20
2.783541
 30
0.0
 10
16.18335349999998
 20
2.786832499999996
 30
0.0
 10
16.17976599999997
 20
2.790123999999992
 30
0.0
 10
16.17868549999997
 20
2.790973999999991
 30
0.0
 10
16.17760499999997
 20
2.791823999999991
 30
0.0
  0
SPLINE
  5
12D
330
1F
100
AcDbEntity
  8
DEFAULT
100
AcDbSpline
210
0.0
220
0.0
230
1.0
 70
    24
 71
     2
 72
     6
 73
     3
 74
     0
 42
0.0000000001
 43
0.0000000001
 40
0.0
 40
0.0
 40
0.0
 40
1.0
 40
1.0
 40
1.0
 10
11.26967299999995
 20
6.733362999999997
 30
0.0
 10
11.64467299999995
 20
6.733362999999997
 30
0.0
 10
12.01967299999995
 20
6.733362999999997
 30
0.0
  0
SPLINE
  5
12E
330
1F
100
AcDbEntity
  8
DEFAULT
100
AcDbSpline
210
0.0
220
0.0
230
1.0
 70
     8
 71
     3
 72
    22
 73
    18
 74
     0
 42
0.0000000001
 43
0.0000000001
 40
0.0
 40
0.0
 40
0.0
 40
0.0
 40
0.1167500873722
 40
0.2243633665626
 40
0.3234661086496
 40
0.4146584866172
 40
0.4983865594995
 40
0.5751927987383
 40
0.6458186264644
 40
0.7102228255037
 40
0.767575789936
 40
0.8177842197205
 40
0.8615342953004
 40
0.9001349047782
 40
0.9349316304662
 40
0.9678090363997
 40
1.0
 40
1.0
 40
1.0
 40
1.0
 10
10.77624115061599
 20
4.386700184839995
 30
0.0
 10
10.77581433538899
 20
4.415597130050003
 30
0.0
 10
10.774503840497
 20
4.471124282899993
 30
0.0
 10
10.77094698771697
 20
4.551121786989995
 30
0.0
 10
10.76591648071201
 20
4.624701759659999
 30
0.0
 10
10.75942395087799
 20
4.692231530320001
 30
0.0
 10
10.75145380787802
 20
4.754044583039999
 30
0.0
 10
10.74194642505597
 20
4.81048743385
 30
0.0
 10
10.730803617665
 20
4.861751786580001
 30
0.0
 10
10.71795433804499
 20
4.907643676630002
 30
0.0
 10
10.703425050009
 20
4.947708784859998
 30
0.0
 10
10.68731690687798
 20
4.981603659089998
 30
0.0
 10
10.66963575978497
 20
5.00937153449
 30
0.0
 10
10.65025906906197
 20
5.031156432060001
 30
0.0
 10
10.628943545293
 20
5.046966309859997
 30
0.0
 10
10.60579826151599
 20
5.05641742652999
 30
0.0
 10
10.58960045610399
 20
5.05836325304
 30
0.0
 10
10.58163196549799
 20
5.05836325304
 30
0.0
  0
SPLINE
  5
12F
330
1F
100
AcDbEntity
  8
DEFAULT
100
AcDbSpline
210
0.0
220
0.0
230
1.0
 70
    24
 71
     2
 72
     6
 73
     3
 74
     0
 42
0.0000000001
 43
0.0000000001
 40
0.0
 40
0.0
 40
0.0
 40
1.0
 40
1.0
 40
1.0
 10
0.0000009999999975
 20
35.43558399999999
 30
0.0
 10
0.0000009999999975
 20
35.79495399999999
 30
0.0
 10
0.0000009999999975
 20
36.15432399999999
 30
0.0
  0
SPLINE
  5
130
330
1F
100
AcDbEntity
  8
DEFAULT
100
AcDbSpline
210
0.0
220
0.0
230
1.0
 70
    24
 71
     2
 72
     6
 73
     3
 74
     0
 42
0.0000000001
 43
0.0000000001
 40
0.0
 40
0.0
 40
0.0
 40
1.0
 40
1.0
 40
1.0
 10
0.0000009999999975
 20
51.011893
 30
0.0
 10
0.0000009999999975
 20
51.371263
 30
0.0
 10
0.0000009999999975
 20
51.730633
 30
0.0
  0
SPLINE
  5
131
330
1F
100
AcDbEntity
  8
DEFAULT
100
AcDbSpline
210
0.0
220
0.0
230
1.0
 70
    24
 71
     2
 72
     6
 73
     3
 74
     0
 42
0.0000000001
 43
0.0000000001
 40
0.0
 40
0.0
 40
0.0
 40
1.0
 40
1.0
 40
1.0
 10
-1.220470000000034
 20
35.401253
 30
0.0
 10
-0.3298060000000191
 20
35.401253
 30
0.0
 10
0.5608579999999961
 20
35.401253
 30
0.0
  0
SPLINE
  5
132
330
1F
100
AcDbEntity
  8
DEFAULT
100
AcDbSpline
210
0.0
220
0.0
230
1.0
 70
    24
 71
     2
 72
     6
 73
     3
 74
     0
 42
0.0000000001
 43
0.0000000001
 40
0.0
 40
0.0
 40
0.0
 40
1.0
 40
1.0
 40
1.0
 10
16.25225599999999
 20
1.637293
 30
0.0
 10
16.22933549999999
 20
2.188184499999998
 30
0.0
 10
16.20641499999999
 20
2.739075999999997
 30
0.0
  0
SPLINE
  5
133
330
1F
100
AcDbEntity
  8
DEFAULT
100
AcDbSpline
210
0.0
220
0.0
230
1.0
 70
    24
 71
     2
 72
     6
 73
     3
 74
     0
 42
0.0000000001
 43
0.0000000001
 40
0.0
 40
0.0
 40
0.0
 40
1.0
 40
1.0
 40
1.0
 10
16.02458099999996
 20
1.574803000000003
 30
0.0
 10
16.02458099999996
 20
1.515748000000002
 30
0.0
 10
16.02458099999996
 20
1.456693000000001
 30
0.0
  0
ARC
  5
134
330
1F
100
AcDbEntity
  8
DEFAULT
100
AcDbCircle
 10
16.034424
 20
56.63736300000001
 30
0.0
 40
0.0590549041019562
100
AcDbArc
 50
319.6771567869374
 51
0.0
  0
SPLINE
  5
135
330
1F
100
AcDbEntity
  8
DEFAULT
100
AcDbSpline
210
0.0
220
0.0
230
1.0
 70
    24
 71
     2
 72
     6
 73
     3
 74
     0
 42
0.0000000001
 43
0.0000000001
 40
0.0
 40
0.0
 40
0.0
 40
1.0
 40
1.0
 40
1.0
 10
13.75145099999997
 20
29.99812899999999
 30
0.0
 10
14.81395099999997
 20
29.99812899999999
 30
0.0
 10
15.87645099999997
 20
29.99812899999999
 30
0.0
  0
SPLINE
  5
136
330
1F
100
AcDbEntity
  8
DEFAULT
100
AcDbSpline
210
0.0
220
0.0
230
1.0
 70
    24
 71
     2
 72
     6
 73
     3
 74
     0
 42
0.0000000001
 43
0.0000000001
 40
0.0
 40
0.0
 40
0.0
 40
1.0
 40
1.0
 40
1.0
 10
10.58163199999996
 20
5.058363
 30
0.0
 10
10.41315249999997
 20
5.058363
 30
0.0
 10
10.24467299999998
 20
5.058363
 30
0.0
  0
SPLINE
  5
137
330
1F
100
AcDbEntity
  8
DEFAULT
100
AcDbSpline
210
0.0
220
0.0
230
1.0
 70
    24
 71
     2
 72
     6
 73
     3
 74
     0
 42
0.0000000001
 43
0.0000000001
 40
0.0
 40
0.0
 40
0.0
 40
1.0
 40
1.0
 40
1.0
 10
0.6397639999999569
 20
1.574803000000003
 30
0.0
 10
0.6397639999999569
 20
1.515748000000002
 30
0.0
 10
0.6397639999999569
 20
1.456693000000001
 30
0.0
  0
ARC
  5
138
330
1F
100
AcDbEntity
  8
DEFAULT
100
AcDbCircle
 10
11.31967300000002
 20
6.733362999999997
 30
0.0
 40
0.0499999999999989
100
AcDbArc
 50
180.0
 51
270.0
  0
ARC
  5
139
330
1F
100
AcDbEntity
  8
DEFAULT
100
AcDbCircle
 10
11.29967299999998
 20
7.310362999999995
 30
0.0
 40
0.0300000000000011
100
AcDbArc
 50
90.0
 51
180.0
  0
ARC
  5
13A
330
1F
100
AcDbEntity
  8
DEFAULT
100
AcDbCircle
 10
0.9251979999999662
 20
35.794954
 30
0.0
 40
0.5364173590316335
100
AcDbArc
 50
91.74653941234051
 51
161.7311661631166
  0
ARC
  5
13B
330
1F
100
AcDbEntity
  8
DEFAULT
100
AcDbCircle
 10
0.9251979999999662
 20
51.37126299999998
 30
0.0
 40
0.5364174700570183
100
AcDbArc
 50
198.2689352650012
 51
267.7564376689892
  0
LINE
  5
13C
330
1F
100
AcDbEntity
  8
DEFAULT
100
AcDbLine
 10
15.20648269031
 20
52.81933530266001
 30
0.0
 11
16.01856259995998
 21
55.60331438419
 31
0.0
  0
ARC
  5
13D
330
1F
100
AcDbEntity
  8
DEFAULT
100
AcDbCircle
 10
20.68640283710096
 20
54.23783531239424
 30
0.0
 40
4.863462303234669
100
AcDbArc
 50
161.6619489663637
 51
163.6942664656221
  0
SPLINE
  5
13E
330
1F
100
AcDbEntity
  8
DEFAULT
100
AcDbSpline
210
0.0
220
0.0
230
1.0
 70
     8
 71
     3
 72
     9
 73
     5
 74
     0
 42
0.0000000001
 43
0.0000000001
 40
0.0
 40
0.0
 40
0.0
 40
0.0
 40
1.0
 40
2.0
 40
2.0
 40
2.0
 40
2.0
 10
16.06992299999996
 20
55.76799200000001
 30
0.0
 10
16.08018590440423
 20
55.77284654656806
 30
0.0
 10
16.09906598755748
 20
55.78617243528181
 30
0.0
 10
16.11160684914853
 20
55.80562152690705
 30
0.0
 10
16.11586389825999
 20
55.81614627393999
 30
0.0
  0
SPLINE
  5
13F
330
1F
100
AcDbEntity
  8
DEFAULT
100
AcDbSpline
210
0.0
220
0.0
230
1.0
 70
    24
 71
     2
 72
     6
 73
     3
 74
     0
 42
0.0000000001
 43
0.0000000001
 40
0.0
 40
0.0
 40
0.0
 40
1.0
 40
1.0
 40
1.0
 10
16.11586389825999
 20
55.81614627393999
 30
0.0
 10
16.18044666970499
 20
56.04189948596249
 30
0.0
 10
16.24502944115
 20
56.26765269798499
 30
0.0
  0
SPLINE
  5
140
330
1F
100
AcDbEntity
  8
DEFAULT
100
AcDbSpline
210
0.0
220
0.0
230
1.0
 70
     8
 71
     3
 72
     9
 73
     5
 74
     0
 42
0.0000000001
 43
0.0000000001
 40
0.0
 40
0.0
 40
0.0
 40
0.0
 40
1.0
 40
2.0
 40
2.0
 40
2.0
 40
2.0
 10
16.24502944115
 20
56.26765269798499
 30
0.0
 10
16.25719806908359
 20
56.30987363641334
 30
0.0
 10
16.25034499320356
 20
56.40267801151775
 30
0.0
 10
16.18635743083991
 20
56.4702376151342
 30
0.0
 10
16.14697440239439
 20
56.48967220788099
 30
0.0
  0
SPLINE
  5
141
330
1F
100
AcDbEntity
  8
DEFAULT
100
AcDbSpline
210
0.0
220
0.0
230
1.0
 70
     8
 71
     3
 72
     9
 73
     5
 74
     0
 42
0.0000000001
 43
0.0000000001
 40
0.0
 40
0.0
 40
0.0
 40
0.0
 40
1.0
 40
2.0
 40
2.0
 40
2.0
 40
2.0
 10
16.14697440239439
 20
56.48967220788099
 30
0.0
 10
16.05251751481347
 20
56.53701223832827
 30
0.0
 10
15.85592646910828
 20
56.6141618619438
 30
0.0
 10
15.64981810945307
 20
56.66551160420134
 30
0.0
 10
15.54480383040999
 20
56.67332148864999
 30
0.0
  0
SPLINE
  5
142
330
1F
100
AcDbEntity
  8
DEFAULT
100
AcDbSpline
210
0.0
220
0.0
230
1.0
 70
     8
 71
     3
 72
     9
 73
     5
 74
     0
 42
0.0000000001
 43
0.0000000001
 40
0.0
 40
0.0
 40
0.0
 40
0.0
 40
1.000000051796527
 40
2.0
 40
2.0
 40
2.0
 40
2.0
 10
15.54480383040999
 20
56.67332148864999
 30
0.0
 10
15.50828647265621
 20
56.67107562500264
 30
0.0
 10
15.43685266813719
 20
56.64450543458351
 30
0.0
 10
15.39121988635503
 20
56.58348839033219
 30
0.0
 10
15.37868515718498
 20
56.54911774049999
 30
0.0
  0
SPLINE
  5
143
330
1F
100
AcDbEntity
  8
DEFAULT
100
AcDbSpline
210
0.0
220
0.0
230
1.0
 70
    24
 71
     2
 72
     6
 73
     3
 74
     0
 42
0.0000000001
 43
0.0000000001
 40
0.0
 40
0.0
 40
0.0
 40
1.0
 40
1.0
 40
1.0
 10
15.37868515718498
 20
56.54911774049999
 30
0.0
 10
15.2996465785925
 20
56.33317287025
 30
0.0
 10
15.22060800000003
 20
56.117228
 30
0.0
  0
SPLINE
  5
144
330
1F
100
AcDbEntity
  8
DEFAULT
100
AcDbSpline
210
0.0
220
0.0
230
1.0
 70
     8
 71
     3
 72
     9
 73
     5
 74
     0
 42
0.0000000001
 43
0.0000000001
 40
0.0
 40
0.0
 40
0.0
 40
0.0
 40
1.0
 40
2.0
 40
2.0
 40
2.0
 40
2.0
 10
15.22060800000003
 20
56.117228
 30
0.0
 10
15.21619950698886
 20
56.10508569628995
 30
0.0
 10
15.21256010138757
 20
56.07872021089908
 30
0.0
 10
15.22040956673021
 20
56.0533586900324
 30
0.0
 10
15.22666299999997
 20
56.04198799999999
 30
0.0
  0
ARC
  5
145
330
1F
100
AcDbEntity
  8
DEFAULT
100
AcDbCircle
 10
10.7879484104015
 20
57.45137436776155
 30
0.0
 40
4.65709750182947
100
AcDbArc
 50
340.2618164902809
 51
342.3842487572477
  0
LINE
  5
146
330
1F
100
AcDbEntity
  8
DEFAULT
100
AcDbLine
 10
15.17142134353998
 20
55.87856726388999
 30
0.0
 11
14.19158474656996
 21
53.14772557888999
 31
0.0
  0
SPLINE
  5
147
330
1F
100
AcDbEntity
  8
DEFAULT
100
AcDbSpline
210
0.0
220
0.0
230
1.0
 70
    24
 71
     2
 72
     6
 73
     3
 74
     0
 42
0.0000000001
 43
0.0000000001
 40
0.0
 40
0.0
 40
0.0
 40
0.1255360316302392
 40
0.1255360316302392
 40
0.1255360316302392
 10
12.01967299999995
 20
34.84164699999999
 30
0.0
 10
12.01967299999995
 20
35.16672010595388
 30
0.0
 10
12.01967299999995
 20
35.49179321190776
 30
0.0
  0
SPLINE
  5
148
330
1F
100
AcDbEntity
  8
DEFAULT
100
AcDbSpline
210
0.0
220
0.0
230
1.0
 70
     8
 71
     3
 72
     9
 73
     5
 74
     0
 42
0.0000000001
 43
0.0000000001
 40
0.0
 40
0.0
 40
0.0
 40
0.0
 40
0.06495642802323
 40
0.1688846841498991
 40
0.1688846841498991
 40
0.1688846841498991
 40
0.1688846841498991
 10
4.917045254083007
 20
37.99112061813999
 30
0.0
 10
4.986144547500999
 20
38.03805209701999
 30
0.0
 10
5.165808455622198
 20
38.16006083985947
 30
0.0
 10
5.345492877656341
 20
38.28203937053293
 30
0.0
 10
5.456074825891903
 20
38.35709109996745
 30
0.0
  0
SPLINE
  5
149
330
1F
100
AcDbEntity
  8
DEFAULT
100
AcDbSpline
210
0.0
220
0.0
230
1.0
 70
     8
 71
     3
 72
     9
 73
     5
 74
     0
 42
0.0000000001
 43
0.0000000001
 40
0.0
 40
0.0
 40
0.0
 40
0.0
 40
0.08864575117237
 40
0.1342231965623575
 40
0.1342231965623575
 40
0.1342231965623575
 40
0.1342231965623575
 10
4.246829455017973
 20
48.25390538629999
 30
0.0
 10
4.360268325440984
 20
48.16586223117999
 30
0.0
 10
4.532017244261567
 20
48.03253233115149
 30
0.0
 10
4.703743737273101
 20
47.89917355016495
 30
0.0
 10
4.762053391079178
 20
47.85388630364666
 30
0.0
  0
SPLINE
  5
14A
330
1F
100
AcDbEntity
  8
DEFAULT
100
AcDbSpline
210
0.0
220
0.0
230
1.0
 70
     8
 71
     3
 72
     9
 73
     5
 74
     0
 42
0.0000000001
 43
0.0000000001
 40
0.831115299114051
 40
0.831115299114051
 40
0.831115299114051
 40
0.831115299114051
 40
0.8872678893821
 40
1.0
 40
1.0
 40
1.0
 40
1.0
 10
5.456075176390584
 20
48.80912531508967
 30
0.0
 10
5.396327592674197
 20
48.84967587137963
 30
0.0
 10
5.216637382502142
 20
48.97164587255746
 30
0.0
 10
5.036967661687981
 20
49.09364605595
 30
0.0
 10
4.917045605716964
 20
49.17509579525999
 30
0.0
  0
SPLINE
  5
14B
330
1F
100
AcDbEntity
  8
DEFAULT
100
AcDbSpline
210
0.0
220
0.0
230
1.0
 70
     8
 71
     3
 72
     8
 73
     4
 74
     0
 42
0.0000000001
 43
0.0000000001
 40
0.875454155899959
 40
0.875454155899959
 40
0.875454155899959
 40
0.875454155899959
 40
1.0
 40
1.0
 40
1.0
 40
1.0
 10
13.57957788011197
 20
35.71760464007961
 30
0.0
 10
13.65321547105412
 20
35.51346359563117
 30
0.0
 10
13.72681883601365
 20
35.30931020506308
 30
0.0
 10
13.80038784430002
 20
35.10514443419
 30
0.0
  0
SPLINE
  5
14C
330
1F
100
AcDbEntity
  8
DEFAULT
100
AcDbSpline
210
0.0
220
0.0
230
1.0
 70
     8
 71
     3
 72
     9
 73
     5
 74
     0
 42
0.0000000001
 43
0.0000000001
 40
0.0
 40
0.0
 40
0.0
 40
0.0
 40
0.001944880815101
 40
0.1245459979593288
 40
0.1245459979593288
 40
0.1245459979593288
 40
0.1245459979593288
 10
13.80038787806001
 20
52.06107231526001
 30
0.0
 10
13.79923904051998
 20
52.05788410730999
 30
0.0
 10
13.72566941128258
 20
51.85371829808183
 30
0.0
 10
13.65206542986942
 20
51.64956486772486
 30
0.0
 10
13.57957766384328
 20
51.44861141312224
 30
0.0
  0
SPLINE
  5
14D
330
1F
100
AcDbEntity
  8
DEFAULT
100
AcDbSpline
210
0.0
220
0.0
230
1.0
 70
     8
 71
     3
 72
     8
 73
     4
 74
     0
 42
0.0000000001
 43
0.0000000001
 40
0.0
 40
0.0
 40
0.0
 40
0.0
 40
0.1371072377085417
 40
0.1371072377085417
 40
0.1371072377085417
 40
0.1371072377085417
 10
14.88395446890996
 20
35.45695355453999
 30
0.0
 10
14.82344414085549
 20
35.66545001347909
 30
0.0
 10
14.76296891054216
 20
35.87395665828954
 30
0.0
 10
14.70252865517836
 20
36.08247344070477
 30
0.0
  0
SPLINE
  5
14E
330
1F
100
AcDbEntity
  8
DEFAULT
100
AcDbSpline
210
0.0
220
0.0
230
1.0
 70
    24
 71
     2
 72
     6
 73
     3
 74
     0
 42
0.0000000001
 43
0.0000000001
 40
0.0
 40
0.0
 40
0.0
 40
0.1255362004795126
 40
0.1255362004795126
 40
0.1255362004795126
 10
11.26967299999995
 20
52.32457000000001
 30
0.0
 10
11.26967299999995
 20
51.99949639404612
 30
0.0
 10
11.26967299999995
 20
51.67442278809223
 30
0.0
  0
SPLINE
  5
14F
330
1F
100
AcDbEntity
  8
DEFAULT
100
AcDbSpline
210
0.0
220
0.0
230
1.0
 70
     8
 71
     3
 72
     9
 73
     5
 74
     0
 42
0.0000000001
 43
0.0000000001
 40
0.8657767706735006
 40
0.8657767706735006
 40
0.8657767706735006
 40
0.8657767706735006
 40
0.9452384792926
 40
1.0
 40
1.0
 40
1.0
 40
1.0
 10
4.762053117480093
 20
39.312330137275
 30
0.0
 10
4.660393526162181
 20
39.23337437780337
 30
0.0
 10
4.48866134454596
 20
39.10002285286338
 30
0.0
 10
4.316906718332007
 20
38.96670023816999
 30
0.0
 10
4.246829081783005
 20
38.91231097814999
 30
0.0
  0
SPLINE
  5
150
330
1F
100
AcDbEntity
  8
DEFAULT
100
AcDbSpline
210
0.0
220
0.0
230
1.0
 70
    24
 71
     2
 72
     6
 73
     3
 74
     0
 42
0.0000000001
 43
0.0000000001
 40
0.8744637995204874
 40
0.8744637995204874
 40
0.8744637995204874
 40
1.0
 40
1.0
 40
1.0
 10
12.01967299999995
 20
51.67442278809223
 30
0.0
 10
12.01967299999995
 20
51.99949639404612
 30
0.0
 10
12.01967299999995
 20
52.32457000000001
 30
0.0
  0
SPLINE
  5
151
330
1F
100
AcDbEntity
  8
DEFAULT
100
AcDbSpline
210
0.0
220
0.0
230
1.0
 70
    24
 71
     2
 72
     6
 73
     3
 74
     0
 42
0.0000000001
 43
0.0000000001
 40
0.8744639683697621
 40
0.8744639683697621
 40
0.8744639683697621
 40
1.0
 40
1.0
 40
1.0
 10
11.26967299999995
 20
35.49179321190776
 30
0.0
 10
11.26967299999995
 20
35.16672010595388
 30
0.0
 10
11.26967299999995
 20
34.84164699999999
 30
0.0
  0
SPLINE
  5
152
330
1F
100
AcDbEntity
  8
DEFAULT
100
AcDbSpline
210
0.0
220
0.0
230
1.0
 70
     8
 71
     3
 72
     9
 73
     5
 74
     0
 42
0.0000000001
 43
0.0000000001
 40
0.8628925539197678
 40
0.8628925539197678
 40
0.8628925539197678
 40
0.8628925539197678
 40
0.9429061878345
 40
1.0
 40
1.0
 40
1.0
 40
1.0
 10
14.70252848648198
 20
51.08374262806929
 30
0.0
 10
14.7378004812935
 20
51.20542978374853
 30
0.0
 10
14.79826125584947
 20
51.41394102040802
 30
0.0
 10
14.85875707460997
 20
51.6224420919
 30
0.0
 10
14.88395462212998
 20
51.70926362619001
 30
0.0
  0
SPLINE
  5
153
330
1F
100
AcDbEntity
  8
DEFAULT
100
AcDbSpline
210
0.0
220
0.0
230
1.0
 70
     8
 71
     3
 72
     9
 73
     5
 74
     0
 42
0.0000000001
 43
0.0000000001
 40
0.0
 40
0.0
 40
0.0
 40
0.0
 40
1.0
 40
2.0
 40
2.0
 40
2.0
 40
2.0
 10
25.09611547995002
 20
2.746231044040002
 30
0.0
 10
23.1343745489487
 20
3.163952168860774
 30
0.0
 10
19.174869642327
 20
3.829848246230782
 30
0.0
 10
15.17271397120624
 20
4.153258967043271
 30
0.0
 10
13.16829873777999
 20
4.225897412319995
 30
0.0
  0
SPLINE
  5
154
330
1F
100
AcDbEntity
  8
DEFAULT
100
AcDbSpline
210
0.0
220
0.0
230
1.0
 70
     8
 71
     3
 72
     9
 73
     5
 74
     0
 42
0.0000000001
 43
0.0000000001
 40
0.0
 40
0.0
 40
0.0
 40
0.0
 40
1.0
 40
2.0
 40
2.0
 40
2.0
 40
2.0
 10
1.535725000000014
 20
2.571394999999995
 30
0.0
 10
3.097786464923161
 20
2.950173484747921
 30
0.0
 10
6.256781597954216
 20
3.567488049807253
 30
0.0
 10
9.462795502118809
 20
3.856523124367172
 30
0.0
 10
11.06877400000002
 20
3.923268999999991
 30
0.0
  0
SPLINE
  5
155
330
1F
100
AcDbEntity
  8
DEFAULT
100
AcDbSpline
210
0.0
220
0.0
230
1.0
 70
     8
 71
     3
 72
    22
 73
    18
 74
     0
 42
0.0000000001
 43
0.0000000001
 40
0.0
 40
0.0
 40
0.0
 40
0.0
 40
0.03224395920562
 40
0.06516053164785
 40
0.09997471003698
 40
0.1385729705325
 40
0.1823155546999
 40
0.2325208678284
 40
0.289874924307
 40
0.3542798855111
 40
0.4249033629272
 40
0.5017027446386
 40
0.5854199733651
 40
0.6765973481372
 40
0.7756816683752
 40
0.8832736446482
 40
1.0
 40
1.0
 40
1.0
 40
1.0
 10
10.73365992345299
 20
5.05836325304
 30
0.0
 10
10.741641529199
 20
5.05836325304
 30
0.0
 10
10.75786262090298
 20
5.056411249039996
 30
0.0
 10
10.78102812073502
 20
5.04693565318
 30
0.0
 10
10.802343747946
 20
5.031103500429992
 30
0.0
 10
10.82171045276499
 20
5.009307719459997
 30
0.0
 10
10.83938072980698
 20
4.981537021180003
 30
0.0
 10
10.855480727893
 20
4.947641034079993
 30
0.0
 10
10.87000419596899
 20
4.907574229559998
 30
0.0
 10
10.882848817568
 20
4.861681220080001
 30
0.0
 10
10.89398748992602
 20
4.810418153629996
 30
0.0
 10
10.90349117909301
 20
4.753979754629995
 30
0.0
 10
10.91145812863698
 20
4.692174490550002
 30
0.0
 10
10.917948067064
 20
4.624655516399997
 30
0.0
 10
10.92297664156303
 20
4.551089027419991
 30
0.0
 10
10.92653224761398
 20
4.47110722907
 30
0.0
 10
10.92784238027997
 20
4.415591244200002
 30
0.0
 10
10.92826910857099
 20
4.386700184839995
 30
0.0
  0
SPLINE
  5
156
330
1F
100
AcDbEntity
  8
DEFAULT
100
AcDbSpline
210
0.0
220
0.0
230
1.0
 70
    24
 71
     2
 72
     6
 73
     3
 74
     0
 42
0.0000000001
 43
0.0000000001
 40
0.0
 40
0.0
 40
0.0
 40
1.0
 40
1.0
 40
1.0
 10
1.062500999999997
 20
50.387783
 30
0.0
 10
0.0000009999999975
 20
50.387783
 30
0.0
 10
-1.062499000000003
 20
50.387783
 30
0.0
  0
ARC
  5
157
330
1F
100
AcDbEntity
  8
DEFAULT
100
AcDbCircle
 10
0.9251979999999662
 20
35.794954
 30
0.0
 40
0.5364170303387885
100
AcDbArc
 50
270.1627816765758
 51
340.2791905920644
  0
ARC
  5
158
330
1F
100
AcDbEntity
  8
DEFAULT
100
AcDbCircle
 10
0.9251979999999662
 20
35.794954
 30
0.0
 40
0.5364175276786594
100
AcDbArc
 50
171.7755790160684
 51
260.3163186457281
  0
ARC
  5
159
330
1F
100
AcDbEntity
  8
DEFAULT
100
AcDbCircle
 10
-1.043305999999973
 20
36.542995
 30
0.0
 40
0.2362205058949281
100
AcDbArc
 50
94.66044957064801
 51
180.0
  0
SPLINE
  5
15A
330
1F
100
AcDbEntity
  8
DEFAULT
100
AcDbSpline
210
0.0
220
0.0
230
1.0
 70
    24
 71
     2
 72
     6
 73
     3
 74
     0
 42
0.0000000001
 43
0.0000000001
 40
0.0
 40
0.0
 40
0.0
 40
1.0
 40
1.0
 40
1.0
 10
12.39467299999995
 20
1.824803000000003
 30
0.0
 10
12.39467299999995
 20
1.699803000000003
 30
0.0
 10
12.39467299999995
 20
1.574803000000003
 30
0.0
  0
SPLINE
  5
15B
330
1F
100
AcDbEntity
  8
DEFAULT
100
AcDbSpline
210
0.0
220
0.0
230
1.0
 70
    24
 71
     2
 72
     6
 73
     3
 74
     0
 42
0.0000000001
 43
0.0000000001
 40
0.0
 40
0.0
 40
0.0
 40
1.0
 40
1.0
 40
1.0
 10
24.30343099999999
 20
1.574803000000003
 30
0.0
 10
24.78785149999999
 20
1.574803000000003
 30
0.0
 10
25.27227199999999
 20
1.574803000000003
 30
0.0
  0
SPLINE
  5
15C
330
1F
100
AcDbEntity
  8
DEFAULT
100
AcDbSpline
210
0.0
220
0.0
230
1.0
 70
    24
 71
     2
 72
     6
 73
     3
 74
     0
 42
0.0000000001
 43
0.0000000001
 40
0.0
 40
0.0
 40
0.0
 40
1.0
 40
1.0
 40
1.0
 10
15.27511499999997
 20
1.574803000000003
 30
0.0
 10
15.73355649999996
 20
1.574803000000003
 30
0.0
 10
16.19199799999996
 20
1.574803000000003
 30
0.0
  0
SPLINE
  5
15D
330
1F
100
AcDbEntity
  8
DEFAULT
100
AcDbSpline
210
0.0
220
0.0
230
1.0
 70
    24
 71
     2
 72
     6
 73
     3
 74
     0
 42
0.0000000001
 43
0.0000000001
 40
0.0
 40
0.0
 40
0.0
 40
1.0
 40
1.0
 40
1.0
 10
1.279527999999971
 20
52.11930399999999
 30
0.0
 10
1.279527999999971
 20
51.9716615
 30
0.0
 10
1.279527999999971
 20
51.82401900000001
 30
0.0
  0
SPLINE
  5
15E
330
1F
100
AcDbEntity
  8
DEFAULT
100
AcDbSpline
210
0.0
220
0.0
230
1.0
 70
     8
 71
     3
 72
    11
 73
     7
 74
     0
 42
0.0000000001
 43
0.0000000001
 40
0.0
 40
0.0
 40
0.0
 40
0.0
 40
1.0
 40
2.0
 40
3.0
 40
4.0
 40
4.0
 40
4.0
 40
4.0
 10
15.20225699999997
 20
2.587302999999991
 30
0.0
 10
15.23604977475435
 20
2.51363699167355
 30
0.0
 10
15.22961170014224
 20
2.351773055514542
 30
0.0
 10
15.22568244873645
 20
2.113999391480334
 30
0.0
 10
15.22019987934664
 20
1.874863769621058
 30
0.0
 10
15.21686844082183
 20
1.715723754649105
 30
0.0
 10
15.21513799999997
 20
1.636096999999992
 30
0.0
  0
SPLINE
  5
15F
330
1F
100
AcDbEntity
  8
DEFAULT
100
AcDbSpline
210
0.0
220
0.0
230
1.0
 70
     8
 71
     3
 72
     9
 73
     5
 74
     0
 42
0.0000000001
 43
0.0000000001
 40
0.0
 40
0.0
 40
0.0
 40
0.0
 40
1.0
 40
2.0
 40
2.0
 40
2.0
 40
2.0
 10
11.326525
 20
3.923574000000002
 30
0.0
 10
12.01255462136095
 20
3.855253011332636
 30
0.0
 10
13.36652178789262
 20
3.546928495197619
 30
0.0
 10
14.61125673005427
 20
2.93640373635597
 30
0.0
 10
15.20374499999997
 20
2.584968000000003
 30
0.0
  0
SPLINE
  5
160
330
1F
100
AcDbEntity
  8
DEFAULT
100
AcDbSpline
210
0.0
220
0.0
230
1.0
 70
     8
 71
     3
 72
     9
 73
     5
 74
     0
 42
0.0000000001
 43
0.0000000001
 40
0.0
 40
0.0
 40
0.0
 40
0.0
 40
1.0
 40
2.0
 40
2.0
 40
2.0
 40
2.0
 10
11.06877200000002
 20
3.923270000000002
 30
0.0
 10
11.11170037724628
 20
3.924880336384447
 30
0.0
 10
11.19759080048135
 20
3.926281142852559
 30
0.0
 10
11.28353353694303
 20
3.926121142916898
 30
0.0
 10
11.32641999999998
 20
3.923585000000003
 30
0.0
  0
SPLINE
  5
161
330
1F
100
AcDbEntity
  8
DEFAULT
100
AcDbSpline
210
0.0
220
0.0
230
1.0
 70
     8
 71
     3
 72
     9
 73
     5
 74
     0
 42
0.0000000001
 43
0.0000000001
 40
0.0
 40
0.0
 40
0.0
 40
0.0
 40
1.0
 40
2.0
 40
2.0
 40
2.0
 40
2.0
 10
15.46377506982998
 20
2.802828593329991
 30
0.0
 10
14.83654079553486
 20
3.19944993992506
 30
0.0
 10
13.50526898155147
 20
3.877145302454451
 30
0.0
 10
12.04952023398135
 20
4.22509721949902
 30
0.0
 10
11.30981953136097
 20
4.293168325509995
 30
0.0
  0
ARC
  5
162
330
1F
100
AcDbEntity
  8
DEFAULT
100
AcDbCircle
 10
24.89467300000001
 20
43.583108
 30
0.0
 40
0.5364170312406187
100
AcDbArc
 50
235.7390327164817
 51
305.7577012451446
  0
SPLINE
  5
163
330
1F
100
AcDbEntity
  8
DEFAULT
100
AcDbSpline
210
0.0
220
0.0
230
1.0
 70
     8
 71
     3
 72
    11
 73
     7
 74
     0
 42
0.0000000001
 43
0.0000000001
 40
0.0
 40
0.0
 40
0.0
 40
0.0
 40
0.2857994331608
 40
0.5535232494026
 40
0.7900445159736
 40
1.0
 40
1.0
 40
1.0
 40
1.0
 10
10.92826910857099
 20
4.386700184839995
 30
0.0
 10
10.92841813245496
 20
4.376610725139997
 30
0.0
 10
10.93131669226398
 20
4.356988368529997
 30
0.0
 10
10.94327847601897
 20
4.33129974117
 30
0.0
 10
10.96174058964601
 20
4.313068125499996
 30
0.0
 10
10.97769227035695
 20
4.30836325304
 30
0.0
 10
10.98510505080998
 20
4.30836325304
 30
0.0
  0
SPLINE
  5
164
330
1F
100
AcDbEntity
  8
DEFAULT
100
AcDbSpline
210
0.0
220
0.0
230
1.0
 70
    24
 71
     2
 72
     6
 73
     3
 74
     0
 42
0.0000000001
 43
0.0000000001
 40
0.0
 40
0.0
 40
0.0
 40
1.0
 40
1.0
 40
1.0
 10
11.74467299999998
 20
6.683363
 30
0.0
 10
11.74467299999998
 20
6.201881999999998
 30
0.0
 10
11.74467299999998
 20
5.720400999999995
 30
0.0
  0
SPLINE
  5
165
330
1F
100
AcDbEntity
  8
DEFAULT
100
AcDbSpline
210
0.0
220
0.0
230
1.0
 70
     8
 71
     2
 72
    30
 73
    27
 74
     0
 42
0.0000000001
 43
0.0000000001
 40
0.0
 40
0.0
 40
0.0
 40
1.0
 40
1.0
 40
2.0
 40
2.0
 40
3.0
 40
3.0
 40
4.0
 40
4.0
 40
5.0
 40
5.0
 40
6.0
 40
6.0
 40
7.0
 40
7.0
 40
8.0
 40
8.0
 40
9.0
 40
9.0
 40
10.0
 40
10.0
 40
11.0
 40
11.0
 40
12.0
 40
12.0
 40
13.0
 40
13.0
 40
13.0
 10
6.792838999999958
 20
19.658829
 30
0.0
 10
6.793647999999962
 20
19.65883849999999
 30
0.0
 10
6.794456999999966
 20
19.65884799999999
 30
0.0
 10
6.796964999999972
 20
19.65866749999999
 30
0.0
 10
6.799472999999978
 20
19.65848699999999
 30
0.0
 10
6.801938499999977
 20
19.657994
 30
0.0
 10
6.804403999999977
 20
19.657501
 30
0.0
 10
6.806787999999983
 20
19.656702
 30
0.0
 10
6.80917199999999
 20
19.655903
 30
0.0
 10
6.811436999999984
 20
19.65481149999999
 30
0.0
 10
6.813701999999978
 20
19.65371999999999
 30
0.0
 10
6.815811999999994
 20
19.65235249999999
 30
0.0
 10
6.81792200000001
 20
19.65098499999999
 30
0.0
 10
6.819843999999989
 20
19.64936399999999
 30
0.0
 10
6.821765999999968
 20
19.64774299999999
 30
0.0
 10
6.823469499999987
 20
19.64589299999999
 30
0.0
 10
6.825173000000007
 20
19.644043
 30
0.0
 10
6.826630999999992
 20
19.6419945
 30
0.0
 10
6.828088999999977
 20
19.63994599999999
 30
0.0
 10
6.82927799999996
 20
19.63773049999999
 30
0.0
 10
6.830466999999942
 20
19.63551499999998
 30
0.0
 10
6.831368999999938
 20
19.63316799999999
 30
0.0
 10
6.832270999999935
 20
19.630821
 30
0.0
 10
6.832870999999955
 20
19.62837949999999
 30
0.0
 10
6.833470999999975
 20
19.62593799999999
 30
0.0
 10
6.833760499999983
 20
19.62343999999999
 30
0.0
 10
6.834049999999991
 20
19.62094199999999
 30
0.0
  0
SPLINE
  5
166
330
1F
100
AcDbEntity
  8
DEFAULT
100
AcDbSpline
210
0.0
220
0.0
230
1.0
 70
     8
 71
     3
 72
    24
 73
    20
 74
     0
 42
0.0000000001
 43
0.0000000001
 40
-17.0
 40
-17.0
 40
-17.0
 40
-17.0
 40
-16.0
 40
-15.0
 40
-14.0
 40
-13.0
 40
-12.0
 40
-11.0
 40
-10.0
 40
-9.0
 40
-8.0
 40
-7.0
 40
-6.0
 40
-5.0
 40
-4.0
 40
-3.0
 40
-2.0
 40
-1.0
 40
0.0
 40
0.0
 40
0.0
 40
0.0
 10
6.792838999999958
 20
19.65882599999999
 30
0.0
 10
6.722681991638638
 20
19.65657896118805
 30
0.0
 10
6.582434171976445
 20
19.65018097266486
 30
0.0
 10
6.372284863508185
 20
19.63667720331858
 30
0.0
 10
6.162254312564414
 20
19.62151386761907
 30
0.0
 10
5.952212714220025
 20
19.6064999189377
 30
0.0
 10
5.742142944330965
 20
19.59188616221839
 30
0.0
 10
5.532024683637701
 20
19.57798701726749
 30
0.0
 10
5.321894242644419
 20
19.56425895489951
 30
0.0
 10
5.11186100848289
 20
19.54913195008704
 30
0.0
 10
4.901818436667952
 20
19.5341273654752
 30
0.0
 10
4.691748002975373
 20
19.519539467076
 30
0.0
 10
4.481721927788101
 20
19.50424240942304
 30
0.0
 10
4.272052852351806
 20
19.48459021344999
 30
0.0
 10
4.062814680406632
 20
19.46074412747397
 30
0.0
 10
3.854381146393109
 20
19.43055184765876
 30
0.0
 10
3.647337547463565
 20
19.39183656261454
 30
0.0
 10
3.442313346701155
 20
19.34356129739045
 30
0.0
 10
3.264011814295372
 20
19.29284151659375
 30
0.0
 10
3.196593999999948
 20
19.27330599999999
 30
0.0
  0
SPLINE
  5
167
330
1F
100
AcDbEntity
  8
DEFAULT
100
AcDbSpline
210
0.0
220
0.0
230
1.0
 70
    12
 71
     3
 72
    27
 73
    23
 74
     0
 42
0.0000000001
 43
0.0000000001
 40
-17.0
 40
-17.0
 40
-17.0
 40
-17.0
 40
-16.0
 40
-15.0
 40
-14.0
 40
-13.0
 40
-12.0
 40
-11.0
 40
-10.0
 40
-9.0
 40
-8.0
 40
-7.0
 40
-6.0
 40
-5.0
 40
-4.0
 40
-3.0
 40
-2.0
 40
-1.0
 40
0.0
 40
0.0
 40
0.0
 40
0.1655289182882165
 40
0.1655289182882165
 40
0.1655289182882165
 40
0.1655289182882165
 10
3.196593999999948
 20
19.27330599999999
 30
0.0
 41
1.0
 10
3.157126216970426
 20
19.26186950449282
 30
0.0
 41
1.0
 10
3.03496731414856
 20
19.22653338164676
 30
0.0
 41
1.0
 10
2.918356684475327
 20
19.18646379560685
 30
0.0
 41
1.0
 10
2.803781968820033
 20
19.14079507989764
 30
0.0
 41
1.0
 10
2.692916918113724
 20
19.08665179609433
 30
0.0
 41
1.0
 10
2.58448583926338
 20
19.02844950588359
 30
0.0
 41
1.0
 10
2.494727202147999
 20
18.93595988263949
 30
0.0
 41
1.0
 10
2.507998551971184
 20
18.79448902192664
 30
0.0
 41
1.0
 10
2.637261917260446
 20
18.75002580581051
 30
0.0
 41
1.0
 10
2.758817177278956
 20
18.76872256882864
 30
0.0
 41
1.0
 10
2.877592723827718
 20
18.80270166672298
 30
0.0
 41
1.0
 10
2.995153056786705
 20
18.8395997562897
 30
0.0
 41
1.0
 10
3.11244504129445
 20
18.87761966849732
 30
0.0
 41
1.0
 10
3.230795268541499
 20
18.91218612445981
 30
0.0
 41
1.0
 10
3.349327335348789
 20
18.94577946498602
 30
0.0
 41
1.0
 10
3.468027216126302
 20
18.98014113440064
 30
0.0
 41
1.0
 10
3.586044967869157
 20
19.01179931498312
 30
0.0
 41
1.0
 10
3.669307094651288
 20
19.0289468819693
 30
0.0
 41
1.0
 10
3.704762999999957
 20
19.03495799999999
 30
0.0
 41
1.0
 10
3.75917704327056
 20
19.04418324001034
 30
0.0
 41
0.9994851325376918
 10
3.813911557624352
 20
19.05126321859429
 30
0.0
 41
0.9994851325376918
 10
3.868881999999985
 20
19.05618699999999
 30
0.0
 41
1.0
  0
SPLINE
  5
168
330
1F
100
AcDbEntity
  8
DEFAULT
100
AcDbSpline
210
0.0
220
0.0
230
1.0
 70
     8
 71
     3
 72
    19
 73
    15
 74
     0
 42
0.0000000001
 43
0.0000000001
 40
-12.0
 40
-12.0
 40
-12.0
 40
-12.0
 40
-11.0
 40
-10.0
 40
-9.0
 40
-8.0
 40
-7.0
 40
-6.0
 40
-5.0
 40
-4.0
 40
-3.0
 40
-2.0
 40
-1.0
 40
0.0
 40
0.0
 40
0.0
 40
0.0
 10
3.868881999999985
 20
19.05618699999999
 30
0.0
 10
3.950920275489636
 20
19.05863520597059
 30
0.0
 10
4.114992000958296
 20
19.06364661630015
 30
0.0
 10
4.361126026043451
 20
19.07042865752196
 30
0.0
 10
4.60726083125536
 20
19.07659748107375
 30
0.0
 10
4.853417973934029
 20
19.08400008814121
 30
0.0
 10
5.099595071669626
 20
19.08265582401742
 30
0.0
 10
5.344694488649509
 20
19.05637084557479
 30
0.0
 10
5.59079664452895
 20
19.04575204967212
 30
0.0
 10
5.837065978144835
 20
19.05045344380966
 30
0.0
 10
6.082857154069757
 20
19.06528266963673
 30
0.0
 10
6.328536642676681
 20
19.08178689008264
 30
0.0
 10
6.574584707532722
 20
19.09148201950339
 30
0.0
 10
6.738656527406704
 20
19.09644425821595
 30
0.0
 10
6.820684999999969
 20
19.09920999999999
 30
0.0
  0
SPLINE
  5
169
330
1F
100
AcDbEntity
  8
DEFAULT
100
AcDbSpline
210
0.0
220
0.0
230
1.0
 70
    24
 71
     2
 72
     6
 73
     3
 74
     0
 42
0.0000000001
 43
0.0000000001
 40
0.0
 40
0.0
 40
0.0
 40
1.0
 40
1.0
 40
1.0
 10
2.826149999999984
 20
18.788242
 30
0.0
 10
2.826188999999971
 20
18.78825299999999
 30
0.0
 10
2.826227999999958
 20
18.78826399999998
 30
0.0
  0
SPLINE
  5
16A
330
1F
100
AcDbEntity
  8
DEFAULT
100
AcDbSpline
210
0.0
220
0.0
230
1.0
 70
     8
 71
     3
 72
    34
 73
    30
 74
     0
 42
0.0000000001
 43
0.0000000001
 40
0.0
 40
0.0
 40
0.0
 40
0.0
 40
1.0
 40
2.0
 40
3.0
 40
4.0
 40
5.0
 40
6.0
 40
7.0
 40
8.0
 40
9.0
 40
10.0
 40
11.0
 40
12.0
 40
13.0
 40
14.0
 40
15.0
 40
16.0
 40
17.0
 40
18.0
 40
19.0
 40
20.0
 40
21.0
 40
22.0
 40
23.0
 40
24.0
 40
25.0
 40
26.0
 40
27.0
 40
27.0
 40
27.0
 40
27.0
 10
4.083040543580012
 20
19.422660475291
 30
0.0
 10
4.062746547604377
 20
19.41877910654262
 30
0.0
 10
4.022207635480811
 20
19.41075973546947
 30
0.0
 10
3.961565667115678
 20
19.39791490143259
 30
0.0
 10
3.901132406649367
 20
19.38412315621299
 30
0.0
 10
3.840870992150656
 20
19.36960009006904
 30
0.0
 10
3.780830095206284
 20
19.35418713629609
 30
0.0
 10
3.721090842960393
 20
19.33763745549076
 30
0.0
 10
3.661779239685757
 20
19.31960812478836
 30
0.0
 10
3.603016104016547
 20
19.2998608210797
 30
0.0
 10
3.54486633492894
 20
19.27837420374105
 30
0.0
 10
3.487368247742722
 20
19.25520356135119
 30
0.0
 10
3.430440872167082
 20
19.23067004635402
 30
0.0
 10
3.373969659322711
 20
19.20510787097928
 30
0.0
 10
3.317800995928053
 20
19.17889032430368
 30
0.0
 10
3.261686654237053
 20
19.15256027192683
 30
0.0
 10
3.205364370884752
 20
19.12666508552911
 30
0.0
 10
3.148353563879766
 20
19.10232753224381
 30
0.0
 10
3.091322030191861
 20
19.07804760657208
 30
0.0
 10
3.034265490465998
 20
19.05382344871356
 30
0.0
 10
2.977013259876685
 20
19.0300648208361
 30
0.0
 10
2.919327766108381
 20
19.00736322190251
 30
0.0
 10
2.860983716866372
 20
18.98642065761467
 30
0.0
 10
2.801487817686223
 20
18.96876257318738
 30
0.0
 10
2.741210399605563
 20
18.95494180828439
 30
0.0
 10
2.678742170551914
 20
18.94773478876083
 30
0.0
 10
2.619927414623476
 20
18.94535318086999
 30
0.0
 10
2.546841878693442
 20
18.97679095866579
 30
0.0
 10
2.586312367972027
 20
19.02312439524763
 30
0.0
 10
2.602074999999957
 20
19.032022
 30
0.0
  0
SPLINE
  5
16B
330
1F
100
AcDbEntity
  8
DEFAULT
100
AcDbSpline
210
0.0
220
0.0
230
1.0
 70
    24
 71
     2
 72
     6
 73
     3
 74
     0
 42
0.0000000001
 43
0.0000000001
 40
0.0
 40
0.0
 40
0.0
 40
1.0
 40
1.0
 40
1.0
 10
6.855032999999992
 20
19.22056299999998
 30
0.0
 10
7.062248499452295
 20
19.23142251045046
 30
0.0
 10
7.269463998904598
 20
19.24228202090094
 30
0.0
  0
ARC
  5
16C
330
1F
100
AcDbEntity
  8
DEFAULT
100
AcDbCircle
 10
7.208753923092047
 20
20.40069197501101
 30
0.0
 40
1.159999713399296
100
AcDbArc
 50
273.0000188727352
 51
303.0000567613856
  0
SPLINE
  5
16D
330
1F
100
AcDbEntity
  8
DEFAULT
100
AcDbSpline
210
0.0
220
0.0
230
1.0
 70
    24
 71
     2
 72
     6
 73
     3
 74
     0
 42
0.0000000001
 43
0.0000000001
 40
0.0
 40
0.0
 40
0.0
 40
1.0
 40
1.0
 40
1.0
 10
7.840536011399081
 20
19.42783498244692
 30
0.0
 10
8.181027505699518
 20
19.64895249122345
 30
0.0
 10
8.521518999999955
 20
19.87006999999998
 30
0.0
  0
ARC
  5
16E
330
1F
100
AcDbEntity
  8
DEFAULT
100
AcDbCircle
 10
11.64467299999995
 20
43.583108
 30
0.0
 40
8.749999999999993
100
AcDbArc
 50
191.3319297640892
 51
172.4277068949934
  0
SPLINE
  5
16F
330
1F
100
AcDbEntity
  8
DEFAULT
100
AcDbSpline
210
0.0
220
0.0
230
1.0
 70
     8
 71
     2
 72
    34
 73
    31
 74
     0
 42
0.0000000001
 43
0.0000000001
 40
0.0
 40
0.0
 40
0.0
 40
1.0
 40
1.0
 40
2.0
 40
2.0
 40
3.0
 40
3.0
 40
4.0
 40
4.0
 40
5.0
 40
5.0
 40
6.0
 40
6.0
 40
7.0
 40
7.0
 40
8.0
 40
8.0
 40
9.0
 40
9.0
 40
10.0
 40
10.0
 40
11.0
 40
11.0
 40
12.0
 40
12.0
 40
13.0
 40
13.0
 40
14.0
 40
14.0
 40
15.0
 40
15.0
 40
15.0
 10
6.859187999999961
 20
19.14127799999999
 30
0.0
 10
6.859186499999964
 20
19.13915899999999
 30
0.0
 10
6.859184999999968
 20
19.13703999999998
 30
0.0
 10
6.858959499999969
 20
19.13493249999999
 30
0.0
 10
6.85873399999997
 20
19.132825
 30
0.0
 10
6.858286499999963
 20
19.13075349999999
 30
0.0
 10
6.857838999999956
 20
19.12868199999998
 30
0.0
 10
6.857175499999983
 20
19.12666949999998
 30
0.0
 10
6.856512000000009
 20
19.12465699999998
 30
0.0
 10
6.855638499999998
 20
19.12272649999998
 30
0.0
 10
6.854764999999986
 20
19.12079599999998
 30
0.0
 10
6.853692499999966
 20
19.11896799999999
 30
0.0
 10
6.852619999999945
 20
19.11713999999999
 30
0.0
 10
6.851359999999943
 20
19.11543599999999
 30
0.0
 10
6.850099999999941
 20
19.11373199999998
 30
0.0
 10
6.848666999999949
 20
19.11217099999999
 30
0.0
 10
6.847233999999958
 20
19.11060999999999
 30
0.0
 10
6.845643999999965
 20
19.10920949999999
 30
0.0
 10
6.844053999999971
 20
19.10780899999999
 30
0.0
 10
6.842323999999962
 20
19.10658449999999
 30
0.0
 10
6.840593999999953
 20
19.10535999999999
 30
0.0
 10
6.83874499999996
 20
19.10432499999999
 30
0.0
 10
6.836895999999967
 20
19.10328999999999
 30
0.0
 10
6.83494749999997
 20
19.10245699999999
 30
0.0
 10
6.832998999999973
 20
19.10162399999999
 30
0.0
 10
6.830972999999972
 20
19.10100149999999
 30
0.0
 10
6.828946999999971
 20
19.10037899999999
 30
0.0
 10
6.826866999999964
 20
19.09997449999999
 30
0.0
 10
6.824786999999958
 20
19.09956999999999
 30
0.0
 10
6.822735999999963
 20
19.09938999999999
 30
0.0
 10
6.820684999999969
 20
19.09920999999999
 30
0.0
  0
SPLINE
  5
170
330
1F
100
AcDbEntity
  8
DEFAULT
100
AcDbSpline
210
0.0
220
0.0
230
1.0
 70
    24
 71
     2
 72
     6
 73
     3
 74
     0
 42
0.0000000001
 43
0.0000000001
 40
0.0
 40
0.0
 40
0.0
 40
1.0
 40
1.0
 40
1.0
 10
24.49643099999997
 20
1.279527999999999
 30
0.0
 10
24.23295349999998
 20
1.279527999999999
 30
0.0
 10
23.96947599999999
 20
1.279527999999999
 30
0.0
  0
ARC
  5
171
330
1F
100
AcDbEntity
  8
DEFAULT
100
AcDbCircle
 10
23.96947599999999
 20
0.0
 30
0.0
 40
1.279527939310224
100
AcDbArc
 50
15.7620695672927
 51
18.57560333516714
  0
SPLINE
  5
172
330
1F
100
AcDbEntity
  8
DEFAULT
100
AcDbSpline
210
0.0
220
0.0
230
1.0
 70
    24
 71
     2
 72
     6
 73
     3
 74
     0
 42
0.0000000001
 43
0.0000000001
 40
0.0
 40
0.0
 40
0.0
 40
1.0
 40
1.0
 40
1.0
 10
25.43108999999998
 20
1.441068000000001
 30
0.0
 10
25.43108999999998
 20
0.9929814999999991
 30
0.0
 10
25.43108999999998
 20
0.5448949999999968
 30
0.0
  0
CIRCLE
  5
173
330
1F
100
AcDbEntity
  8
DEFAULT
100
AcDbCircle
 10
23.96947599999999
 20
0.0
 30
0.0
 40
1.279528000000001
  0
SPLINE
  5
174
330
1F
100
AcDbEntity
  8
DEFAULT
100
AcDbSpline
210
0.0
220
0.0
230
1.0
 70
    24
 71
     2
 72
     6
 73
     3
 74
     0
 42
0.0000000001
 43
0.0000000001
 40
0.0
 40
0.0
 40
0.0
 40
1.0
 40
1.0
 40
1.0
 10
24.35825499999999
 20
1.441068000000001
 30
0.0
 10
24.35825499999999
 20
1.360298
 30
0.0
 10
24.35825499999999
 20
1.279527999999999
 30
0.0
  0
ARC
  5
175
330
1F
100
AcDbEntity
  8
DEFAULT
100
AcDbCircle
 10
24.37387999999999
 20
1.441068000000001
 30
0.0
 40
0.015625
100
AcDbArc
 50
90.0
 51
180.0
  0
SPLINE
  5
176
330
1F
100
AcDbEntity
  8
DEFAULT
100
AcDbSpline
210
0.0
220
0.0
230
1.0
 70
    24
 71
     2
 72
     6
 73
     3
 74
     0
 42
0.0000000001
 43
0.0000000001
 40
0.0
 40
0.0
 40
0.0
 40
1.0
 40
1.0
 40
1.0
 10
0.5608579999999961
 20
36.188655
 30
0.0
 10
-0.3298060000000191
 20
36.188655
 30
0.0
 10
-1.220470000000034
 20
36.188655
 30
0.0
  0
SPLINE
  5
177
330
1F
100
AcDbEntity
  8
DEFAULT
100
AcDbSpline
210
0.0
220
0.0
230
1.0
 70
     8
 71
     3
 72
    10
 73
     6
 74
     0
 42
0.0000000001
 43
0.0000000001
 40
0.0
 40
0.0
 40
0.0
 40
0.0
 40
0.3077322598062
 40
0.6415592093998
 40
1.0
 40
1.0
 40
1.0
 40
1.0
 10
20.87698605863937
 20
7.189638580579995
 30
0.0
 10
20.88661795951072
 20
7.191540374799999
 30
0.0
 10
20.90658408634152
 20
7.196085536870001
 30
0.0
 10
20.93743087564889
 20
7.204238708129992
 30
0.0
 10
20.95868330343461
 20
7.210250861239999
 30
0.0
 10
20.96968727017389
 20
7.213363253040001
 30
0.0
  0
SPLINE
  5
178
330
1F
100
AcDbEntity
  8
DEFAULT
100
AcDbSpline
210
0.0
220
0.0
230
1.0
 70
    24
 71
     2
 72
     6
 73
     3
 74
     0
 42
0.0000000001
 43
0.0000000001
 40
0.0
 40
0.0
 40
0.0
 40
1.0
 40
1.0
 40
1.0
 10
2.319673000000023
 20
7.310362999999995
 30
0.0
 10
6.794672999999989
 20
7.310362999999995
 30
0.0
 10
11.26967299999995
 20
7.310362999999995
 30
0.0
  0
SPLINE
  5
179
330
1F
100
AcDbEntity
  8
DEFAULT
100
AcDbSpline
210
0.0
220
0.0
230
1.0
 70
    24
 71
     2
 72
     6
 73
     3
 74
     0
 42
0.0000000001
 43
0.0000000001
 40
0.0
 40
0.0
 40
0.0
 40
1.0
 40
1.0
 40
1.0
 10
15.14002799999997
 20
31.37531
 30
0.0
 10
14.36675399999999
 20
31.37531
 30
0.0
 10
13.59348
 20
31.37531
 30
0.0
  0
SPLINE
  5
17A
330
1F
100
AcDbEntity
  8
DEFAULT
100
AcDbSpline
210
0.0
220
0.0
230
1.0
 70
    24
 71
     2
 72
     6
 73
     3
 74
     0
 42
0.0000000001
 43
0.0000000001
 40
0.0
 40
0.0
 40
0.0
 40
1.0
 40
1.0
 40
1.0
 10
10.89473199999998
 20
1.574803000000003
 30
0.0
 10
11.64467249999998
 20
1.574803000000003
 30
0.0
 10
12.39461299999999
 20
1.574803000000003
 30
0.0
  0
SPLINE
  5
17B
330
1F
100
AcDbEntity
  8
DEFAULT
100
AcDbSpline
210
0.0
220
0.0
230
1.0
 70
    24
 71
     2
 72
     6
 73
     3
 74
     0
 42
0.0000000001
 43
0.0000000001
 40
0.0
 40
0.0
 40
0.0
 40
1.0
 40
1.0
 40
1.0
 10
2.591947999999945
 20
19.02584399999999
 30
0.0
 10
2.59206249999994
 20
19.02592499999999
 30
0.0
 10
2.592176999999936
 20
19.026006
 30
0.0
  0
SPLINE
  5
17C
330
1F
100
AcDbEntity
  8
DEFAULT
100
AcDbSpline
210
0.0
220
0.0
230
1.0
 70
     8
 71
     3
 72
    24
 73
    20
 74
     0
 42
0.0000000001
 43
0.0000000001
 40
0.0
 40
0.0
 40
0.0
 40
0.0
 40
1.0
 40
2.0
 40
3.0
 40
4.0
 40
5.0
 40
6.0
 40
7.0
 40
8.0
 40
9.0
 40
10.0
 40
11.0
 40
12.0
 40
13.0
 40
14.0
 40
15.0
 40
16.0
 40
17.0
 40
17.0
 40
17.0
 40
17.0
 10
3.750548999999978
 20
45.388469
 30
0.0
 10
3.655874782317937
 20
45.42703789293684
 30
0.0
 10
3.441490775744512
 20
45.40679905951328
 30
0.0
 10
3.210590123834947
 20
45.1990173896392
 30
0.0
 10
3.061582859650343
 20
44.93459605510286
 30
0.0
 10
2.93411808581601
 20
44.66053511708172
 30
0.0
 10
2.827822707346229
 20
44.37726721710192
 30
0.0
 10
2.734851734333347
 20
44.08954616788681
 30
0.0
 10
2.656471165079267
 20
43.79746426181389
 30
0.0
 10
2.592445355921257
 20
43.50192001646097
 30
0.0
 10
2.543556415834075
 20
43.20342387856317
 30
0.0
 10
2.510056218002944
 20
42.90308760331685
 30
0.0
 10
2.498522581717225
 20
42.59978648278626
 30
0.0
 10
2.522769803959363
 20
42.30092758498422
 30
0.0
 10
2.572088091832313
 20
41.99216598724185
 30
0.0
 10
2.827886264435961
 20
41.78423017484585
 30
0.0
 10
3.13995164382095
 20
41.88251460951201
 30
0.0
 10
3.402281092219255
 20
42.02036620005002
 30
0.0
 10
3.584101612720247
 20
42.11124381066939
 30
0.0
 10
3.673039999999958
 20
42.15803
 30
0.0
  0
SPLINE
  5
17D
330
1F
100
AcDbEntity
  8
DEFAULT
100
AcDbSpline
210
0.0
220
0.0
230
1.0
 70
    24
 71
     2
 72
     6
 73
     3
 74
     0
 42
0.0000000001
 43
0.0000000001
 40
0.0
 40
0.0
 40
0.0
 40
1.0
 40
1.0
 40
1.0
 10
15.15232699999996
 20
55.825237
 30
0.0
 10
14.34337549999998
 20
55.825237
 30
0.0
 10
13.534424
 20
55.825237
 30
0.0
  0
SPLINE
  5
17E
330
1F
100
AcDbEntity
  8
DEFAULT
100
AcDbSpline
210
0.0
220
0.0
230
1.0
 70
    24
 71
     2
 72
     6
 73
     3
 74
     0
 42
0.0000000001
 43
0.0000000001
 40
0.0
 40
0.0
 40
0.0
 40
1.0
 40
1.0
 40
1.0
 10
25.24900299999996
 20
43.130352
 30
0.0
 10
25.24900299999996
 20
42.9827095
 30
0.0
 10
25.24900299999996
 20
42.835067
 30
0.0
  0
SPLINE
  5
17F
330
1F
100
AcDbEntity
  8
DEFAULT
100
AcDbSpline
210
0.0
220
0.0
230
1.0
 70
     8
 71
     3
 72
    11
 73
     7
 74
     0
 42
0.0000000001
 43
0.0000000001
 40
0.0
 40
0.0
 40
0.0
 40
0.0
 40
0.2854440274548
 40
0.5521646952023
 40
0.7914535382191
 40
1.0
 40
1.0
 40
1.0
 40
1.0
 10
11.49798661660401
 20
5.358363283789998
 30
0.0
 10
11.50417813190796
 20
5.392266193469993
 30
0.0
 10
11.51567137241597
 20
5.457939185260003
 30
0.0
 10
11.52985998846498
 20
5.552451815399991
 30
0.0
 10
11.53974587942702
 20
5.638176398840002
 30
0.0
 10
11.54359927431295
 20
5.692135133459999
 30
0.0
 10
11.544672729826
 20
5.71729150022999
 30
0.0
  0
SPLINE
  5
180
330
1F
100
AcDbEntity
  8
DEFAULT
100
AcDbSpline
210
0.0
220
0.0
230
1.0
 70
     8
 71
     3
 72
    10
 73
     6
 74
     0
 42
0.0000000001
 43
0.0000000001
 40
0.0
 40
0.0
 40
0.0
 40
0.0
 40
0.3410481301419
 40
0.6765784100659
 40
1.0
 40
1.0
 40
1.0
 40
1.0
 10
2.319672729826095
 20
7.310363253039995
 30
0.0
 10
2.303225608548303
 20
7.315015201430001
 30
0.0
 10
2.270587753928965
 20
7.324257329689999
 30
0.0
 10
2.2218678858045
 20
7.335914258979997
 30
0.0
 10
2.188912303655854
 20
7.340363253039996
 30
0.0
 10
2.172703345259094
 20
7.340363253039996
 30
0.0
  0
ARC
  5
181
330
1F
100
AcDbEntity
  8
DEFAULT
100
AcDbCircle
 10
13.770644
 20
56.93264799999999
 30
0.0
 40
0.2362200058949278
100
AcDbArc
 50
94.66044957064777
 51
180.0
  0
SPLINE
  5
182
330
1F
100
AcDbEntity
  8
DEFAULT
100
AcDbSpline
210
0.0
220
0.0
230
1.0
 70
    24
 71
     2
 72
     6
 73
     3
 74
     0
 42
0.0000000001
 43
0.0000000001
 40
0.0
 40
0.0
 40
0.0
 40
1.0
 40
1.0
 40
1.0
 10
11.31982199999999
 20
6.683363
 30
0.0
 10
11.644676
 20
6.683363
 30
0.0
 10
11.96953000000002
 20
6.683363
 30
0.0
  0
SPLINE
  5
183
330
1F
100
AcDbEntity
  8
DEFAULT
100
AcDbSpline
210
0.0
220
0.0
230
1.0
 70
    24
 71
     2
 72
     6
 73
     3
 74
     0
 42
0.0000000001
 43
0.0000000001
 40
0.0
 40
0.0
 40
0.0
 40
1.0
 40
1.0
 40
1.0
 10
13.59348
 20
55.79090599999999
 30
0.0
 10
14.36675799999998
 20
55.79090599999999
 30
0.0
 10
15.14003599999995
 20
55.79090599999999
 30
0.0
  0
SPLINE
  5
184
330
1F
100
AcDbEntity
  8
DEFAULT
100
AcDbSpline
210
0.0
220
0.0
230
1.0
 70
    24
 71
     2
 72
     6
 73
     3
 74
     0
 42
0.0000000001
 43
0.0000000001
 40
0.0
 40
0.0
 40
0.0
 40
1.0
 40
1.0
 40
1.0
 10
16.17760499999997
 20
2.791823999999991
 30
0.0
 10
16.17749999999998
 20
2.791903999999995
 30
0.0
 10
16.17739499999999
 20
2.791983999999999
 30
0.0
  0
ARC
  5
185
330
1F
100
AcDbEntity
  8
DEFAULT
100
AcDbCircle
 10
25.18994800000002
 20
44.03586399999999
 30
0.0
 40
0.0590549917026477
100
AcDbArc
 50
322.923641060566
 51
0.0
  0
ARC
  5
186
330
1F
100
AcDbEntity
  8
DEFAULT
100
AcDbCircle
 10
25.19487099999998
 20
0.5448949999999968
 30
0.0
 40
0.2362201456744931
100
AcDbArc
 50
283.2478113805403
 51
359.9999999999999
  0
SPLINE
  5
187
330
1F
100
AcDbEntity
  8
DEFAULT
100
AcDbSpline
210
0.0
220
0.0
230
1.0
 70
    24
 71
     2
 72
     6
 73
     3
 74
     0
 42
0.0000000001
 43
0.0000000001
 40
0.0
 40
0.0
 40
0.0
 40
1.0
 40
1.0
 40
1.0
 10
24.49643099999997
 20
1.279527999999999
 30
0.0
 10
24.49643099999997
 20
1.222747499999997
 30
0.0
 10
24.49643099999997
 20
1.165966999999995
 30
0.0
  0
SPLINE
  5
188
330
1F
100
AcDbEntity
  8
DEFAULT
100
AcDbSpline
210
0.0
220
0.0
230
1.0
 70
    24
 71
     2
 72
     6
 73
     3
 74
     0
 42
0.0000000001
 43
0.0000000001
 40
0.0
 40
0.0
 40
0.0
 40
1.0
 40
1.0
 40
1.0
 10
15.34090599999996
 20
1.279527999999999
 30
0.0
 10
15.07742849999997
 20
1.279527999999999
 30
0.0
 10
14.81395099999997
 20
1.279527999999999
 30
0.0
  0
SPLINE
  5
189
330
1F
100
AcDbEntity
  8
DEFAULT
100
AcDbSpline
210
0.0
220
0.0
230
1.0
 70
    24
 71
     2
 72
     6
 73
     3
 74
     0
 42
0.0000000001
 43
0.0000000001
 40
0.0
 40
0.0
 40
0.0
 40
1.0
 40
1.0
 40
1.0
 10
-1.279526999999973
 20
35.342198
 30
0.0
 10
-1.279526999999973
 20
35.1945555
 30
0.0
 10
-1.279526999999973
 20
35.046913
 30
0.0
  0
ARC
  5
18A
330
1F
100
AcDbEntity
  8
DEFAULT
100
AcDbCircle
 10
14.18326199999996
 20
-87.55406
 30
0.0
 40
90.0000002339904
100
AcDbArc
 50
83.93237134882352
 51
88.70347303752472
  0
SPLINE
  5
18B
330
1F
100
AcDbEntity
  8
DEFAULT
100
AcDbSpline
210
0.0
220
0.0
230
1.0
 70
     8
 71
     3
 72
     8
 73
     4
 74
     0
 42
0.0000000001
 43
0.0000000001
 40
0.0
 40
0.0
 40
0.0
 40
0.0
 40
1.0
 40
1.0
 40
1.0
 40
1.0
 10
17.80755810263696
 20
20.47360663682799
 30
0.0
 10
16.49546459873301
 20
20.45271111716799
 30
0.0
 10
14.67343406787796
 20
20.145939940292
 30
0.0
 10
12.41964294424196
 20
18.60227850362399
 30
0.0
  0
SPLINE
  5
18C
330
1F
100
AcDbEntity
  8
DEFAULT
100
AcDbSpline
210
0.0
220
0.0
230
1.0
 70
    24
 71
     2
 72
     6
 73
     3
 74
     0
 42
0.0000000001
 43
0.0000000001
 40
0.0
 40
0.0
 40
0.0
 40
1.0
 40
1.0
 40
1.0
 10
11.54467299999999
 20
5.720400999999995
 30
0.0
 10
11.54467299999999
 20
6.201881999999998
 30
0.0
 10
11.54467299999999
 20
6.683363
 30
0.0
  0
SPLINE
  5
18D
330
1F
100
AcDbEntity
  8
DEFAULT
100
AcDbSpline
210
0.0
220
0.0
230
1.0
 70
    24
 71
     2
 72
     6
 73
     3
 74
     0
 42
0.0000000001
 43
0.0000000001
 40
0.0
 40
0.0
 40
0.0
 40
1.0
 40
1.0
 40
1.0
 10
25.209633
 20
0.3149609999999967
 30
0.0
 10
25.22931849999998
 20
0.3149609999999967
 30
0.0
 10
25.24900399999996
 20
0.3149609999999967
 30
0.0
  0
CIRCLE
  5
18E
330
1F
100
AcDbEntity
  8
DEFAULT
100
AcDbCircle
 10
23.96947599999999
 20
0.0
 30
0.0
 40
1.0
  0
CIRCLE
  5
18F
330
1F
100
AcDbEntity
  8
DEFAULT
100
AcDbCircle
 10
23.96947599999999
 20
0.0
 30
0.0
 40
1.0625
  0
SPLINE
  5
190
330
1F
100
AcDbEntity
  8
DEFAULT
100
AcDbSpline
210
0.0
220
0.0
230
1.0
 70
    24
 71
     2
 72
     6
 73
     3
 74
     0
 42
0.0000000001
 43
0.0000000001
 40
0.0
 40
0.0
 40
0.0
 40
1.0
 40
1.0
 40
1.0
 10
25.24900399999996
 20
0.3149609999999967
 30
0.0
 10
25.24900399999996
 20
0.1574804999999984
 30
0.0
 10
25.24900399999996
 20
0.0
 30
0.0
  0
ARC
  5
191
330
1F
100
AcDbEntity
  8
DEFAULT
100
AcDbCircle
 10
13.593479
 20
55.73185099999999
 30
0.0
 40
0.0590550000000007
100
AcDbArc
 50
90.0
 51
180.0
  0
ARC
  5
192
330
1F
100
AcDbEntity
  8
DEFAULT
100
AcDbCircle
 10
-1.220472000000029
 20
51.82401900000001
 30
0.0
 40
0.0590550000000005
100
AcDbArc
 50
180.0
 51
270.0
  0
ARC
  5
193
330
1F
100
AcDbEntity
  8
DEFAULT
100
AcDbCircle
 10
15.739148
 20
30.98160899999999
 30
0.0
 40
0.5364173880938494
100
AcDbArc
 50
163.7253244177554
 51
233.798675128893
  0
ARC
  5
194
330
1F
100
AcDbEntity
  8
DEFAULT
100
AcDbCircle
 10
15.857258
 20
30.233569
 30
0.0
 40
0.2362210042417927
100
AcDbArc
 50
274.6604298632042
 51
0.0
  0
CIRCLE
  5
195
330
1F
100
AcDbEntity
  8
DEFAULT
100
AcDbCircle
 10
11.64467299999995
 20
43.583108
 30
0.0
 40
9.899999999999999
  0
ARC
  5
196
330
1F
100
AcDbEntity
  8
DEFAULT
100
AcDbCircle
 10
13.593479
 20
31.434365
 30
0.0
 40
0.0590550000000007
100
AcDbArc
 50
180.0
 51
270.0
  0
ARC
  5
197
330
1F
100
AcDbEntity
  8
DEFAULT
100
AcDbCircle
 10
13.770644
 20
31.72964999999999
 30
0.0
 40
0.2362205042417922
100
AcDbArc
 50
94.6604298632042
 51
180.0
  0
SPLINE
  5
198
330
1F
100
AcDbEntity
  8
DEFAULT
100
AcDbSpline
210
0.0
220
0.0
230
1.0
 70
     8
 71
     3
 72
    11
 73
     7
 74
     0
 42
0.0000000001
 43
0.0000000001
 40
0.0
 40
0.0
 40
0.0
 40
0.0
 40
0.2420895812031
 40
0.4923957721452
 40
0.7461078415217
 40
1.0
 40
1.0
 40
1.0
 40
1.0
 10
10.21354373706998
 20
7.213363253040001
 30
0.0
 10
10.19810914396402
 20
7.209182294900003
 30
0.0
 10
10.16655387812898
 20
7.201255009379992
 30
0.0
 10
10.11817620842999
 20
7.191705734759992
 30
0.0
 10
10.06850993689699
 20
7.185145285339999
 30
0.0
 10
10.03497109354601
 20
7.18336325304
 30
0.0
 10
10.01820064953102
 20
7.18336325304
 30
0.0
  0
ARC
  5
199
330
1F
100
AcDbEntity
  8
DEFAULT
100
AcDbCircle
 10
24.89467300000001
 20
43.583108
 30
0.0
 40
0.5364178681965175
100
AcDbArc
 50
54.24236117128792
 51
124.2612922488398
  0
ARC
  5
19A
330
1F
100
AcDbEntity
  8
DEFAULT
100
AcDbCircle
 10
1.043307999999968
 20
36.542995
 30
0.0
 40
0.2362198204416024
100
AcDbArc
 50
15.74179396079519
 51
85.33955042935199
  0
ARC
  5
19B
330
1F
100
AcDbEntity
  8
DEFAULT
100
AcDbCircle
 10
1.043307999999968
 20
52.11930399999999
 30
0.0
 40
0.236220005894928
100
AcDbArc
 50
0.0
 51
85.33955042935209
  0
SPLINE
  5
19C
330
1F
100
AcDbEntity
  8
DEFAULT
100
AcDbSpline
210
0.0
220
0.0
230
1.0
 70
    24
 71
     2
 72
     6
 73
     3
 74
     0
 42
0.0000000001
 43
0.0000000001
 40
0.0
 40
0.0
 40
0.0
 40
1.0
 40
1.0
 40
1.0
 10
15.21835499999997
 20
1.456693000000001
 30
0.0
 10
15.73914749999997
 20
1.456693000000001
 30
0.0
 10
16.25993999999997
 20
1.456693000000001
 30
0.0
  0
SPLINE
  5
19D
330
1F
100
AcDbEntity
  8
DEFAULT
100
AcDbSpline
210
0.0
220
0.0
230
1.0
 70
    24
 71
     2
 72
     6
 73
     3
 74
     0
 42
0.0000000001
 43
0.0000000001
 40
0.0
 40
0.0
 40
0.0
 40
1.0
 40
1.0
 40
1.0
 10
24.37387999999999
 20
1.456693000000001
 30
0.0
 10
24.89467249999998
 20
1.456693000000001
 30
0.0
 10
25.41546499999998
 20
1.456693000000001
 30
0.0
  0
SPLINE
  5
19E
330
1F
100
AcDbEntity
  8
DEFAULT
100
AcDbSpline
210
0.0
220
0.0
230
1.0
 70
     8
 71
     3
 72
     8
 73
     4
 74
     0
 42
0.0000000001
 43
0.0000000001
 40
0.0
 40
0.0
 40
0.0
 40
0.0
 40
1.0
 40
1.0
 40
1.0
 40
1.0
 10
15.26696007432002
 20
1.575787065499995
 30
0.0
 10
15.27026887290998
 20
1.575139297909999
 30
0.0
 10
15.27362232415999
 20
1.574803113729999
 30
0.0
 10
15.27695329464001
 20
1.574803113729999
 30
0.0
  0
ARC
  5
19F
330
1F
100
AcDbEntity
  8
DEFAULT
100
AcDbCircle
 10
15.857258
 20
55.43656599999998
 30
0.0
 40
0.2362205385879642
100
AcDbArc
 50
280.9350427142624
 51
0.0
  0
ARC
  5
1A0
330
1F
100
AcDbEntity
  8
DEFAULT
100
AcDbCircle
 10
15.739148
 20
56.18460699999999
 30
0.0
 40
0.5364170223207718
100
AcDbArc
 50
307.7420511759717
 51
17.74726778382665
  0
ARC
  5
1A1
330
1F
100
AcDbEntity
  8
DEFAULT
100
AcDbCircle
 10
-1.043305999999973
 20
35.046913
 30
0.0
 40
0.2362210042417925
100
AcDbArc
 50
180.0
 51
265.3395701367957
  0
ARC
  5
1A2
330
1F
100
AcDbEntity
  8
DEFAULT
100
AcDbCircle
 10
0.9251979999999662
 20
51.37126299999998
 30
0.0
 40
0.536417611783424
100
AcDbArc
 50
99.68378664429595
 51
188.2244209839321
  0
SPLINE
  5
1A3
330
1F
100
AcDbEntity
  8
DEFAULT
100
AcDbSpline
210
0.0
220
0.0
230
1.0
 70
    24
 71
     2
 72
     6
 73
     3
 74
     0
 42
0.0000000001
 43
0.0000000001
 40
0.0
 40
0.0
 40
0.0
 40
1.0
 40
1.0
 40
1.0
 10
15.34090599999996
 20
1.279527999999999
 30
0.0
 10
15.34090599999996
 20
1.222747499999997
 30
0.0
 10
15.34090599999996
 20
1.165966999999995
 30
0.0
  0
LINE
  5
1A4
330
1F
100
AcDbEntity
  8
DEFAULT
100
AcDbLine
 10
2.412374
 20
7.189639
 30
0.0
 11
2.412374
 21
6.683363
 31
0.0
  0
SPLINE
  5
1A5
330
1F
100
AcDbEntity
  8
DEFAULT
100
AcDbSpline
210
0.0
220
0.0
230
1.0
 70
     8
 71
     3
 72
    10
 73
     6
 74
     0
 42
0.0000000001
 43
0.0000000001
 40
0.0
 40
0.0
 40
0.0
 40
0.0
 40
0.3388354616947
 40
0.6721995844884
 40
1.0
 40
1.0
 40
1.0
 40
1.0
 10
11.49798664431398
 20
5.358363253039997
 30
0.0
 10
11.49798664778297
 20
5.349757244529997
 30
0.0
 10
11.50239994349801
 20
5.332366427899998
 30
0.0
 10
11.52066482779497
 20
5.313159914639996
 30
0.0
 10
11.53778528924499
 20
5.308363232519994
 30
0.0
 10
11.54611102100597
 20
5.30836325304
 30
0.0
  0
SPLINE
  5
1A6
330
1F
100
AcDbEntity
  8
DEFAULT
100
AcDbSpline
210
0.0
220
0.0
230
1.0
 70
    24
 71
     2
 72
     6
 73
     3
 74
     0
 42
0.0000000001
 43
0.0000000001
 40
0.0
 40
0.0
 40
0.0
 40
1.0
 40
1.0
 40
1.0
 10
12.01967299999995
 20
6.733362999999997
 30
0.0
 10
12.01967299999995
 20
6.973362999999999
 30
0.0
 10
12.01967299999995
 20
7.213363000000001
 30
0.0
  0
ARC
  5
1A7
330
1F
100
AcDbEntity
  8
DEFAULT
100
AcDbCircle
 10
15.857258
 20
56.93264799999999
 30
0.0
 40
0.2362205058949283
100
AcDbArc
 50
0.0
 51
85.339550429352
  0
SPLINE
  5
1A8
330
1F
100
AcDbEntity
  8
DEFAULT
100
AcDbSpline
210
0.0
220
0.0
230
1.0
 70
     8
 71
     3
 72
     8
 73
     4
 74
     0
 42
0.0000000001
 43
0.0000000001
 40
0.0
 40
0.0
 40
0.0
 40
0.0
 40
1.0
 40
1.0
 40
1.0
 40
1.0
 10
5.481786897363008
 20
20.47360663682799
 30
0.0
 10
6.793880401267018
 20
20.45271111716799
 30
0.0
 10
8.615910932122006
 20
20.145939940292
 30
0.0
 10
10.86970205575795
 20
18.60227850362399
 30
0.0
  0
SPLINE
  5
1A9
330
1F
100
AcDbEntity
  8
DEFAULT
100
AcDbSpline
210
0.0
220
0.0
230
1.0
 70
     8
 71
     3
 72
    11
 73
     7
 74
     0
 42
0.0000000001
 43
0.0000000001
 40
0.0
 40
0.0
 40
0.0
 40
0.0
 40
0.2099554840264
 40
0.4464767505974
 40
0.7142005668392
 40
1.0
 40
1.0
 40
1.0
 40
1.0
 10
10.83307709285498
 20
4.30836325304
 30
0.0
 10
10.82566431240201
 20
4.30836325304
 30
0.0
 10
10.80971263169096
 20
4.313068125499996
 30
0.0
 10
10.79125051806398
 20
4.33129974117
 30
0.0
 10
10.77928873430795
 20
4.356988368529997
 30
0.0
 10
10.77639017450002
 20
4.376610725139997
 30
0.0
 10
10.77624115061599
 20
4.386700184839995
 30
0.0
  0
SPLINE
  5
1AA
330
1F
100
AcDbEntity
  8
DEFAULT
100
AcDbSpline
210
0.0
220
0.0
230
1.0
 70
    24
 71
     2
 72
     6
 73
     3
 74
     0
 42
0.0000000001
 43
0.0000000001
 40
0.0
 40
0.0
 40
0.0
 40
1.0
 40
1.0
 40
1.0
 10
11.094673
 20
16.07480299999999
 30
0.0
 10
11.094673
 20
17.29105299999999
 30
0.0
 10
11.094673
 20
18.50730299999999
 30
0.0
  0
SPLINE
  5
1AB
330
1F
100
AcDbEntity
  8
DEFAULT
100
AcDbSpline
210
0.0
220
0.0
230
1.0
 70
     8
 71
     3
 72
    10
 73
     6
 74
     0
 42
0.0000000001
 43
0.0000000001
 40
0.0
 40
0.0
 40
0.0
 40
0.0
 40
0.3333950301424
 40
0.6667275652557
 40
1.0
 40
1.0
 40
1.0
 40
1.0
 10
24.57707751025998
 20
1.632709143930001
 30
0.0
 10
24.57743080104001
 20
1.622587860059994
 30
0.0
 10
24.58351526745997
 20
1.602161892189997
 30
0.0
 10
24.60626922507998
 20
1.580176337929998
 30
0.0
 10
24.62689140646
 20
1.574803113729999
 30
0.0
 10
24.63701513033999
 20
1.574803113729999
 30
0.0
  0
LINE
  5
1AC
330
1F
100
AcDbEntity
  8
DEFAULT
100
AcDbLine
 10
3.444673000000023
 20
7.183363
 30
0.0
 11
3.444673000000023
 21
6.683363
 31
0.0
  0
SPLINE
  5
1AD
330
1F
100
AcDbEntity
  8
DEFAULT
100
AcDbSpline
210
0.0
220
0.0
230
1.0
 70
    24
 71
     2
 72
     6
 73
     3
 74
     0
 42
0.0000000001
 43
0.0000000001
 40
0.0
 40
0.0
 40
0.0
 40
1.0
 40
1.0
 40
1.0
 10
0.4044039999999995
 20
1.456693000000001
 30
0.0
 10
0.9251964999999984
 20
1.456693000000001
 30
0.0
 10
1.445988999999997
 20
1.456693000000001
 30
0.0
  0
ARC
  5
1AE
330
1F
100
AcDbEntity
  8
DEFAULT
100
AcDbCircle
 10
0.0
 20
0.0
 30
0.0
 40
1.279527939310224
100
AcDbArc
 50
15.76206956729271
 51
18.57560333516714
  0
SPLINE
  5
1AF
330
1F
100
AcDbEntity
  8
DEFAULT
100
AcDbSpline
210
0.0
220
0.0
230
1.0
 70
    24
 71
     2
 72
     6
 73
     3
 74
     0
 42
0.0000000001
 43
0.0000000001
 40
0.0
 40
0.0
 40
0.0
 40
1.0
 40
1.0
 40
1.0
 10
1.461613999999997
 20
1.441068000000001
 30
0.0
 10
1.461613999999997
 20
0.9929814999999991
 30
0.0
 10
1.461613999999997
 20
0.5448949999999968
 30
0.0
  0
ARC
  5
1B0
330
1F
100
AcDbEntity
  8
DEFAULT
100
AcDbCircle
 10
24.89467300000001
 20
43.583108
 30
0.0
 40
0.536416906649928
100
AcDbArc
 50
315.7533335976719
 51
44.31283467173384
  0
SPLINE
  5
1B1
330
1F
100
AcDbEntity
  8
DEFAULT
100
AcDbSpline
210
0.0
220
0.0
230
1.0
 70
     8
 71
     3
 72
    13
 73
     9
 74
     0
 42
0.0000000001
 43
0.0000000001
 40
0.0
 40
0.0
 40
0.0
 40
0.0
 40
0.1983372897061
 40
0.382736114032
 40
0.5542088850058
 40
0.7136951690739
 40
0.8620461467553
 40
1.0
 40
1.0
 40
1.0
 40
1.0
 10
2.484345089720421
 20
7.18336325304
 30
0.0
 10
2.479561909173583
 20
7.18336325304
 30
0.0
 10
2.470331009811559
 20
7.183506443070002
 30
0.0
 10
2.45697776099388
 20
7.184122213699993
 30
0.0
 10
2.444583365139067
 20
7.185068733089992
 30
0.0
 10
2.433088251570609
 20
7.18630275052999
 30
0.0
 10
2.422439642435222
 20
7.187795552379995
 30
0.0
 10
2.41563787630048
 20
7.188994124969994
 30
0.0
 10
2.412373941360613
 20
7.189638580579995
 30
0.0
  0
ARC
  5
1B2
330
1F
100
AcDbEntity
  8
DEFAULT
100
AcDbCircle
 10
16.034424
 20
55.73185099999999
 30
0.0
 40
0.0590549041019516
100
AcDbArc
 50
0.0
 51
40.32284321304987
  0
SPLINE
  5
1B3
330
1F
100
AcDbEntity
  8
DEFAULT
100
AcDbSpline
210
0.0
220
0.0
230
1.0
 70
     8
 71
     3
 72
    10
 73
     6
 74
     0
 42
0.0000000001
 43
0.0000000001
 40
0.0
 40
0.0
 40
0.0
 40
0.0
 40
0.3410481301419
 40
0.6765784100659
 40
1.0
 40
1.0
 40
1.0
 40
1.0
 10
20.96968727017389
 20
7.310363253039995
 30
0.0
 10
20.98613439145169
 20
7.315015201430001
 30
0.0
 10
21.01877224607102
 20
7.324257329689999
 30
0.0
 10
21.06749211419549
 20
7.335914258979997
 30
0.0
 10
21.10044769634413
 20
7.340363253039996
 30
0.0
 10
21.11665665474089
 20
7.340363253039996
 30
0.0
  0
ARC
  5
1B4
330
1F
100
AcDbEntity
  8
DEFAULT
100
AcDbCircle
 10
15.739148
 20
30.98160899999999
 30
0.0
 40
0.5364170029785152
100
AcDbArc
 50
243.6955708544836
 51
332.2365592904708
  0
ARC
  5
1B5
330
1F
100
AcDbEntity
  8
DEFAULT
100
AcDbCircle
 10
22.92616900000002
 20
42.835067
 30
0.0
 40
0.2362205058949283
100
AcDbArc
 50
180.0
 51
265.3395504293516
  0
ARC
  5
1B6
330
1F
100
AcDbEntity
  8
DEFAULT
100
AcDbCircle
 10
22.92616900000002
 20
44.331149
 30
0.0
 40
0.2362210042417928
100
AcDbArc
 50
94.66042986320495
 51
180.0
  0
ARC
  5
1B7
330
1F
100
AcDbEntity
  8
DEFAULT
100
AcDbCircle
 10
9.420982999999978
 20
5.358362999999997
 30
0.0
 40
0.0499999067448244
100
AcDbArc
 50
214.8648161992318
 51
270.0
  0
SPLINE
  5
1B8
330
1F
100
AcDbEntity
  8
DEFAULT
100
AcDbSpline
210
0.0
220
0.0
230
1.0
 70
     8
 71
     3
 72
    11
 73
     7
 74
     0
 42
0.0000000001
 43
0.0000000001
 40
0.0
 40
0.0
 40
0.0
 40
0.0
 40
0.3238269159132
 40
0.6105068404741
 40
0.8343663280072
 40
1.0
 40
1.0
 40
1.0
 40
1.0
 10
12.41442411266399
 20
5.358363253039997
 30
0.0
 10
12.41442411266399
 20
5.351956947839994
 30
0.0
 10
12.41337069598501
 20
5.339830799970002
 30
0.0
 10
12.40860190901998
 20
5.323919441909993
 30
0.0
 10
12.40156303901898
 20
5.312228067829992
 30
0.0
 10
12.39401665178497
 20
5.30836325304
 30
0.0
 10
12.39073990176399
 20
5.30836325304
 30
0.0
  0
SPLINE
  5
1B9
330
1F
100
AcDbEntity
  8
DEFAULT
100
AcDbSpline
210
0.0
220
0.0
230
1.0
 70
    24
 71
     2
 72
     6
 73
     3
 74
     0
 42
0.0000000001
 43
0.0000000001
 40
0.0
 40
0.0
 40
0.0
 40
1.0
 40
1.0
 40
1.0
 10
25.24900299999996
 20
44.331149
 30
0.0
 10
25.24900299999996
 20
44.18350649999999
 30
0.0
 10
25.24900299999996
 20
44.03586399999999
 30
0.0
  0
ARC
  5
1BA
330
1F
100
AcDbEntity
  8
DEFAULT
100
AcDbCircle
 10
0.9251979999999662
 20
51.37126299999998
 30
0.0
 40
0.5364170644051076
100
AcDbArc
 50
19.7211470921406
 51
89.83732513497368
  0
SPLINE
  5
1BB
330
1F
100
AcDbEntity
  8
DEFAULT
100
AcDbSpline
210
0.0
220
0.0
230
1.0
 70
     8
 71
     3
 72
     9
 73
     5
 74
     0
 42
0.0000000001
 43
0.0000000001
 40
0.0
 40
0.0
 40
0.0
 40
0.0
 40
1.0
 40
2.0
 40
2.0
 40
2.0
 40
2.0
 10
0.9645493480250025
 20
2.802828593320001
 30
0.0
 10
0.8905024817423168
 20
2.782744342568776
 30
0.0
 10
0.7373730932892499
 20
2.771730281257732
 30
0.0
 10
0.5845745500737394
 20
2.773181358914329
 30
0.0
 10
0.5081700000000069
 20
2.776617000000002
 30
0.0
  0
SPLINE
  5
1BC
330
1F
100
AcDbEntity
  8
DEFAULT
100
AcDbSpline
210
0.0
220
0.0
230
1.0
 70
     8
 71
     3
 72
    10
 73
     6
 74
     0
 42
0.0000000001
 43
0.0000000001
 40
-1.0
 40
-1.0
 40
-1.0
 40
-1.0
 40
-0.7216975530022782
 40
-0.3661573315415642
 40
0.0
 40
0.0
 40
0.0
 40
0.0
 10
11.32642230871096
 20
3.923608343089995
 30
0.0
 10
11.314247604218
 20
3.92478195887999
 30
0.0
 10
11.28672458927696
 20
3.933963232590003
 30
0.0
 10
11.25624672494831
 20
3.967989399734961
 30
0.0
 10
11.24949507180531
 20
4.000399777221219
 30
0.0
 10
11.25019145688748
 20
4.016346404624997
 30
0.0
  0
SPLINE
  5
1BD
330
1F
100
AcDbEntity
  8
DEFAULT
100
AcDbSpline
210
0.0
220
0.0
230
1.0
 70
    24
 71
     2
 72
     6
 73
     3
 74
     0
 42
0.0000000001
 43
0.0000000001
 40
0.0
 40
0.0
 40
0.0
 40
1.0
 40
1.0
 40
1.0
 10
11.25019145688748
 20
4.016346404624997
 30
0.0
 10
11.25210423678075
 20
4.125824718529998
 30
0.0
 10
11.25401701667403
 20
4.235303032434999
 30
0.0
  0
SPLINE
  5
1BE
330
1F
100
AcDbEntity
  8
DEFAULT
100
AcDbSpline
210
0.0
220
0.0
230
1.0
 70
     8
 71
     3
 72
    10
 73
     6
 74
     0
 42
0.0000000001
 43
0.0000000001
 40
0.0
 40
0.0
 40
0.0
 40
0.0
 40
0.3417652445880952
 40
0.6756715367807121
 40
1.0
 40
1.0
 40
1.0
 40
1.0
 10
11.25401701667403
 20
4.235303032434999
 30
0.0
 10
11.25444830299443
 20
4.245266457426339
 30
0.0
 10
11.26007917783437
 20
4.265082519399627
 30
0.0
 10
11.28093599567995
 20
4.287097802969996
 30
0.0
 10
11.30035779144197
 20
4.292962205690003
 30
0.0
 10
11.30981955559599
 20
4.293165478090003
 30
0.0
  0
POLYLINE
  5
1BF
330
1F
100
AcDbEntity
  8
DEFAULT
100
AcDb2dPolyline
 66
     1
 10
0.0
 20
0.0
 30
0.0
  0
VERTEX
  5
1C1
330
1BF
100
AcDbEntity
  8
DEFAULT
100
AcDbVertex
100
AcDb2dVertex
 10
10.64602299864913
 20
4.308404044493145
 30
0.0
  0
VERTEX
  5
1C2
330
1BF
100
AcDbEntity
  8
DEFAULT
100
AcDbVertex
100
AcDb2dVertex
 10
12.6407039933427
 20
4.308483780456541
 30
0.0
  0
SEQEND
  5
1C0
330
1BF
100
AcDbEntity
  8
DEFAULT
  0
LINE
  5
1C3
330
1F
100
AcDbEntity
  8
DEFAULT
100
AcDbLine
 10
21.52807281610995
 20
43.04973225888999
 30
0.0
 11
24.42817432952
 21
43.13773981172
 31
0.0
  0
ARC
  5
1C4
330
1F
100
AcDbEntity
  8
DEFAULT
100
AcDbCircle
 10
24.57195196276899
 20
38.27696388313804
 30
0.0
 40
4.862901873953907
100
AcDbArc
 50
89.66171827877753
 51
91.69426660490106
  0
SPLINE
  5
1C5
330
1F
100
AcDbEntity
  8
DEFAULT
100
AcDbSpline
210
0.0
220
0.0
230
1.0
 70
     8
 71
     3
 72
     9
 73
     5
 74
     0
 42
0.0000000001
 43
0.0000000001
 40
0.0
 40
0.0
 40
0.0
 40
0.0
 40
1.0
 40
2.0
 40
2.0
 40
2.0
 40
2.0
 10
24.600663
 20
43.13978099999999
 30
0.0
 10
24.60954189289907
 20
43.13032603167814
 30
0.0
 10
24.63123270584134
 20
43.11502741763805
 30
0.0
 10
24.6573923666104
 20
43.1103212761448
 30
0.0
 10
24.67035325823002
 20
43.11078717489001
 30
0.0
  0
SPLINE
  5
1C6
330
1F
100
AcDbEntity
  8
DEFAULT
100
AcDbSpline
210
0.0
220
0.0
230
1.0
 70
     8
 71
     3
 72
     9
 73
     5
 74
     0
 42
0.0000000001
 43
0.0000000001
 40
0.0
 40
0.0
 40
0.0
 40
0.0
 40
1.0
 40
2.0
 40
2.0
 40
2.0
 40
2.0
 10
24.67035325823002
 20
43.11078717489001
 30
0.0
 10
24.75430488557168
 20
43.11350832241119
 30
0.0
 10
24.92188848902805
 20
43.12169946024075
 30
0.0
 10
25.09026753005622
 20
43.1231093662259
 30
0.0
 10
25.17322414040001
 20
43.13432522923999
 30
0.0
  0
SPLINE
  5
1C7
330
1F
100
AcDbEntity
  8
DEFAULT
100
AcDbSpline
210
0.0
220
0.0
230
1.0
 70
     8
 71
     3
 72
     9
 73
     5
 74
     0
 42
0.0000000001
 43
0.0000000001
 40
0.0
 40
0.0
 40
0.0
 40
0.0
 40
1.0
 40
2.0
 40
2.0
 40
2.0
 40
2.0
 10
25.17322414040001
 20
43.13432522923999
 30
0.0
 10
25.20853239811032
 20
43.14390199435833
 30
0.0
 10
25.27312658212975
 20
43.18434644988271
 30
0.0
 10
25.30549382000351
 20
43.25331875059879
 30
0.0
 10
25.31083234259472
 20
43.28951281589612
 30
0.0
  0
SPLINE
  5
1C8
330
1F
100
AcDbEntity
  8
DEFAULT
100
AcDbSpline
210
0.0
220
0.0
230
1.0
 70
     8
 71
     3
 72
     9
 73
     5
 74
     0
 42
0.0000000001
 43
0.0000000001
 40
0.0
 40
0.0
 40
0.0
 40
0.0
 40
1.0
 40
2.0
 40
2.0
 40
2.0
 40
2.0
 10
25.31083234259472
 20
43.28951281589612
 30
0.0
 10
25.32666499139469
 20
43.39397004752873
 30
0.0
 10
25.33929200763697
 20
43.60478208670766
 30
0.0
 10
25.32441313698058
 20
43.81663973751476
 30
0.0
 10
25.29941202714002
 20
43.91896160346
 30
0.0
  0
SPLINE
  5
1C9
330
1F
100
AcDbEntity
  8
DEFAULT
100
AcDbSpline
210
0.0
220
0.0
230
1.0
 70
     8
 71
     3
 72
     9
 73
     5
 74
     0
 42
0.0000000001
 43
0.0000000001
 40
0.0
 40
0.0
 40
0.0
 40
0.0
 40
1.0
 40
2.0
 40
2.0
 40
2.0
 40
2.0
 10
25.29941202714002
 20
43.91896160346
 30
0.0
 10
25.28599159524754
 20
43.9529976567359
 30
0.0
 10
25.23864758374367
 20
44.01272457026199
 30
0.0
 10
25.16651562866463
 20
44.03726861765448
 30
0.0
 10
25.12995355963
 20
44.03856874099999
 30
0.0
  0
SPLINE
  5
1CA
330
1F
100
AcDbEntity
  8
DEFAULT
100
AcDbSpline
210
0.0
220
0.0
230
1.0
 70
    24
 71
     2
 72
     6
 73
     3
 74
     0
 42
0.0000000001
 43
0.0000000001
 40
0.0
 40
0.0
 40
0.0
 40
1.0
 40
1.0
 40
1.0
 10
25.12995355963
 20
44.03856874099999
 30
0.0
 10
24.90015340893001
 20
44.046999196345
 30
0.0
 10
24.67035325823002
 20
44.05542965169001
 30
0.0
  0
SPLINE
  5
1CB
330
1F
100
AcDbEntity
  8
DEFAULT
100
AcDbSpline
210
0.0
220
0.0
230
1.0
 70
     8
 71
     3
 72
     9
 73
     5
 74
     0
 42
0.0000000001
 43
0.0000000001
 40
0.0
 40
0.0
 40
0.0
 40
0.0
 40
1.0
 40
2.0
 40
2.0
 40
2.0
 40
2.0
 10
24.67035325823002
 20
44.05542965169001
 30
0.0
 10
24.6573917501309
 20
44.05590687794169
 30
0.0
 10
24.63123901222366
 20
44.05118000468532
 30
0.0
 10
24.60954279936647
 20
44.03589764874735
 30
0.0
 10
24.60066699999999
 20
44.026439
 30
0.0
  0
ARC
  5
1CC
330
1F
100
AcDbEntity
  8
DEFAULT
100
AcDbCircle
 10
24.56942119627519
 20
48.68296662353664
 30
0.0
 40
4.65663245371699
100
AcDbArc
 50
268.2618145394534
 51
270.3844551041773
  0
LINE
  5
1CD
330
1F
100
AcDbEntity
  8
DEFAULT
100
AcDbLine
 10
24.42817432952
 20
44.02847684144
 30
0.0
 11
21.52807314891999
 21
44.11648438344999
 31
0.0
  0
LINE
  5
1CE
330
1F
100
AcDbEntity
  8
DEFAULT
100
AcDbLine
 10
3.334399503602015
 20
38.20458555428999
 30
0.0
 11
1.040821643186007
 21
36.4294653109
 31
0.0
  0
ARC
  5
1CF
330
1F
100
AcDbEntity
  8
DEFAULT
100
AcDbCircle
 10
-1.933020078534298
 20
40.27796275331606
 30
0.0
 40
4.863606393421169
100
AcDbArc
 50
305.6620064713931
 51
307.6942664645116
  0
SPLINE
  5
1D0
330
1F
100
AcDbEntity
  8
DEFAULT
100
AcDbSpline
210
0.0
220
0.0
230
1.0
 70
     8
 71
     3
 72
     9
 73
     5
 74
     0
 42
0.0000000001
 43
0.0000000001
 40
0.0
 40
0.0
 40
0.0
 40
0.0
 40
1.0
 40
2.0
 40
2.0
 40
2.0
 40
2.0
 10
0.9024749999999813
 20
36.326427
 30
0.0
 10
0.8913187922893826
 20
36.3285324012767
 30
0.0
 10
0.8682117096587376
 20
36.32884860883765
 30
0.0
 10
0.8466341060937452
 20
36.32048545062831
 30
0.0
 10
0.8370037983459611
 20
36.31447296648
 30
0.0
  0
SPLINE
  5
1D1
330
1F
100
AcDbEntity
  8
DEFAULT
100
AcDbSpline
210
0.0
220
0.0
230
1.0
 70
     8
 71
     3
 72
     9
 73
     5
 74
     0
 42
0.0000000001
 43
0.0000000001
 40
0.0
 40
0.0
 40
0.0
 40
0.0
 40
1.0
 40
2.0
 40
2.0
 40
2.0
 40
2.0
 10
0.8370037983459611
 20
36.31447296648
 30
0.0
 10
0.7749282858210904
 20
36.26692882415672
 30
0.0
 10
0.6520154606558322
 20
36.16988963984343
 30
0.0
 10
0.5287032409830772
 20
36.07347979745749
 30
0.0
 10
0.4671177688545072
 20
36.02511832185999
 30
0.0
  0
SPLINE
  5
1D2
330
1F
100
AcDbEntity
  8
DEFAULT
100
AcDbSpline
210
0.0
220
0.0
230
1.0
 70
     8
 71
     3
 72
     9
 73
     5
 74
     0
 42
0.0000000001
 43
0.0000000001
 40
0.0
 40
0.0
 40
0.0
 40
0.0
 40
1.0
 40
2.0
 40
2.0
 40
2.0
 40
2.0
 10
0.4671177688545072
 20
36.02511832185999
 30
0.0
 10
0.4324561655056982
 20
35.99811298181838
 30
0.0
 10
0.3834517136206728
 20
35.91900473434062
 30
0.0
 10
0.3955080293919764
 20
35.82673730358229
 30
0.0
 10
0.4159463211392449
 20
35.78786530225017
 30
0.0
  0
ARC
  5
1D3
330
1F
100
AcDbEntity
  8
DEFAULT
100
AcDbCircle
 10
2.186586896851111
 20
36.71140692964021
 30
0.0
 40
1.997022079467213
100
AcDbArc
 50
207.5459221365783
 51
224.4545278353189
  0
SPLINE
  5
1D4
330
1F
100
AcDbEntity
  8
DEFAULT
100
AcDbSpline
210
0.0
220
0.0
230
1.0
 70
     8
 71
     3
 72
     9
 73
     5
 74
     0
 42
0.0000000001
 43
0.0000000001
 40
0.0
 40
0.0
 40
0.0
 40
0.0
 40
1.000000294252826
 40
2.0
 40
2.0
 40
2.0
 40
2.0
 10
0.7610995690790219
 20
35.31280653487384
 30
0.0
 10
0.7917688397756706
 20
35.28134559997154
 30
0.0
 10
0.8758147552238711
 20
35.2413811776276
 30
0.0
 10
0.9661922763540929
 20
35.26356984104362
 30
0.0
 10
1.002563951545028
 20
35.28818397348
 30
0.0
  0
SPLINE
  5
1D5
330
1F
100
AcDbEntity
  8
DEFAULT
100
AcDbSpline
210
0.0
220
0.0
230
1.0
 70
    24
 71
     2
 72
     6
 73
     3
 74
     0
 42
0.0000000001
 43
0.0000000001
 40
0.0
 40
0.0
 40
0.0
 40
1.0
 40
1.0
 40
1.0
 10
1.002563951545028
 20
35.28818397348
 30
0.0
 10
1.193431761655006
 20
35.4164366647875
 30
0.0
 10
1.384299571764984
 20
35.54468935609499
 30
0.0
  0
SPLINE
  5
1D6
330
1F
100
AcDbEntity
  8
DEFAULT
100
AcDbSpline
210
0.0
220
0.0
230
1.0
 70
     8
 71
     3
 72
     9
 73
     5
 74
     0
 42
0.0000000001
 43
0.0000000001
 40
0.0
 40
0.0
 40
0.0
 40
0.0
 40
0.9999984608052404
 40
2.0
 40
2.0
 40
2.0
 40
2.0
 10
1.384299571764984
 20
35.54468935609499
 30
0.0
 10
1.395065957659597
 20
35.55192201176092
 30
0.0
 10
1.413445797396832
 20
35.57111832479232
 30
0.0
 10
1.422015104576701
 20
35.59623484307481
 30
0.0
 10
1.423636999999985
 20
35.60910399999999
 30
0.0
  0
ARC
  5
1D7
330
1F
100
AcDbEntity
  8
DEFAULT
100
AcDbCircle
 10
4.185711472240598
 20
31.86061367729512
 30
0.0
 40
4.656203935569763
100
AcDbArc
 50
124.2618093167516
 51
126.384638817642
  0
LINE
  5
1D8
330
1F
100
AcDbEntity
  8
DEFAULT
100
AcDbLine
 10
1.564383732922977
 20
35.70884391634
 30
0.0
 11
3.962630971780982
 21
37.34247590362999
 31
0.0
  0
LINE
  5
1D9
330
1F
100
AcDbEntity
  8
DEFAULT
100
AcDbLine
 10
14.19158483544999
 20
34.01849082806
 30
0.0
 11
15.17142134353998
 21
31.28764938926999
 31
0.0
  0
ARC
  5
1DA
330
1F
100
AcDbEntity
  8
DEFAULT
100
AcDbCircle
 10
10.59265758938432
 20
29.648731518345
 30
0.0
 40
4.863242673773031
100
AcDbArc
 50
17.66185148551464
 51
19.69426658299938
  0
SPLINE
  5
1DB
330
1F
100
AcDbEntity
  8
DEFAULT
100
AcDbSpline
210
0.0
220
0.0
230
1.0
 70
     8
 71
     3
 72
     9
 73
     5
 74
     0
 42
0.0000000001
 43
0.0000000001
 40
0.0
 40
0.0
 40
0.0
 40
0.0
 40
1.0
 40
2.0
 40
2.0
 40
2.0
 40
2.0
 10
15.22666499999997
 20
31.12423299999999
 30
0.0
 10
15.22043002924266
 20
31.11286742238489
 30
0.0
 10
15.21255837339129
 20
31.08751103841725
 30
0.0
 10
15.21617690268153
 20
31.06117655393327
 30
0.0
 10
15.22062516171496
 20
31.04899451999999
 30
0.0
  0
SPLINE
  5
1DC
330
1F
100
AcDbEntity
  8
DEFAULT
100
AcDbSpline
210
0.0
220
0.0
230
1.0
 70
    24
 71
     2
 72
     6
 73
     3
 74
     0
 42
0.0000000001
 43
0.0000000001
 40
0.0
 40
0.0
 40
0.0
 40
1.0
 40
1.0
 40
1.0
 10
15.22062516171496
 20
31.04899451999999
 30
0.0
 10
15.29964658085748
 20
30.83304376
 30
0.0
 10
15.378668
 20
30.617093
 30
0.0
  0
SPLINE
  5
1DD
330
1F
100
AcDbEntity
  8
DEFAULT
100
AcDbSpline
210
0.0
220
0.0
230
1.0
 70
    24
 71
     2
 72
     6
 73
     3
 74
     0
 42
0.0000000001
 43
0.0000000001
 40
-1.0
 40
-1.0
 40
-1.0
 40
0.0
 40
0.0
 40
0.0
 10
15.378668
 20
30.617093
 30
0.0
 10
15.3786895873175
 20
30.6170867464275
 30
0.0
 10
15.37871117463499
 20
30.617080492855
 30
0.0
  0
SPLINE
  5
1DE
330
1F
100
AcDbEntity
  8
DEFAULT
100
AcDbSpline
210
0.0
220
0.0
230
1.0
 70
     8
 71
     3
 72
     9
 73
     5
 74
     0
 42
0.0000000001
 43
0.0000000001
 40
0.0
 40
0.0
 40
0.0
 40
0.0
 40
1.0
 40
2.0
 40
2.0
 40
2.0
 40
2.0
 10
15.37871117463499
 20
30.617080492855
 30
0.0
 10
15.39123813930797
 20
30.58268925874268
 30
0.0
 10
15.43687847683412
 20
30.52170730045903
 30
0.0
 10
15.50828557023539
 20
30.4951400317314
 30
0.0
 10
15.54479403066
 20
30.49289758369
 30
0.0
  0
SPLINE
  5
1DF
330
1F
100
AcDbEntity
  8
DEFAULT
100
AcDbSpline
210
0.0
220
0.0
230
1.0
 70
     8
 71
     3
 72
     9
 73
     5
 74
     0
 42
0.0000000001
 43
0.0000000001
 40
0.0
 40
0.0
 40
0.0
 40
0.0
 40
1.0
 40
2.0
 40
2.0
 40
2.0
 40
2.0
 10
15.54479403066
 20
30.49289758369
 30
0.0
 10
15.64983593581763
 20
30.5007334021368
 30
0.0
 10
15.8559253114218
 20
30.55205393997983
 30
0.0
 10
16.05252076741391
 20
30.62920713125776
 30
0.0
 10
16.14698842106435
 20
30.676551603359
 30
0.0
  0
SPLINE
  5
1E0
330
1F
100
AcDbEntity
  8
DEFAULT
100
AcDbSpline
210
0.0
220
0.0
230
1.0
 70
     8
 71
     3
 72
     9
 73
     5
 74
     0
 42
0.0000000001
 43
0.0000000001
 40
0.0
 40
0.0
 40
0.0
 40
0.0
 40
1.000000144300852
 40
2.0
 40
2.0
 40
2.0
 40
2.0
 10
16.14698842106435
 20
30.676551603359
 30
0.0
 10
16.18638651813029
 20
30.69599758609704
 30
0.0
 10
16.25036657817003
 20
30.76358032790687
 30
0.0
 10
16.2571920820576
 20
30.85639115353362
 30
0.0
 10
16.24502238688996
 20
30.89858895206
 30
0.0
  0
SPLINE
  5
1E1
330
1F
100
AcDbEntity
  8
DEFAULT
100
AcDbSpline
210
0.0
220
0.0
230
1.0
 70
    24
 71
     2
 72
     6
 73
     3
 74
     0
 42
0.0000000001
 43
0.0000000001
 40
0.0
 40
0.0
 40
0.0
 40
1.0
 40
1.0
 40
1.0
 10
16.24502238688996
 20
30.89858895206
 30
0.0
 10
16.18203669344496
 20
31.11974947602999
 30
0.0
 10
16.11905099999996
 20
31.34090999999999
 30
0.0
  0
SPLINE
  5
1E2
330
1F
100
AcDbEntity
  8
DEFAULT
100
AcDbSpline
210
0.0
220
0.0
230
1.0
 70
    24
 71
     2
 72
     6
 73
     3
 74
     0
 42
0.0000000001
 43
0.0000000001
 40
-1.0
 40
-1.0
 40
-1.0
 40
0.0
 40
0.0
 40
0.0
 10
16.11905099999996
 20
31.34090999999999
 30
0.0
 10
16.11903349273246
 20
31.3409050831625
 30
0.0
 10
16.11901598546496
 20
31.340900166325
 30
0.0
  0
SPLINE
  5
1E3
330
1F
100
AcDbEntity
  8
DEFAULT
100
AcDbSpline
210
0.0
220
0.0
230
1.0
 70
     8
 71
     3
 72
     9
 73
     5
 74
     0
 42
0.0000000001
 43
0.0000000001
 40
0.0
 40
0.0
 40
0.0
 40
0.0
 40
1.0
 40
2.0
 40
2.0
 40
2.0
 40
2.0
 10
16.11901598546496
 20
31.340900166325
 30
0.0
 10
16.11548221614584
 20
31.35337983105408
 30
0.0
 10
16.10290513119088
 20
31.37679172987514
 30
0.0
 10
16.08166646626006
 20
31.39270361194218
 30
0.0
 10
16.069928
 20
31.39822199999999
 30
0.0
  0
ARC
  5
1E4
330
1F
100
AcDbEntity
  8
DEFAULT
100
AcDbCircle
 10
20.48865349161582
 20
32.86681688213794
 30
0.0
 40
4.656383349564064
100
AcDbArc
 50
196.261836063659
 51
198.3845945182935
  0
LINE
  5
1E5
330
1F
100
AcDbEntity
  8
DEFAULT
100
AcDbLine
 10
16.01856259995998
 20
31.56290226896999
 30
0.0
 11
15.20648253351999
 21
34.34688188820999
 31
0.0
  0
SPLINE
  5
1E6
330
1F
100
AcDbEntity
  8
DEFAULT
100
AcDbSpline
210
0.0
220
0.0
230
1.0
 70
    24
 71
     2
 72
     6
 73
     3
 74
     0
 42
0.0000000001
 43
0.0000000001
 40
0.0
 40
0.0
 40
0.0
 40
1.0
 40
1.0
 40
1.0
 10
15.37480799999997
 20
56.57830800000001
 30
0.0
 10
14.48414399999999
 20
56.57830800000001
 30
0.0
 10
13.59348
 20
56.57830800000001
 30
0.0
  0
ARC
  5
1E7
330
1F
100
AcDbEntity
  8
DEFAULT
100
AcDbCircle
 10
10.51904399999995
 20
-65.659356
 30
0.0
 40
70.00000031907848
100
AcDbArc
 50
77.85516270624356
 51
88.26313167518948
  0
ARC
  5
1E8
330
1F
100
AcDbEntity
  8
DEFAULT
100
AcDbCircle
 10
25.41546499999998
 20
1.441068000000001
 30
0.0
 40
0.015625
100
AcDbArc
 50
0.0
 51
90.0
  0
SPLINE
  5
1E9
330
1F
100
AcDbEntity
  8
DEFAULT
100
AcDbSpline
210
0.0
220
0.0
230
1.0
 70
    24
 71
     2
 72
     6
 73
     3
 74
     0
 42
0.0000000001
 43
0.0000000001
 40
0.0
 40
0.0
 40
0.0
 40
1.0
 40
1.0
 40
1.0
 10
13.75145099999997
 20
57.168087
 30
0.0
 10
14.81395099999997
 20
57.168087
 30
0.0
 10
15.87645099999997
 20
57.168087
 30
0.0
  0
SPLINE
  5
1EA
330
1F
100
AcDbEntity
  8
DEFAULT
100
AcDbSpline
210
0.0
220
0.0
230
1.0
 70
    24
 71
     2
 72
     6
 73
     3
 74
     0
 42
0.0000000001
 43
0.0000000001
 40
0.0
 40
0.0
 40
0.0
 40
1.0
 40
1.0
 40
1.0
 10
22.68994800000002
 20
44.331149
 30
0.0
 10
22.68994800000002
 20
44.20592199999999
 30
0.0
 10
22.68994800000002
 20
44.08069499999999
 30
0.0
  0
SPLINE
  5
1EB
330
1F
100
AcDbEntity
  8
DEFAULT
100
AcDbSpline
210
0.0
220
0.0
230
1.0
 70
    24
 71
     2
 72
     6
 73
     3
 74
     0
 42
0.0000000001
 43
0.0000000001
 40
0.0
 40
0.0
 40
0.0
 40
1.0
 40
1.0
 40
1.0
 10
21.34468699999996
 20
6.733362999999997
 30
0.0
 10
21.34468699999996
 20
7.036862999999997
 30
0.0
 10
21.34468699999996
 20
7.340362999999996
 30
0.0
  0
SPLINE
  5
1EC
330
1F
100
AcDbEntity
  8
DEFAULT
100
AcDbSpline
210
0.0
220
0.0
230
1.0
 70
     8
 71
     3
 72
    11
 73
     7
 74
     0
 42
0.0000000001
 43
0.0000000001
 40
0.0
 40
0.0
 40
0.0
 40
0.0
 40
0.2420895812031
 40
0.4923957721452
 40
0.7461078415217
 40
1.0
 40
1.0
 40
1.0
 40
1.0
 10
13.07581626293
 20
7.213363253040001
 30
0.0
 10
13.09125085603597
 20
7.209182294900003
 30
0.0
 10
13.12280612187101
 20
7.201255009379992
 30
0.0
 10
13.17118379157
 20
7.191705734759992
 30
0.0
 10
13.220850063103
 20
7.185145285339999
 30
0.0
 10
13.25438890645398
 20
7.18336325304
 30
0.0
 10
13.27115935046896
 20
7.18336325304
 30
0.0
  0
ARC
  5
1ED
330
1F
100
AcDbEntity
  8
DEFAULT
100
AcDbCircle
 10
11.969673
 20
6.733362999999997
 30
0.0
 40
0.049999999999998
100
AcDbArc
 50
270.0
 51
0.0
  0
SPLINE
  5
1EE
330
1F
100
AcDbEntity
  8
DEFAULT
100
AcDbSpline
210
0.0
220
0.0
230
1.0
 70
    24
 71
     2
 72
     6
 73
     3
 74
     0
 42
0.0000000001
 43
0.0000000001
 40
0.0
 40
0.0
 40
0.0
 40
1.0
 40
1.0
 40
1.0
 10
-1.279526999999973
 20
36.15432399999999
 30
0.0
 10
-1.279526999999973
 20
35.79495399999999
 30
0.0
 10
-1.279526999999973
 20
35.43558399999999
 30
0.0
  0
SPLINE
  5
1EF
330
1F
100
AcDbEntity
  8
DEFAULT
100
AcDbSpline
210
0.0
220
0.0
230
1.0
 70
    24
 71
     2
 72
     6
 73
     3
 74
     0
 42
0.0000000001
 43
0.0000000001
 40
0.0
 40
0.0
 40
0.0
 40
1.0
 40
1.0
 40
1.0
 10
13.04467299999999
 20
5.058363
 30
0.0
 10
13.04467299999999
 20
5.183363
 30
0.0
 10
13.04467299999999
 20
5.308363
 30
0.0
  0
SPLINE
  5
1F0
330
1F
100
AcDbEntity
  8
DEFAULT
100
AcDbSpline
210
0.0
220
0.0
230
1.0
 70
    24
 71
     2
 72
     6
 73
     3
 74
     0
 42
0.0000000001
 43
0.0000000001
 40
0.0
 40
0.0
 40
0.0
 40
1.0
 40
1.0
 40
1.0
 10
-1.279526999999973
 20
52.11930399999999
 30
0.0
 10
-1.279526999999973
 20
51.9716615
 30
0.0
 10
-1.279526999999973
 20
51.82401900000001
 30
0.0
  0
SPLINE
  5
1F1
330
1F
100
AcDbEntity
  8
DEFAULT
100
AcDbSpline
210
0.0
220
0.0
230
1.0
 70
    24
 71
     2
 72
     6
 73
     3
 74
     0
 42
0.0000000001
 43
0.0000000001
 40
0.0
 40
0.0
 40
0.0
 40
1.0
 40
1.0
 40
1.0
 10
20.96968699999996
 20
7.310362999999995
 30
0.0
 10
20.96968699999996
 20
7.261862999999998
 30
0.0
 10
20.96968699999996
 20
7.213363000000001
 30
0.0
  0
SPLINE
  5
1F2
330
1F
100
AcDbEntity
  8
DEFAULT
100
AcDbSpline
210
0.0
220
0.0
230
1.0
 70
    24
 71
     2
 72
     6
 73
     3
 74
     0
 42
0.0000000001
 43
0.0000000001
 40
0.0
 40
0.0
 40
0.0
 40
1.0
 40
1.0
 40
1.0
 10
20.96968699999996
 20
7.310362999999995
 30
0.0
 10
16.494687
 20
7.310362999999995
 30
0.0
 10
12.01968700000003
 20
7.310362999999995
 30
0.0
  0
SPLINE
  5
1F3
330
1F
100
AcDbEntity
  8
DEFAULT
100
AcDbSpline
210
0.0
220
0.0
230
1.0
 70
    24
 71
     2
 72
     6
 73
     3
 74
     0
 42
0.0000000001
 43
0.0000000001
 40
0.0
 40
0.0
 40
0.0
 40
1.0
 40
1.0
 40
1.0
 10
-1.279526999999973
 20
51.730633
 30
0.0
 10
-1.279526999999973
 20
51.371263
 30
0.0
 10
-1.279526999999973
 20
51.011893
 30
0.0
  0
SPLINE
  5
1F4
330
1F
100
AcDbEntity
  8
DEFAULT
100
AcDbSpline
210
0.0
220
0.0
230
1.0
 70
    24
 71
     2
 72
     6
 73
     3
 74
     0
 42
0.0000000001
 43
0.0000000001
 40
0.0
 40
0.0
 40
0.0
 40
1.0
 40
1.0
 40
1.0
 10
12.70771399999995
 20
5.058363
 30
0.0
 10
12.87619349999997
 20
5.058363
 30
0.0
 10
13.04467299999999
 20
5.058363
 30
0.0
  0
SPLINE
  5
1F5
330
1F
100
AcDbEntity
  8
DEFAULT
100
AcDbSpline
210
0.0
220
0.0
230
1.0
 70
    24
 71
     2
 72
     6
 73
     3
 74
     0
 42
0.0000000001
 43
0.0000000001
 40
0.0
 40
0.0
 40
0.0
 40
1.0
 40
1.0
 40
1.0
 10
13.27115900000001
 20
7.183363
 30
0.0
 10
17.03808699999999
 20
7.183363
 30
0.0
 10
20.80501499999997
 20
7.183363
 30
0.0
  0
CIRCLE
  5
1F6
330
1F
100
AcDbEntity
  8
DEFAULT
100
AcDbCircle
 10
0.0
 20
0.0
 30
0.0
 40
1.0625
  0
ARC
  5
1F7
330
1F
100
AcDbEntity
  8
DEFAULT
100
AcDbCircle
 10
13.86837700000001
 20
5.358362999999997
 30
0.0
 40
0.0499999067448244
100
AcDbArc
 50
270.0
 51
325.1351838007682
  0
SPLINE
  5
1F8
330
1F
100
AcDbEntity
  8
DEFAULT
100
AcDbSpline
210
0.0
220
0.0
230
1.0
 70
    24
 71
     2
 72
     6
 73
     3
 74
     0
 42
0.0000000001
 43
0.0000000001
 40
0.0
 40
0.0
 40
0.0
 40
1.0
 40
1.0
 40
1.0
 10
-1.279526999999973
 20
36.542995
 30
0.0
 10
-1.279526999999973
 20
36.3953525
 30
0.0
 10
-1.279526999999973
 20
36.24771
 30
0.0
  0
SPLINE
  5
1F9
330
1F
100
AcDbEntity
  8
DEFAULT
100
AcDbSpline
210
0.0
220
0.0
230
1.0
 70
    24
 71
     2
 72
     6
 73
     3
 74
     0
 42
0.0000000001
 43
0.0000000001
 40
0.0
 40
0.0
 40
0.0
 40
1.0
 40
1.0
 40
1.0
 10
9.420992000000012
 20
5.308363
 30
0.0
 10
11.644677
 20
5.308363
 30
0.0
 10
13.86836199999999
 20
5.308363
 30
0.0
  0
SPLINE
  5
1FA
330
1F
100
AcDbEntity
  8
DEFAULT
100
AcDbSpline
210
0.0
220
0.0
230
1.0
 70
    24
 71
     2
 72
     6
 73
     3
 74
     0
 42
0.0000000001
 43
0.0000000001
 40
0.0
 40
0.0
 40
0.0
 40
1.0
 40
1.0
 40
1.0
 10
12.414424
 20
5.358362999999997
 30
0.0
 10
12.414424
 20
6.334362999999996
 30
0.0
 10
12.414424
 20
7.310362999999995
 30
0.0
  0
ARC
  5
1FB
330
1F
100
AcDbEntity
  8
DEFAULT
100
AcDbCircle
 10
15.739148
 20
56.18460699999999
 30
0.0
 40
0.536417446120509
100
AcDbArc
 50
27.76344070953022
 51
116.3046206489974
  0
ARC
  5
1FC
330
1F
100
AcDbEntity
  8
DEFAULT
100
AcDbCircle
 10
15.739148
 20
56.18460699999999
 30
0.0
 40
0.5364171883739351
100
AcDbArc
 50
126.2013248711063
 51
196.2749105793425
  0
SPLINE
  5
1FD
330
1F
100
AcDbEntity
  8
DEFAULT
100
AcDbSpline
210
0.0
220
0.0
230
1.0
 70
     8
 71
     3
 72
    11
 73
     7
 74
     0
 42
0.0000000001
 43
0.0000000001
 40
0.0
 40
0.0
 40
0.0
 40
0.0
 40
0.2075532299286
 40
0.4418436459466
 40
0.7053076879961
 40
1.0
 40
1.0
 40
1.0
 40
1.0
 10
12.143580696735
 20
7.18336325304
 30
0.0
 10
12.16244700387398
 20
7.18336325304
 30
0.0
 10
12.20260488499798
 20
7.185444161429999
 30
0.0
 10
12.266363529285
 20
7.192246030159993
 30
0.0
 10
12.33773349844398
 20
7.202041154520003
 30
0.0
 10
12.38791683813298
 20
7.209501280349997
 30
0.0
 10
12.41442411227899
 20
7.213363253040001
 30
0.0
  0
SPLINE
  5
1FE
330
1F
100
AcDbEntity
  8
DEFAULT
100
AcDbSpline
210
0.0
220
0.0
230
1.0
 70
    24
 71
     2
 72
     6
 73
     3
 74
     0
 42
0.0000000001
 43
0.0000000001
 40
0.0
 40
0.0
 40
0.0
 40
1.0
 40
1.0
 40
1.0
 10
13.59348
 20
30.587909
 30
0.0
 10
14.48414399999999
 20
30.587909
 30
0.0
 10
15.37480799999997
 20
30.587909
 30
0.0
  0
SPLINE
  5
1FF
330
1F
100
AcDbEntity
  8
DEFAULT
100
AcDbSpline
210
0.0
220
0.0
230
1.0
 70
    24
 71
     2
 72
     6
 73
     3
 74
     0
 42
0.0000000001
 43
0.0000000001
 40
0.0
 40
0.0
 40
0.0
 40
1.0
 40
1.0
 40
1.0
 10
13.07581599999997
 20
7.310362999999995
 30
0.0
 10
13.07581599999997
 20
6.334362999999996
 30
0.0
 10
13.07581599999997
 20
5.358362999999997
 30
0.0
  0
ENDSEC
  0
SECTION
  2
OBJECTS
  0
DICTIONARY
  5
C
330
0
100
AcDbDictionary
281
     1
  3
ACAD_GROUP
350
D
  3
ACAD_LAYOUT
350
1A
  3
ACAD_MLEADERSTYLE
350
201
  3
ACAD_MLINESTYLE
350
17
  3
ACAD_PLOTSETTINGS
350
19
  3
ACAD_PLOTSTYLENAME
350
E
  3
ACAD_SCALELIST
350
3B
  3
ACAD_TABLESTYLE
350
200
  3
ACAD_VISUALSTYLE
350
2A
  0
DICTIONARY
  5
D
102
{ACAD_REACTORS
330
C
102
}
330
C
100
AcDbDictionary
281
     1
  0
DICTIONARY
  5
1A
102
{ACAD_REACTORS
330
C
102
}
330
C
100
AcDbDictionary
281
     1
  3
Layout1
350
1E
  3
Layout2
350
26
  3
Model
350
22
  0
DICTIONARY
  5
201
102
{ACAD_REACTORS
330
C
102
}
330
C
100
AcDbDictionary
281
     1
  0
DICTIONARY
  5
17
102
{ACAD_REACTORS
330
C
102
}
330
C
100
AcDbDictionary
281
     1
  3
Standard
350
18
  0
DICTIONARY
  5
19
102
{ACAD_REACTORS
330
C
102
}
330
C
100
AcDbDictionary
281
     1
  0
ACDBDICTIONARYWDFLT
  5
E
102
{ACAD_REACTORS
330
C
102
}
330
C
100
AcDbDictionary
281
     1
  3
Normal
350
F
100
AcDbDictionaryWithDefault
340
F
  0
DICTIONARY
  5
3B
102
{ACAD_REACTORS
330
C
102
}
330
C
100
AcDbDictionary
281
     1
  3
A0
350
3C
  3
A1
350
3D
  3
A2
350
3E
  3
A3
350
3F
  3
A4
350
40
  3
A5
350
41
  3
A6
350
42
  3
A7
350
43
  3
A8
350
44
  3
A9
350
45
  3
B0
350
46
  3
B1
350
47
  3
B2
350
48
  3
B3
350
49
  3
B4
350
4A
  3
B5
350
4B
  3
B6
350
4C
  3
B7
350
4D
  3
B8
350
4E
  3
B9
350
4F
  3
C0
350
50
  3
C1
350
51
  3
C2
350
52
  3
C3
350
53
  3
C4
350
54
  3
C5
350
55
  3
C6
350
56
  3
C7
350
57
  3
C8
350
58
  3
C9
350
59
  3
D0
350
5A
  3
D1
350
5B
  3
D2
350
5C
  0
DICTIONARY
  5
200
102
{ACAD_REACTORS
330
C
102
}
330
C
100
AcDbDictionary
281
     1
  0
DICTIONARY
  5
2A
102
{ACAD_REACTORS
330
C
102
}
330
C
100
AcDbDictionary
281
     1
  3
2dWireframe
350
2F
  3
3D Hidden
350
31
  3
3dWireframe
350
30
  3
Basic
350
32
  3
Brighten
350
36
  3
ColorChange
350
3A
  3
Conceptual
350
34
  3
Dim
350
35
  3
Facepattern
350
39
  3
Flat
350
2B
  3
FlatWithEdges
350
2C
  3
Gouraud
350
2D
  3
GouraudWithEdges
350
2E
  3
Linepattern
350
38
  3
Realistic
350
33
  3
Thicken
350
37
  0
LAYOUT
  5
1E
102
{ACAD_REACTORS
330
1A
102
}
330
1A
100
AcDbPlotSettings
  1

  2
none_device
  4

  6

 40
0.0
 41
0.0
 42
0.0
 43
0.0
 44
0.0
 45
0.0
 46
0.0
 47
0.0
 48
0.0
 49
0.0
140
0.0
141
0.0
142
1.0
143
1.0
 70
   688
 72
     0
 73
     0
 74
     5
  7

 75
    16
 76
     0
 77
     2
 78
   300
147
1.0
148
0.0
149
0.0
100
AcDbLayout
  1
Layout1
 70
     1
 71
     1
 10
0.0
 20
0.0
 11
12.0
 21
9.0
 12
0.0
 22
0.0
 32
0.0
 14
1.000000000000000E+20
 24
1.000000000000000E+20
 34
1.000000000000000E+20
 15
-1.000000000000000E+20
 25
-1.000000000000000E+20
 35
-1.000000000000000E+20
146
0.0
 13
0.0
 23
0.0
 33
0.0
 16
1.0
 26
0.0
 36
0.0
 17
0.0
 27
1.0
 37
0.0
 76
     0
330
1B
  0
LAYOUT
  5
26
102
{ACAD_REACTORS
330
1A
102
}
330
1A
100
AcDbPlotSettings
  1

  2
none_device
  4

  6

 40
0.0
 41
0.0
 42
0.0
 43
0.0
 44
0.0
 45
0.0
 46
0.0
 47
0.0
 48
0.0
 49
0.0
140
0.0
141
0.0
142
1.0
143
1.0
 70
   688
 72
     0
 73
     0
 74
     5
  7

 75
    16
 76
     0
 77
     2
 78
   300
147
1.0
148
0.0
149
0.0
100
AcDbLayout
  1
Layout2
 70
     1
 71
     2
 10
0.0
 20
0.0
 11
0.0
 21
0.0
 12
0.0
 22
0.0
 32
0.0
 14
0.0
 24
0.0
 34
0.0
 15
0.0
 25
0.0
 35
0.0
146
0.0
 13
0.0
 23
0.0
 33
0.0
 16
1.0
 26
0.0
 36
0.0
 17
0.0
 27
1.0
 37
0.0
 76
     0
330
23
  0
LAYOUT
  5
22
102
{ACAD_REACTORS
330
1A
102
}
330
1A
100
AcDbPlotSettings
  1

  2
none_device
  4

  6

 40
0.0
 41
0.0
 42
0.0
 43
0.0
 44
0.0
 45
0.0
 46
0.0
 47
0.0
 48
0.0
 49
0.0
140
0.0
141
0.0
142
1.0
143
1.0
 70
  1712
 72
     0
 73
     0
 74
     0
  7

 75
     0
 76
     0
 77
     2
 78
   300
147
1.0
148
0.0
149
0.0
100
AcDbLayout
  1
Model
 70
     1
 71
     0
 10
0.0
 20
0.0
 11
12.0
 21
9.0
 12
0.0
 22
0.0
 32
0.0
 14
-1.279528000000001
 24
-1.279528000000001
 34
0.0
 15
25.43109114567447
 25
57.1680874924714
 35
0.0
146
0.0
 13
0.0
 23
0.0
 33
0.0
 16
1.0
 26
0.0
 36
0.0
 17
0.0
 27
1.0
 37
0.0
 76
     0
330
1F
331
29
  0
MLINESTYLE
  5
18
102
{ACAD_REACTORS
330
17
102
}
330
17
100
AcDbMlineStyle
  2
Standard
 70
     0
  3

 62
   256
 51
90.0
 52
90.0
 71
     2
 49
0.5
 62
   256
  6
BYLAYER
 49
-0.5
 62
   256
  6
BYLAYER
  0
ACDBPLACEHOLDER
  5
F
102
{ACAD_REACTORS
330
E
102
}
330
E
  0
SCALE
  5
3C
102
{ACAD_REACTORS
330
3B
102
}
330
3B
100
AcDbScale
 70
     0
300
1:1
140
1.0
141
1.0
290
     1
  0
SCALE
  5
3D
102
{ACAD_REACTORS
330
3B
102
}
330
3B
100
AcDbScale
 70
     0
300
1:2
140
1.0
141
2.0
290
     0
  0
SCALE
  5
3E
102
{ACAD_REACTORS
330
3B
102
}
330
3B
100
AcDbScale
 70
     0
300
1:4
140
1.0
141
4.0
290
     0
  0
SCALE
  5
3F
102
{ACAD_REACTORS
330
3B
102
}
330
3B
100
AcDbScale
 70
     0
300
1:5
140
1.0
141
5.0
290
     0
  0
SCALE
  5
40
102
{ACAD_REACTORS
330
3B
102
}
330
3B
100
AcDbScale
 70
     0
300
1:8
140
1.0
141
8.0
290
     0
  0
SCALE
  5
41
102
{ACAD_REACTORS
330
3B
102
}
330
3B
100
AcDbScale
 70
     0
300
1:10
140
1.0
141
10.0
290
     0
  0
SCALE
  5
42
102
{ACAD_REACTORS
330
3B
102
}
330
3B
100
AcDbScale
 70
     0
300
1:16
140
1.0
141
16.0
290
     0
  0
SCALE
  5
43
102
{ACAD_REACTORS
330
3B
102
}
330
3B
100
AcDbScale
 70
     0
300
1:20
140
1.0
141
20.0
290
     0
  0
SCALE
  5
44
102
{ACAD_REACTORS
330
3B
102
}
330
3B
100
AcDbScale
 70
     0
300
1:30
140
1.0
141
30.0
290
     0
  0
SCALE
  5
45
102
{ACAD_REACTORS
330
3B
102
}
330
3B
100
AcDbScale
 70
     0
300
1:40
140
1.0
141
40.0
290
     0
  0
SCALE
  5
46
102
{ACAD_REACTORS
330
3B
102
}
330
3B
100
AcDbScale
 70
     0
300
1:50
140
1.0
141
50.0
290
     0
  0
SCALE
  5
47
102
{ACAD_REACTORS
330
3B
102
}
330
3B
100
AcDbScale
 70
     0
300
1:100
140
1.0
141
100.0
290
     0
  0
SCALE
  5
48
102
{ACAD_REACTORS
330
3B
102
}
330
3B
100
AcDbScale
 70
     0
300
2:1
140
2.0
141
1.0
290
     0
  0
SCALE
  5
49
102
{ACAD_REACTORS
330
3B
102
}
330
3B
100
AcDbScale
 70
     0
300
4:1
140
4.0
141
1.0
290
     0
  0
SCALE
  5
4A
102
{ACAD_REACTORS
330
3B
102
}
330
3B
100
AcDbScale
 70
     0
300
8:1
140
8.0
141
1.0
290
     0
  0
SCALE
  5
4B
102
{ACAD_REACTORS
330
3B
102
}
330
3B
100
AcDbScale
 70
     0
300
10:1
140
10.0
141
1.0
290
     0
  0
SCALE
  5
4C
102
{ACAD_REACTORS
330
3B
102
}
330
3B
100
AcDbScale
 70
     0
300
100:1
140
100.0
141
1.0
290
     0
  0
SCALE
  5
4D
102
{ACAD_REACTORS
330
3B
102
}
330
3B
100
AcDbScale
 70
     0
300
1/128" = 1'-0"
140
0.0078125
141
12.0
290
     0
  0
SCALE
  5
4E
102
{ACAD_REACTORS
330
3B
102
}
330
3B
100
AcDbScale
 70
     0
300
1/64" = 1'-0"
140
0.015625
141
12.0
290
     0
  0
SCALE
  5
4F
102
{ACAD_REACTORS
330
3B
102
}
330
3B
100
AcDbScale
 70
     0
300
1/32" = 1'-0"
140
0.03125
141
12.0
290
     0
  0
SCALE
  5
50
102
{ACAD_REACTORS
330
3B
102
}
330
3B
100
AcDbScale
 70
     0
300
1/16" = 1'-0"
140
0.0625
141
12.0
290
     0
  0
SCALE
  5
51
102
{ACAD_REACTORS
330
3B
102
}
330
3B
100
AcDbScale
 70
     0
300
3/32" = 1'-0"
140
0.09375
141
12.0
290
     0
  0
SCALE
  5
52
102
{ACAD_REACTORS
330
3B
102
}
330
3B
100
AcDbScale
 70
     0
300
1/8" = 1'-0"
140
0.125
141
12.0
290
     0
  0
SCALE
  5
53
102
{ACAD_REACTORS
330
3B
102
}
330
3B
100
AcDbScale
 70
     0
300
3/16" = 1'-0"
140
0.1875
141
12.0
290
     0
  0
SCALE
  5
54
102
{ACAD_REACTORS
330
3B
102
}
330
3B
100
AcDbScale
 70
     0
300
1/4" = 1'-0"
140
0.25
141
12.0
290
     0
  0
SCALE
  5
55
102
{ACAD_REACTORS
330
3B
102
}
330
3B
100
AcDbScale
 70
     0
300
3/8" = 1'-0"
140
0.375
141
12.0
290
     0
  0
SCALE
  5
56
102
{ACAD_REACTORS
330
3B
102
}
330
3B
100
AcDbScale
 70
     0
300
1/2" = 1'-0"
140
0.5
141
12.0
290
     0
  0
SCALE
  5
57
102
{ACAD_REACTORS
330
3B
102
}
330
3B
100
AcDbScale
 70
     0
300
3/4" = 1'-0"
140
0.75
141
12.0
290
     0
  0
SCALE
  5
58
102
{ACAD_REACTORS
330
3B
102
}
330
3B
100
AcDbScale
 70
     0
300
1" = 1'-0"
140
1.0
141
12.0
290
     0
  0
SCALE
  5
59
102
{ACAD_REACTORS
330
3B
102
}
330
3B
100
AcDbScale
 70
     0
300
1-1/2" = 1'-0"
140
1.5
141
12.0
290
     0
  0
SCALE
  5
5A
102
{ACAD_REACTORS
330
3B
102
}
330
3B
100
AcDbScale
 70
     0
300
3" = 1'-0"
140
3.0
141
12.0
290
     0
  0
SCALE
  5
5B
102
{ACAD_REACTORS
330
3B
102
}
330
3B
100
AcDbScale
 70
     0
300
6" = 1'-0"
140
6.0
141
12.0
290
     0
  0
SCALE
  5
5C
102
{ACAD_REACTORS
330
3B
102
}
330
3B
100
AcDbScale
 70
     0
300
1'-0" = 1'-0"
140
12.0
141
12.0
290
     0
  0
VISUALSTYLE
  5
2F
102
{ACAD_REACTORS
330
2A
102
}
330
2A
100
AcDbVisualStyle
  2
2dWireframe
 70
     4
 71
     0
 72
     2
 73
     0
 90
        0
 40
-0.6
 41
-30.0
 62
     5
 63
     7
421
 16777215
 74
     1
 91
        4
 64
     7
 65
   257
 75
     1
175
     1
 42
1.0
 92
        0
 66
   257
 43
1.0
 76
     1
 77
     6
 78
     2
 67
     7
 79
     5
170
     0
171
     0
290
     0
174
     0
 93
        1
 44
0.0
173
     0
291
     0
 45
0.0
1001
ACAD
1000
AcDbSavedByObjectVersion
1070
     0
  0
VISUALSTYLE
  5
31
102
{ACAD_REACTORS
330
2A
102
}
330
2A
100
AcDbVisualStyle
  2
3D Hidden
 70
     6
 71
     1
 72
     2
 73
     2
 90
        0
 40
-0.6
 41
-30.0
 62
     5
 63
     7
421
 16777215
 74
     2
 91
        2
 64
     7
 65
   257
 75
     2
175
     1
 42
40.0
 92
        0
 66
   257
 43
1.0
 76
     1
 77
     6
 78
     2
 67
     7
 79
     3
170
     0
171
     0
290
     0
174
     0
 93
        1
 44
0.0
173
     0
291
     0
 45
0.0
1001
ACAD
1000
AcDbSavedByObjectVersion
1070
     0
  0
VISUALSTYLE
  5
30
102
{ACAD_REACTORS
330
2A
102
}
330
2A
100
AcDbVisualStyle
  2
3dWireframe
 70
     5
 71
     0
 72
     2
 73
     0
 90
        0
 40
-0.6
 41
-30.0
 62
     5
 63
     7
421
 16777215
 74
     1
 91
        4
 64
     7
 65
   257
 75
     1
175
     1
 42
1.0
 92
        0
 66
   257
 43
1.0
 76
     1
 77
     6
 78
     2
 67
     7
 79
     5
170
     0
171
     0
290
     0
174
     0
 93
        1
 44
0.0
173
     0
291
     0
 45
0.0
1001
ACAD
1000
AcDbSavedByObjectVersion
1070
     0
  0
VISUALSTYLE
  5
32
102
{ACAD_REACTORS
330
2A
102
}
330
2A
100
AcDbVisualStyle
  2
Basic
 70
     7
 71
     1
 72
     0
 73
     1
 90
        0
 40
-0.6
 41
-30.0
 62
     5
 63
     7
421
 16777215
 74
     0
 91
        4
 64
     7
 65
   257
 75
     1
175
     1
 42
1.0
 92
        8
 66
     7
 43
1.0
 76
     1
 77
     6
 78
     2
 67
     7
 79
     5
170
     0
171
     0
290
     0
174
     0
 93
        1
 44
0.0
173
     0
291
     1
 45
0.0
1001
ACAD
1000
AcDbSavedByObjectVersion
1070
     0
  0
VISUALSTYLE
  5
36
102
{ACAD_REACTORS
330
2A
102
}
330
2A
100
AcDbVisualStyle
  2
Brighten
 70
    12
 71
     2
 72
     2
 73
     0
 90
        0
 40
-0.6
 41
-30.0
 62
     5
 63
     7
421
 16777215
 74
     1
 91
        4
 64
     7
 65
   257
 75
     1
175
     1
 42
1.0
 92
        8
 66
     7
 43
1.0
 76
     1
 77
     6
 78
     2
 67
     7
 79
     5
170
     0
171
     0
290
     0
174
     0
 93
        1
 44
50.0
173
     0
291
     1
 45
0.0
1001
ACAD
1000
AcDbSavedByObjectVersion
1070
     0
  0
VISUALSTYLE
  5
3A
102
{ACAD_REACTORS
330
2A
102
}
330
2A
100
AcDbVisualStyle
  2
ColorChange
 70
    16
 71
     2
 72
     2
 73
     3
 90
        0
 40
-0.6
 41
-30.0
 62
     5
 63
     8
421
  8421504
 74
     1
 91
        4
 64
     7
 65
   257
 75
     1
175
     1
 42
1.0
 92
        8
 66
     8
424
  8421504
 43
1.0
 76
     1
 77
     6
 78
     2
 67
     7
 79
     5
170
     0
171
     0
290
     0
174
     0
 93
        1
 44
0.0
173
     0
291
     1
 45
0.0
1001
ACAD
1000
AcDbSavedByObjectVersion
1070
     0
  0
VISUALSTYLE
  5
34
102
{ACAD_REACTORS
330
2A
102
}
330
2A
100
AcDbVisualStyle
  2
Conceptual
 70
     9
 71
     3
 72
     2
 73
     0
 90
        0
 40
-0.6
 41
-30.0
 62
     5
 63
     7
421
 16777215
 74
     2
 91
        2
 64
     7
 65
   257
 75
     1
175
     1
 42
40.0
 92
        8
 66
     7
 43
1.0
 76
     1
 77
     6
 78
     2
 67
     7
 79
     3
170
     0
171
     0
290
     0
174
     0
 93
        1
 44
0.0
173
     0
291
     0
 45
0.0
1001
ACAD
1000
AcDbSavedByObjectVersion
1070
     0
  0
VISUALSTYLE
  5
35
102
{ACAD_REACTORS
330
2A
102
}
330
2A
100
AcDbVisualStyle
  2
Dim
 70
    11
 71
     2
 72
     2
 73
     0
 90
        0
 40
-0.6
 41
-30.0
 62
     5
 63
     7
421
 16777215
 74
     1
 91
        4
 64
     7
 65
   257
 75
     1
175
     1
 42
1.0
 92
        8
 66
     7
 43
1.0
 76
     1
 77
     6
 78
     2
 67
     7
 79
     5
170
     0
171
     0
290
     0
174
     0
 93
        1
 44
-50.0
173
     0
291
     1
 45
0.0
1001
ACAD
1000
AcDbSavedByObjectVersion
1070
     0
  0
VISUALSTYLE
  5
39
102
{ACAD_REACTORS
330
2A
102
}
330
2A
100
AcDbVisualStyle
  2
Facepattern
 70
    15
 71
     2
 72
     2
 73
     0
 90
        0
 40
-0.6
 41
-30.0
 62
     5
 63
     7
421
 16777215
 74
     1
 91
        4
 64
     7
 65
   257
 75
     1
175
     1
 42
1.0
 92
        8
 66
     7
 43
1.0
 76
     1
 77
     6
 78
     2
 67
     7
 79
     5
170
     0
171
     0
290
     0
174
     0
 93
        1
 44
0.0
173
     0
291
     1
 45
0.0
1001
ACAD
1000
AcDbSavedByObjectVersion
1070
     0
  0
VISUALSTYLE
  5
2B
102
{ACAD_REACTORS
330
2A
102
}
330
2A
100
AcDbVisualStyle
  2
Flat
 70
     0
 71
     2
 72
     1
 73
     1
 90
        2
 40
-0.6
 41
30.0
 62
     5
 63
     7
421
 16777215
 74
     0
 91
        4
 64
     7
 65
   257
 75
     1
175
     1
 42
1.0
 92
        8
 66
     7
 43
1.0
 76
     1
 77
     6
 78
     2
 67
     7
 79
     5
170
     0
171
     0
290
     0
174
     0
 93
       13
 44
0.0
173
     0
291
     1
 45
0.0
1001
ACAD
1000
AcDbSavedByObjectVersion
1070
     0
  0
VISUALSTYLE
  5
2C
102
{ACAD_REACTORS
330
2A
102
}
330
2A
100
AcDbVisualStyle
  2
FlatWithEdges
 70
     1
 71
     2
 72
     1
 73
     1
 90
        2
 40
-0.6
 41
30.0
 62
     5
 63
     7
421
 16777215
 74
     1
 91
        4
 64
     7
 65
   257
 75
     1
175
     1
 42
1.0
 92
        0
 66
   257
 43
1.0
 76
     1
 77
     6
 78
     2
 67
     7
 79
     5
170
     0
171
     0
290
     0
174
     0
 93
       13
 44
0.0
173
     0
291
     1
 45
0.0
1001
ACAD
1000
AcDbSavedByObjectVersion
1070
     0
  0
VISUALSTYLE
  5
2D
102
{ACAD_REACTORS
330
2A
102
}
330
2A
100
AcDbVisualStyle
  2
Gouraud
 70
     2
 71
     2
 72
     2
 73
     1
 90
        2
 40
-0.6
 41
30.0
 62
     5
 63
     7
421
 16777215
 74
     0
 91
        4
 64
     7
 65
   257
 75
     1
175
     1
 42
1.0
 92
        0
 66
     7
 43
1.0
 76
     1
 77
     6
 78
     2
 67
     7
 79
     5
170
     0
171
     0
290
     0
174
     0
 93
       13
 44
0.0
173
     0
291
     1
 45
0.0
1001
ACAD
1000
AcDbSavedByObjectVersion
1070
     0
  0
VISUALSTYLE
  5
2E
102
{ACAD_REACTORS
330
2A
102
}
330
2A
100
AcDbVisualStyle
  2
GouraudWithEdges
 70
     3
 71
     2
 72
     2
 73
     1
 90
        2
 40
-0.6
 41
30.0
 62
     5
 63
     7
421
 16777215
 74
     1
 91
        4
 64
     7
 65
   257
 75
     1
175
     1
 42
1.0
 92
        0
 66
   257
 43
1.0
 76
     1
 77
     6
 78
     2
 67
     7
 79
     5
170
     0
171
     0
290
     0
174
     0
 93
       13
 44
0.0
173
     0
291
     1
 45
0.0
1001
ACAD
1000
AcDbSavedByObjectVersion
1070
     0
  0
VISUALSTYLE
  5
38
102
{ACAD_REACTORS
330
2A
102
}
330
2A
100
AcDbVisualStyle
  2
Linepattern
 70
    14
 71
     2
 72
     2
 73
     0
 90
        0
 40
-0.6
 41
-30.0
 62
     5
 63
     7
421
 16777215
 74
     1
 91
        4
 64
     7
 65
   257
 75
     7
175
     7
 42
1.0
 92
        8
 66
     7
 43
1.0
 76
     1
 77
     6
 78
     2
 67
     7
 79
     5
170
     0
171
     0
290
     0
174
     0
 93
        1
 44
0.0
173
     0
291
     1
 45
0.0
1001
ACAD
1000
AcDbSavedByObjectVersion
1070
     0
  0
VISUALSTYLE
  5
33
102
{ACAD_REACTORS
330
2A
102
}
330
2A
100
AcDbVisualStyle
  2
Realistic
 70
     8
 71
     2
 72
     2
 73
     0
 90
        0
 40
-0.6
 41
-30.0
 62
     5
 63
     7
421
 16777215
 74
     1
 91
        0
 64
     7
 65
   257
 75
     1
175
     1
 42
1.0
 92
        8
 66
     8
424
  7895160
 43
1.0
 76
     1
 77
     6
 78
     2
 67
     7
 79
     5
170
     0
171
     0
290
     0
174
     0
 93
       13
 44
0.0
173
     0
291
     0
 45
0.0
1001
ACAD
1000
AcDbSavedByObjectVersion
1070
     0
  0
VISUALSTYLE
  5
37
102
{ACAD_REACTORS
330
2A
102
}
330
2A
100
AcDbVisualStyle
  2
Thicken
 70
    13
 71
     2
 72
     2
 73
     0
 90
        0
 40
-0.6
 41
-30.0
 62
     5
 63
     7
421
 16777215
 74
     1
 91
        4
 64
     7
 65
   257
 75
     1
175
     1
 42
1.0
 92
       12
 66
     7
 43
1.0
 76
     1
 77
     6
 78
     2
 67
     7
 79
     5
170
     0
171
     0
290
     0
174
     0
 93
        1
 44
0.0
173
     0
291
     1
 45
0.0
1001
ACAD
1000
AcDbSavedByObjectVersion
1070
     0
  0
ENDSEC
  0
EOF
