  0
SECTION
  2
HEADER
  9
$ACADVER
  1
AC1018
  9
$ACADMAINTVER
 70
     0
  9
$DWGCODEPAGE
  3
ANSI_1252
  9
$INSBASE
 10
0.0
 20
0.0
 30
0.0
  9
$EXTMIN
 10
-1.279528000000001
 20
-1.279528000000001
 30
0.0
  9
$EXTMAX
 10
47.74033088476992
 20
62.01772914847645
 30
0.0
  9
$LIMMIN
 10
0.0
 20
0.0
  9
$LIMMAX
 10
12.0
 20
9.0
  9
$ORTHOMODE
 70
     0
  9
$REGENMODE
 70
     1
  9
$FILLMODE
 70
     1
  9
$QTEXTMODE
 70
     0
  9
$MIRRTEXT
 70
     1
  9
$LTSCALE
 40
1.0
  9
$ATTMODE
 70
     1
  9
$TEXTSIZE
 40
0.2
  9
$TRACEWID
 40
0.05
  9
$TEXTSTYLE
  7
Standard
  9
$CLAYER
  8
DEFAULT
  9
$CELTYPE
  6
ByLayer
  9
$CECOLOR
 62
   256
  9
$CELTSCALE
 40
1.0
  9
$DISPSILH
 70
     0
  9
$DIMSCALE
 40
1.0
  9
$DIMASZ
 40
0.18
  9
$DIMEXO
 40
0.0625
  9
$DIMDLI
 40
0.38
  9
$DIMRND
 40
0.0
  9
$DIMDLE
 40
0.0
  9
$DIMEXE
 40
0.18
  9
$DIMTP
 40
0.0
  9
$DIMTM
 40
0.0
  9
$DIMTXT
 40
0.18
  9
$DIMCEN
 40
0.09
  9
$DIMTSZ
 40
0.0
  9
$DIMTOL
 70
     0
  9
$DIMLIM
 70
     0
  9
$DIMTIH
 70
     1
  9
$DIMTOH
 70
     1
  9
$DIMSE1
 70
     0
  9
$DIMSE2
 70
     0
  9
$DIMTAD
 70
     0
  9
$DIMZIN
 70
     0
  9
$DIMBLK
  1

  9
$DIMASO
 70
     1
  9
$DIMSHO
 70
     1
  9
$DIMPOST
  1

  9
$DIMAPOST
  1

  9
$DIMALT
 70
     0
  9
$DIMALTD
 70
     2
  9
$DIMALTF
 40
25.4
  9
$DIMLFAC
 40
1.0
  9
$DIMTOFL
 70
     0
  9
$DIMTVP
 40
0.0
  9
$DIMTIX
 70
     0
  9
$DIMSOXD
 70
     0
  9
$DIMSAH
 70
     0
  9
$DIMBLK1
  1

  9
$DIMBLK2
  1

  9
$DIMSTYLE
  2
Standard
  9
$DIMCLRD
 70
     0
  9
$DIMCLRE
 70
     0
  9
$DIMCLRT
 70
     0
  9
$DIMTFAC
 40
1.0
  9
$DIMGAP
 40
0.09
  9
$DIMJUST
 70
     0
  9
$DIMSD1
 70
     0
  9
$DIMSD2
 70
     0
  9
$DIMTOLJ
 70
     1
  9
$DIMTZIN
 70
     0
  9
$DIMALTZ
 70
     0
  9
$DIMALTTZ
 70
     0
  9
$DIMUPT
 70
     0
  9
$DIMDEC
 70
     4
  9
$DIMTDEC
 70
     4
  9
$DIMALTU
 70
     2
  9
$DIMALTTD
 70
     2
  9
$DIMTXSTY
  7
Standard
  9
$DIMAUNIT
 70
     0
  9
$DIMADEC
 70
     0
  9
$DIMALTRND
 40
0.0
  9
$DIMAZIN
 70
     0
  9
$DIMDSEP
 70
    46
  9
$DIMATFIT
 70
     3
  9
$DIMFRAC
 70
     0
  9
$DIMLDRBLK
  1

  9
$DIMLUNIT
 70
     2
  9
$DIMLWD
 70
    -2
  9
$DIMLWE
 70
    -2
  9
$DIMTMOVE
 70
     0
  9
$LUNITS
 70
     2
  9
$LUPREC
 70
     3
  9
$SKETCHINC
 40
0.1
  9
$FILLETRAD
 40
0.5
  9
$AUNITS
 70
     0
  9
$AUPREC
 70
     0
  9
$MENU
  1
.
  9
$ELEVATION
 40
0.0
  9
$PELEVATION
 40
0.0
  9
$THICKNESS
 40
0.0
  9
$LIMCHECK
 70
     0
  9
$CHAMFERA
 40
0.5
  9
$CHAMFERB
 40
0.5
  9
$CHAMFERC
 40
1.0
  9
$CHAMFERD
 40
0.0
  9
$SKPOLY
 70
     0
  9
$TDCREATE
 40
2454651.641031852
  9
$TDUCREATE
 40
2454651.807698519
  9
$TDUPDATE
 40
2454651.641031864
  9
$TDUUPDATE
 40
2454651.80769853
  9
$TDINDWG
 40
0.0000000116
  9
$TDUSRTIMER
 40
0.0000000116
  9
$USRTIMER
 70
     1
  9
$ANGBASE
 50
0.0
  9
$ANGDIR
 70
     0
  9
$PDMODE
 70
     0
  9
$PDSIZE
 40
0.0
  9
$PLINEWID
 40
0.0
  9
$SPLFRAME
 70
     0
  9
$SPLINETYPE
 70
     6
  9
$SPLINESEGS
 70
     8
  9
$HANDSEED
  5
269
  9
$SURFTAB1
 70
     6
  9
$SURFTAB2
 70
     6
  9
$SURFTYPE
 70
     6
  9
$SURFU
 70
     6
  9
$SURFV
 70
     6
  9
$UCSBASE
  2

  9
$UCSNAME
  2

  9
$UCSORG
 10
0.0
 20
0.0
 30
0.0
  9
$UCSXDIR
 10
1.0
 20
0.0
 30
0.0
  9
$UCSYDIR
 10
0.0
 20
1.0
 30
0.0
  9
$UCSORTHOREF
  2

  9
$UCSORTHOVIEW
 70
     0
  9
$UCSORGTOP
 10
0.0
 20
0.0
 30
0.0
  9
$UCSORGBOTTOM
 10
0.0
 20
0.0
 30
0.0
  9
$UCSORGLEFT
 10
0.0
 20
0.0
 30
0.0
  9
$UCSORGRIGHT
 10
0.0
 20
0.0
 30
0.0
  9
$UCSORGFRONT
 10
0.0
 20
0.0
 30
0.0
  9
$UCSORGBACK
 10
0.0
 20
0.0
 30
0.0
  9
$PUCSBASE
  2

  9
$PUCSNAME
  2

  9
$PUCSORG
 10
0.0
 20
0.0
 30
0.0
  9
$PUCSXDIR
 10
1.0
 20
0.0
 30
0.0
  9
$PUCSYDIR
 10
0.0
 20
1.0
 30
0.0
  9
$PUCSORTHOREF
  2

  9
$PUCSORTHOVIEW
 70
     0
  9
$PUCSORGTOP
 10
0.0
 20
0.0
 30
0.0
  9
$PUCSORGBOTTOM
 10
0.0
 20
0.0
 30
0.0
  9
$PUCSORGLEFT
 10
0.0
 20
0.0
 30
0.0
  9
$PUCSORGRIGHT
 10
0.0
 20
0.0
 30
0.0
  9
$PUCSORGFRONT
 10
0.0
 20
0.0
 30
0.0
  9
$PUCSORGBACK
 10
0.0
 20
0.0
 30
0.0
  9
$USERI1
 70
     0
  9
$USERI2
 70
     0
  9
$USERI3
 70
     0
  9
$USERI4
 70
     0
  9
$USERI5
 70
     0
  9
$USERR1
 40
0.0
  9
$USERR2
 40
0.0
  9
$USERR3
 40
0.0
  9
$USERR4
 40
0.0
  9
$USERR5
 40
0.0
  9
$WORLDVIEW
 70
     1
  9
$SHADEDGE
 70
     3
  9
$SHADEDIF
 70
    70
  9
$TILEMODE
 70
     1
  9
$MAXACTVP
 70
    64
  9
$PINSBASE
 10
0.0
 20
0.0
 30
0.0
  9
$PLIMCHECK
 70
     0
  9
$PEXTMIN
 10
1.000000000000000E+20
 20
1.000000000000000E+20
 30
1.000000000000000E+20
  9
$PEXTMAX
 10
-1.000000000000000E+20
 20
-1.000000000000000E+20
 30
-1.000000000000000E+20
  9
$PLIMMIN
 10
0.0
 20
0.0
  9
$PLIMMAX
 10
12.0
 20
9.0
  9
$UNITMODE
 70
     0
  9
$VISRETAIN
 70
     1
  9
$PLINEGEN
 70
     0
  9
$PSLTSCALE
 70
     1
  9
$TREEDEPTH
 70
  3020
  9
$CMLSTYLE
  2
Standard
  9
$CMLJUST
 70
     0
  9
$CMLSCALE
 40
1.0
  9
$PROXYGRAPHICS
 70
     1
  9
$MEASUREMENT
 70
     0
  9
$CELWEIGHT
370
    -1
  9
$ENDCAPS
280
     0
  9
$JOINSTYLE
280
     0
  9
$LWDISPLAY
290
     0
  9
$INSUNITS
 70
     1
  9
$HYPERLINKBASE
  1

  9
$STYLESHEET
  1

  9
$XEDIT
290
     1
  9
$CEPSNTYPE
380
     0
  9
$PSTYLEMODE
290
     1
  9
$FINGERPRINTGUID
  2
{85078221-4CC5-4047-9889-640C08168B8C}
  9
$VERSIONGUID
  2
{FAEB1C32-E019-11D5-929B-00C0DF256EC4}
  9
$EXTNAMES
290
     1
  9
$PSVPSCALE
 40
0.0
  9
$OLESTARTUP
290
     0
  9
$SORTENTS
280
   127
  9
$INDEXCTL
280
     0
  9
$HIDETEXT
280
     1
  9
$XCLIPFRAME
290
     0
  9
$HALOGAP
280
     0
  9
$OBSCOLOR
 70
   257
  9
$OBSLTYPE
280
     0
  9
$INTERSECTIONDISPLAY
280
     0
  9
$INTERSECTIONCOLOR
 70
   257
  9
$DIMASSOC
280
     2
  9
$PROJECTNAME
  1

  0
ENDSEC
  0
SECTION
  2
CLASSES
  0
CLASS
  1
ACDBDICTIONARYWDFLT
  2
AcDbDictionaryWithDefault
  3
ObjectDBX Classes
 90
        0
 91
        3
280
     0
281
     0
  0
CLASS
  1
VISUALSTYLE
  2
AcDbVisualStyle
  3
ObjectDBX Classes
 90
     4095
 91
        3
280
     0
281
     0
  0
CLASS
  1
SCALE
  2
AcDbScale
  3
ObjectDBX Classes
 90
     1153
 91
        3
280
     0
281
     0
  0
ENDSEC
  0
SECTION
  2
TABLES
  0
TABLE
  2
VPORT
  5
8
330
0
100
AcDbSymbolTable
 70
     1
  0
VPORT
  5
29
330
8
100
AcDbSymbolTableRecord
100
AcDbViewportTableRecord
  2
*Active
 70
     0
 10
0.0
 20
0.0
 11
1.0
 21
1.0
 12
0.0
 22
0.0
 13
0.0
 23
0.0
 14
0.5
 24
0.5
 15
0.5
 25
0.5
 16
0.0
 26
0.0
 36
1.0
 17
23.23040144238496
 27
30.36910057423822
 37
0.0
 40
64.56320229144598
 41
0.7744389108328025
 42
50.0
 43
0.0
 44
0.0
 50
0.0
 51
0.0
 71
     0
 72
   100
 73
     1
 74
     3
 75
     0
 76
     0
 77
     0
 78
     0
281
     0
 65
     1
110
0.0
120
0.0
130
0.0
111
1.0
121
0.0
131
0.0
112
0.0
122
1.0
132
0.0
 79
     0
146
0.0
  0
ENDTAB
  0
TABLE
  2
LTYPE
  5
5
330
0
100
AcDbSymbolTable
 70
     1
  0
LTYPE
  5
14
330
5
100
AcDbSymbolTableRecord
100
AcDbLinetypeTableRecord
  2
ByBlock
 70
     0
  3

 72
    65
 73
     0
 40
0.0
  0
LTYPE
  5
15
330
5
100
AcDbSymbolTableRecord
100
AcDbLinetypeTableRecord
  2
ByLayer
 70
     0
  3

 72
    65
 73
     0
 40
0.0
  0
LTYPE
  5
16
330
5
100
AcDbSymbolTableRecord
100
AcDbLinetypeTableRecord
  2
Continuous
 70
     0
  3
Solid line
 72
    65
 73
     0
 40
0.0
  0
ENDTAB
  0
TABLE
  2
LAYER
  5
2
330
0
100
AcDbSymbolTable
 70
     2
  0
LAYER
  5
10
330
2
100
AcDbSymbolTableRecord
100
AcDbLayerTableRecord
  2
0
 70
     0
 62
     7
  6
Continuous
370
    -3
390
F
  0
LAYER
  5
5D
330
2
100
AcDbSymbolTableRecord
100
AcDbLayerTableRecord
  2
DEFAULT
 70
     0
 62
     7
  6
Continuous
370
    -3
390
F
  0
ENDTAB
  0
TABLE
  2
STYLE
  5
3
330
0
100
AcDbSymbolTable
 70
     1
  0
STYLE
  5
11
330
3
100
AcDbSymbolTableRecord
100
AcDbTextStyleTableRecord
  2
Standard
 70
     0
 40
0.0
 41
1.0
 50
0.0
 71
     0
 42
0.2
  3
txt
  4

  0
ENDTAB
  0
TABLE
  2
VIEW
  5
6
330
0
100
AcDbSymbolTable
 70
     0
  0
ENDTAB
  0
TABLE
  2
UCS
  5
7
330
0
100
AcDbSymbolTable
 70
     0
  0
ENDTAB
  0
TABLE
  2
APPID
  5
9
330
0
100
AcDbSymbolTable
 70
     1
  0
APPID
  5
12
330
9
100
AcDbSymbolTableRecord
100
AcDbRegAppTableRecord
  2
ACAD
 70
     0
  0
ENDTAB
  0
TABLE
  2
DIMSTYLE
  5
A
330
0
100
AcDbSymbolTable
 70
     1
100
AcDbDimStyleTable
  0
DIMSTYLE
105
27
330
A
100
AcDbSymbolTableRecord
100
AcDbDimStyleTableRecord
  2
Standard
 70
     0
340
11
  0
ENDTAB
  0
TABLE
  2
BLOCK_RECORD
  5
1
330
0
100
AcDbSymbolTable
 70
     1
  0
BLOCK_RECORD
  5
1F
330
1
100
AcDbSymbolTableRecord
100
AcDbBlockTableRecord
  2
*Model_Space
340
22
  0
BLOCK_RECORD
  5
1B
330
1
100
AcDbSymbolTableRecord
100
AcDbBlockTableRecord
  2
*Paper_Space
340
1E
  0
BLOCK_RECORD
  5
23
330
1
100
AcDbSymbolTableRecord
100
AcDbBlockTableRecord
  2
*Paper_Space0
340
26
  0
ENDTAB
  0
ENDSEC
  0
SECTION
  2
BLOCKS
  0
BLOCK
  5
20
330
1F
100
AcDbEntity
  8
0
100
AcDbBlockBegin
  2
*Model_Space
 70
     0
 10
0.0
 20
0.0
 30
0.0
  3
*Model_Space
  1

  0
ENDBLK
  5
21
330
1F
100
AcDbEntity
  8
0
100
AcDbBlockEnd
  0
BLOCK
  5
1C
330
1B
100
AcDbEntity
 67
     1
  8
0
100
AcDbBlockBegin
  2
*Paper_Space
 70
     0
 10
0.0
 20
0.0
 30
0.0
  3
*Paper_Space
  1

  0
ENDBLK
  5
1D
330
1B
100
AcDbEntity
 67
     1
  8
0
100
AcDbBlockEnd
  0
BLOCK
  5
24
330
23
100
AcDbEntity
  8
0
100
AcDbBlockBegin
  2
*Paper_Space0
 70
     0
 10
0.0
 20
0.0
 30
0.0
  3
*Paper_Space0
  1

  0
ENDBLK
  5
25
330
23
100
AcDbEntity
  8
0
100
AcDbBlockEnd
  0
ENDSEC
  0
SECTION
  2
ENTITIES
  0
SPLINE
  5
5E
330
1F
100
AcDbEntity
  8
DEFAULT
100
AcDbSpline
210
0.0
220
0.0
230
1.0
 70
    24
 71
     2
 72
     6
 73
     3
 74
     0
 42
0.0000000001
 43
0.0000000001
 40
0.0
 40
0.0
 40
0.0
 40
1.0
 40
1.0
 40
1.0
 10
0.5272090000603384
 20
42.95674914847645
 30
0.0
 10
-0.3760324999396687
 20
42.95674914847645
 30
0.0
 10
-1.279273999939676
 20
42.95674914847645
 30
0.0
  0
ARC
  5
5F
330
1F
100
AcDbEntity
  8
DEFAULT
100
AcDbCircle
 10
-1.220217999939678
 20
56.40625714847643
 30
0.0
 40
0.0590555000000004
100
AcDbArc
 50
180.0
 51
270.0
  0
SPLINE
  5
60
330
1F
100
AcDbEntity
  8
DEFAULT
100
AcDbSpline
210
0.0
220
0.0
230
1.0
 70
     8
 71
     3
 72
     8
 73
     4
 74
     0
 42
0.0000000001
 43
0.0000000001
 40
0.0
 40
0.0
 40
0.0
 40
0.0
 40
1.0
 40
1.0
 40
1.0
 40
1.0
 10
20.77431004032034
 20
49.97791150050644
 30
0.0
 10
20.78152290259034
 20
49.96188763700643
 30
0.0
 10
20.78652926075036
 20
49.94484223702644
 30
0.0
 10
20.78910119488036
 20
49.92752943904644
 30
0.0
  0
SPLINE
  5
61
330
1F
100
AcDbEntity
  8
DEFAULT
100
AcDbSpline
210
0.0
220
0.0
230
1.0
 70
    24
 71
     2
 72
     6
 73
     3
 74
     0
 42
0.0000000001
 43
0.0000000001
 40
0.0
 40
0.0
 40
0.0
 40
1.0
 40
1.0
 40
1.0
 10
1.00286700006032
 20
56.46019014847643
 30
0.0
 10
2.209678000060322
 20
55.64929214847643
 30
0.0
 10
3.416489000060324
 20
54.83839414847644
 30
0.0
  0
ARC
  5
62
330
1F
100
AcDbEntity
  8
DEFAULT
100
AcDbCircle
 10
20.37238400006034
 20
49.63481014847643
 30
0.0
 40
0.5364173235713225
100
AcDbArc
 50
54.31676174241012
 51
118.0322062828517
  0
SPLINE
  5
63
330
1F
100
AcDbEntity
  8
DEFAULT
100
AcDbSpline
210
0.0
220
0.0
230
1.0
 70
    24
 71
     2
 72
     6
 73
     3
 74
     0
 42
0.0000000001
 43
0.0000000001
 40
0.0
 40
0.0
 40
0.0
 40
1.0
 40
1.0
 40
1.0
 10
0.5611110000603219
 20
56.34720214847643
 30
0.0
 10
-0.3295529999396791
 20
56.34720214847643
 30
0.0
 10
-1.22021699993968
 20
56.34720214847643
 30
0.0
  0
SPLINE
  5
64
330
1F
100
AcDbEntity
  8
DEFAULT
100
AcDbSpline
210
0.0
220
0.0
230
1.0
 70
     8
 71
     3
 72
     9
 73
     5
 74
     0
 42
0.0000000001
 43
0.0000000001
 40
0.0
 40
0.0
 40
0.0
 40
0.0
 40
0.3328530646196
 40
1.0
 40
1.0
 40
1.0
 40
1.0
 10
20.64254861878034
 20
50.08572596348644
 30
0.0
 10
20.64828752877035
 20
50.08443351746645
 30
0.0
 10
20.66535331549035
 20
50.07974850571644
 30
0.0
 10
20.68162157404034
 20
50.07270547693643
 30
0.0
 10
20.69194823326033
 20
50.06704878898644
 30
0.0
  0
SPLINE
  5
65
330
1F
100
AcDbEntity
  8
DEFAULT
100
AcDbSpline
210
0.0
220
0.0
230
1.0
 70
    24
 71
     2
 72
     6
 73
     3
 74
     0
 42
0.0000000001
 43
0.0000000001
 40
0.0
 40
0.0
 40
0.0
 40
1.0
 40
1.0
 40
1.0
 10
2.755958000060332
 20
53.92881114847644
 30
0.0
 10
1.611721000060328
 20
54.82605514847644
 30
0.0
 10
0.467484000060324
 20
55.72329914847644
 30
0.0
  0
SPLINE
  5
66
330
1F
100
AcDbEntity
  8
DEFAULT
100
AcDbSpline
210
0.0
220
0.0
230
1.0
 70
     8
 71
     3
 72
    10
 73
     6
 74
     0
 42
0.0000000001
 43
0.0000000001
 40
0.0
 40
0.0
 40
0.0
 40
0.0
 40
0.143116075702
 40
0.5720464325551
 40
1.0
 40
1.0
 40
1.0
 40
1.0
 10
20.69194823326033
 20
50.06704878898644
 30
0.0
 10
20.69711455981034
 20
50.06421880336644
 30
0.0
 10
20.71723789510035
 20
50.05194875869644
 30
0.0
 10
20.74813372416035
 20
50.02412317593642
 30
0.0
 10
20.76707277229035
 20
49.99398958304643
 30
0.0
 10
20.77431004032034
 20
49.97791150050644
 30
0.0
  0
SPLINE
  5
67
330
1F
100
AcDbEntity
  8
DEFAULT
100
AcDbSpline
210
0.0
220
0.0
230
1.0
 70
    24
 71
     2
 72
     6
 73
     3
 74
     0
 42
0.0000000001
 43
0.0000000001
 40
0.0
 40
0.0
 40
0.0
 40
1.0
 40
1.0
 40
1.0
 10
13.29864700006034
 20
39.86370814847645
 30
0.0
 10
13.29809550006034
 20
39.86370814847645
 30
0.0
 10
13.29754400006034
 20
39.86370814847645
 30
0.0
  0
SPLINE
  5
68
330
1F
100
AcDbEntity
  8
DEFAULT
100
AcDbSpline
210
0.0
220
0.0
230
1.0
 70
     8
 71
     3
 72
     9
 73
     5
 74
     0
 42
0.0000000001
 43
0.0000000001
 40
0.0
 40
0.0
 40
0.0
 40
0.0
 40
0.6723904811073
 40
1.0
 40
1.0
 40
1.0
 40
1.0
 10
0.4548044094143222
 20
55.73413627131644
 30
0.0
 10
0.4459806859773323
 20
55.74238267554644
 30
0.0
 10
0.4340029867293254
 20
55.75593464584644
 30
0.0
 10
0.424130445613315
 20
55.77097812324645
 30
0.0
 10
0.4211326360513397
 20
55.77604470236643
 30
0.0
  0
ARC
  5
69
330
1F
100
AcDbEntity
  8
DEFAULT
100
AcDbCircle
 10
-1.220217999939678
 20
42.86336314847644
 30
0.0
 40
0.0590555000000004
100
AcDbArc
 50
90.0
 51
180.0
  0
ARC
  5
6A
330
1F
100
AcDbEntity
  8
DEFAULT
100
AcDbCircle
 10
0.9254510000603204
 20
43.31611914847643
 30
0.0
 40
0.5364172339838719
100
AcDbArc
 50
270.2356277291128
 51
334.043808538358
  0
SPLINE
  5
6B
330
1F
100
AcDbEntity
  8
DEFAULT
100
AcDbSpline
210
0.0
220
0.0
230
1.0
 70
     8
 71
     3
 72
     9
 73
     5
 74
     0
 42
0.0000000001
 43
0.0000000001
 40
0.0
 40
0.0
 40
0.0
 40
0.0
 40
0.5991008538013
 40
1.0
 40
1.0
 40
1.0
 40
1.0
 10
0.4162700712323328
 20
43.30797967671644
 30
0.0
 10
0.4081768247033324
 20
43.32349431125643
 30
0.0
 10
0.3982112918443192
 20
43.35141504769645
 30
0.0
 10
0.3948908383263188
 20
43.38064841095643
 30
0.0
 10
0.3946395933763256
 20
43.39238959689645
 30
0.0
  0
ARC
  5
6C
330
1F
100
AcDbEntity
  8
DEFAULT
100
AcDbCircle
 10
12.94431600006034
 20
39.41095314847644
 30
0.0
 40
0.5364179064991967
100
AcDbArc
 50
342.2460424476051
 51
46.04543262749258
  0
SPLINE
  5
6D
330
1F
100
AcDbEntity
  8
DEFAULT
100
AcDbSpline
210
0.0
220
0.0
230
1.0
 70
    24
 71
     2
 72
     6
 73
     3
 74
     0
 42
0.0000000001
 43
0.0000000001
 40
0.0
 40
0.0
 40
0.0
 40
1.0
 40
1.0
 40
1.0
 10
12.01911900006034
 20
39.05158214847644
 30
0.0
 10
12.01911900006034
 20
39.41095264847644
 30
0.0
 10
12.01911900006034
 20
39.77032314847644
 30
0.0
  0
ARC
  5
6E
330
1F
100
AcDbEntity
  8
DEFAULT
100
AcDbCircle
 10
10.97581200006034
 20
40.15899314847644
 30
0.0
 40
0.2362205042417886
100
AcDbArc
 50
94.66042986320434
 51
180.0
  0
ARC
  5
6F
330
1F
100
AcDbEntity
  8
DEFAULT
100
AcDbCircle
 10
20.37238400006034
 20
49.63481014847643
 30
0.0
 40
0.5364170229674708
100
AcDbArc
 50
241.9682712379578
 51
305.8009242109369
  0
SPLINE
  5
70
330
1F
100
AcDbEntity
  8
DEFAULT
100
AcDbSpline
210
0.0
220
0.0
230
1.0
 70
    24
 71
     2
 72
     6
 73
     3
 74
     0
 42
0.0000000001
 43
0.0000000001
 40
0.0
 40
0.0
 40
0.0
 40
1.0
 40
1.0
 40
1.0
 10
10.79864900006034
 20
39.01725214847643
 30
0.0
 10
11.68931300006034
 20
39.01725214847643
 30
0.0
 10
12.57997700006034
 20
39.01725214847643
 30
0.0
  0
ARC
  5
71
330
1F
100
AcDbEntity
  8
DEFAULT
100
AcDbCircle
 10
1.043561000060322
 20
42.56807814847643
 30
0.0
 40
0.2362210042417907
100
AcDbArc
 50
274.6604298632045
 51
0.0
  0
ARC
  5
72
330
1F
100
AcDbEntity
  8
DEFAULT
100
AcDbCircle
 10
18.40388000006034
 20
48.88677014847643
 30
0.0
 40
0.2362205042417886
100
AcDbArc
 50
180.0
 51
265.3395701367952
  0
CIRCLE
  5
73
330
1F
100
AcDbEntity
  8
DEFAULT
100
AcDbCircle
 10
9.622384000060336
 20
49.63481014847643
 30
0.0
 40
6.908685000000002
  0
SPLINE
  5
74
330
1F
100
AcDbEntity
  8
DEFAULT
100
AcDbSpline
210
0.0
220
0.0
230
1.0
 70
    24
 71
     2
 72
     6
 73
     3
 74
     0
 42
0.0000000001
 43
0.0000000001
 40
0.0
 40
0.0
 40
0.0
 40
1.0
 40
1.0
 40
1.0
 10
-1.279273999939676
 20
43.67548914847644
 30
0.0
 10
-1.279273999939676
 20
43.31611914847645
 30
0.0
 10
-1.279273999939676
 20
42.95674914847645
 30
0.0
  0
SPLINE
  5
75
330
1F
100
AcDbEntity
  8
DEFAULT
100
AcDbSpline
210
0.0
220
0.0
230
1.0
 70
    24
 71
     2
 72
     6
 73
     3
 74
     0
 42
0.0000000001
 43
0.0000000001
 40
0.8510900741627301
 40
0.8510900741627301
 40
0.8510900741627301
 40
1.0
 40
1.0
 40
1.0
 10
12.77197772678731
 20
57.5607180497985
 30
0.0
 10
12.71265186342383
 20
57.35243259913747
 30
0.0
 10
12.65332600006035
 20
57.14414714847645
 30
0.0
  0
SPLINE
  5
76
330
1F
100
AcDbEntity
  8
DEFAULT
100
AcDbSpline
210
0.0
220
0.0
230
1.0
 70
    24
 71
     2
 72
     6
 73
     3
 74
     0
 42
0.0000000001
 43
0.0000000001
 40
0.0
 40
0.0
 40
0.0
 40
1.0
 40
1.0
 40
1.0
 10
0.5272090000603384
 20
55.59413114847645
 30
0.0
 10
-0.3760324999396687
 20
55.59413114847645
 30
0.0
 10
-1.279273999939676
 20
55.59413114847645
 30
0.0
  0
ARC
  5
77
330
1F
100
AcDbEntity
  8
DEFAULT
100
AcDbCircle
 10
18.40388000006034
 20
50.38285114847643
 30
0.0
 40
0.2362205042417886
100
AcDbArc
 50
94.66042986320477
 51
180.0
  0
SPLINE
  5
78
330
1F
100
AcDbEntity
  8
DEFAULT
100
AcDbSpline
210
0.0
220
0.0
230
1.0
 70
     8
 71
     2
 72
   184
 73
   181
 74
     0
 42
0.0000000001
 43
0.0000000001
 40
-90.0
 40
-90.0
 40
-90.0
 40
-89.0
 40
-89.0
 40
-88.0
 40
-88.0
 40
-87.0
 40
-87.0
 40
-86.0
 40
-86.0
 40
-85.0
 40
-85.0
 40
-84.0
 40
-84.0
 40
-83.0
 40
-83.0
 40
-82.0
 40
-82.0
 40
-81.0
 40
-81.0
 40
-80.0
 40
-80.0
 40
-79.0
 40
-79.0
 40
-78.0
 40
-78.0
 40
-77.0
 40
-77.0
 40
-76.0
 40
-76.0
 40
-75.0
 40
-75.0
 40
-74.0
 40
-74.0
 40
-73.0
 40
-73.0
 40
-72.0
 40
-72.0
 40
-71.0
 40
-71.0
 40
-70.0
 40
-70.0
 40
-69.0
 40
-69.0
 40
-68.0
 40
-68.0
 40
-67.0
 40
-67.0
 40
-66.0
 40
-66.0
 40
-65.0
 40
-65.0
 40
-64.0
 40
-64.0
 40
-63.0
 40
-63.0
 40
-62.0
 40
-62.0
 40
-61.0
 40
-61.0
 40
-60.0
 40
-60.0
 40
-59.0
 40
-59.0
 40
-58.0
 40
-58.0
 40
-57.0
 40
-57.0
 40
-56.0
 40
-56.0
 40
-55.0
 40
-55.0
 40
-54.0
 40
-54.0
 40
-53.0
 40
-53.0
 40
-52.0
 40
-52.0
 40
-51.0
 40
-51.0
 40
-50.0
 40
-50.0
 40
-49.0
 40
-49.0
 40
-48.0
 40
-48.0
 40
-47.0
 40
-47.0
 40
-46.0
 40
-46.0
 40
-45.0
 40
-45.0
 40
-44.0
 40
-44.0
 40
-43.0
 40
-43.0
 40
-42.0
 40
-42.0
 40
-41.0
 40
-41.0
 40
-40.0
 40
-40.0
 40
-39.0
 40
-39.0
 40
-38.0
 40
-38.0
 40
-37.0
 40
-37.0
 40
-36.0
 40
-36.0
 40
-35.0
 40
-35.0
 40
-34.0
 40
-34.0
 40
-33.0
 40
-33.0
 40
-32.0
 40
-32.0
 40
-31.0
 40
-31.0
 40
-30.0
 40
-30.0
 40
-29.0
 40
-29.0
 40
-28.0
 40
-28.0
 40
-27.0
 40
-27.0
 40
-26.0
 40
-26.0
 40
-25.0
 40
-25.0
 40
-24.0
 40
-24.0
 40
-23.0
 40
-23.0
 40
-22.0
 40
-22.0
 40
-21.0
 40
-21.0
 40
-20.0
 40
-20.0
 40
-19.0
 40
-19.0
 40
-18.0
 40
-18.0
 40
-17.0
 40
-17.0
 40
-16.0
 40
-16.0
 40
-15.0
 40
-15.0
 40
-14.0
 40
-14.0
 40
-13.0
 40
-13.0
 40
-12.0
 40
-12.0
 40
-11.0
 40
-11.0
 40
-10.0
 40
-10.0
 40
-9.0
 40
-9.0
 40
-8.0
 40
-8.0
 40
-7.0
 40
-7.0
 40
-6.0
 40
-6.0
 40
-5.0
 40
-5.0
 40
-4.0
 40
-4.0
 40
-3.0
 40
-3.0
 40
-2.0
 40
-2.0
 40
-1.0
 40
-1.0
 40
0.0
 40
0.0
 40
0.0
 10
1.416268000060327
 20
58.45441864847645
 30
0.0
 10
1.41815250006033
 20
58.46606789847645
 30
0.0
 10
1.420037000060333
 20
58.47771714847646
 30
0.0
 10
1.421016500060333
 20
58.48112164847645
 30
0.0
 10
1.421996000060332
 20
58.48452614847643
 30
0.0
 10
1.423289000060329
 20
58.48832814847644
 30
0.0
 10
1.424582000060326
 20
58.49213014847645
 30
0.0
 10
1.426031000060327
 20
58.49577914847644
 30
0.0
 10
1.427480000060328
 20
58.49942814847644
 30
0.0
 10
1.429009500060324
 20
58.50279914847644
 30
0.0
 10
1.430539000060321
 20
58.50617014847644
 30
0.0
 10
1.432180500060319
 20
58.50939314847645
 30
0.0
 10
1.433822000060317
 20
58.51261614847645
 30
0.0
 10
1.435483500060322
 20
58.51556014847645
 30
0.0
 10
1.437145000060326
 20
58.51850414847645
 30
0.0
 10
1.438758500060324
 20
58.52112114847645
 30
0.0
 10
1.440372000060322
 20
58.52373814847645
 30
0.0
 10
1.441946500060325
 20
58.52610464847645
 30
0.0
 10
1.443521000060329
 20
58.52847114847644
 30
0.0
 10
1.445072500060327
 20
58.53064864847644
 30
0.0
 10
1.446624000060325
 20
58.53282614847645
 30
0.0
 10
1.448146000060326
 20
58.53483714847644
 30
0.0
 10
1.449668000060328
 20
58.53684814847644
 30
0.0
 10
1.451140000060327
 20
58.53868814847644
 30
0.0
 10
1.452612000060327
 20
58.54052814847644
 30
0.0
 10
1.454031500060324
 20
58.54221664847644
 30
0.0
 10
1.455451000060322
 20
58.54390514847644
 30
0.0
 10
1.456801500060322
 20
58.54544314847644
 30
0.0
 10
1.458152000060323
 20
58.54698114847643
 30
0.0
 10
1.459431000060327
 20
58.54838264847645
 30
0.0
 10
1.460710000060331
 20
58.54978414847646
 30
0.0
 10
1.461939000060326
 20
58.55108514847646
 30
0.0
 10
1.463168000060321
 20
58.55238614847646
 30
0.0
 10
1.464342000060327
 20
58.55359214847645
 30
0.0
 10
1.465516000060333
 20
58.55479814847645
 30
0.0
 10
1.466630000060327
 20
58.55591164847645
 30
0.0
 10
1.467744000060321
 20
58.55702514847646
 30
0.0
 10
1.468824000060323
 20
58.55808014847645
 30
0.0
 10
1.469904000060325
 20
58.55913514847644
 30
0.0
 10
1.470949500060321
 20
58.56013464847645
 30
0.0
 10
1.471995000060318
 20
58.56113414847646
 30
0.0
 10
1.473001000060322
 20
58.56207914847646
 30
0.0
 10
1.474007000060325
 20
58.56302414847646
 30
0.0
 10
1.474995500060324
 20
58.56393664847646
 30
0.0
 10
1.475984000060322
 20
58.56484914847645
 30
0.0
 10
1.476955000060322
 20
58.56573314847645
 30
0.0
 10
1.477926000060322
 20
58.56661714847645
 30
0.0
 10
1.478876500060323
 20
58.56747064847644
 30
0.0
 10
1.479827000060325
 20
58.56832414847644
 30
0.0
 10
1.480771500060328
 20
58.56916264847645
 30
0.0
 10
1.481716000060331
 20
58.57000114847646
 30
0.0
 10
1.482656000060331
 20
58.57082714847645
 30
0.0
 10
1.483596000060331
 20
58.57165314847644
 30
0.0
 10
1.485459000060331
 20
58.57326864847644
 30
0.0
 10
1.487322000060331
 20
58.57488414847644
 30
0.0
 10
1.489180500060328
 20
58.57647064847644
 30
0.0
 10
1.491039000060326
 20
58.57805714847645
 30
0.0
 10
1.492898500060328
 20
58.57962664847645
 30
0.0
 10
1.49475800006033
 20
58.58119614847645
 30
0.0
 10
1.497551500060325
 20
58.58352964847644
 30
0.0
 10
1.500345000060321
 20
58.58586314847643
 30
0.0
 10
1.509608000060325
 20
58.59354264847644
 30
0.0
 10
1.518871000060329
 20
58.60122214847645
 30
0.0
 10
1.521563500060331
 20
58.60347964847645
 30
0.0
 10
1.524256000060333
 20
58.60573714847645
 30
0.0
 10
1.526000000060328
 20
58.60721514847644
 30
0.0
 10
1.527744000060324
 20
58.60869314847643
 30
0.0
 10
1.529433000060322
 20
58.61014114847644
 30
0.0
 10
1.531122000060321
 20
58.61158914847645
 30
0.0
 10
1.532740500060321
 20
58.61299564847646
 30
0.0
 10
1.53435900006032
 20
58.61440214847646
 30
0.0
 10
1.535891500060323
 20
58.61575514847645
 30
0.0
 10
1.537424000060327
 20
58.61710814847645
 30
0.0
 10
1.538153500060325
 20
58.61776114847645
 30
0.0
 10
1.538883000060324
 20
58.61841414847645
 30
0.0
 10
1.539582500060327
 20
58.61904664847644
 30
0.0
 10
1.54028200006033
 20
58.61967914847644
 30
0.0
 10
1.540948500060331
 20
58.62028864847645
 30
0.0
 10
1.541615000060332
 20
58.62089814847646
 30
0.0
 10
1.542227500060328
 20
58.62146464847645
 30
0.0
 10
1.542840000060323
 20
58.62203114847644
 30
0.0
 10
1.545084000060321
 20
58.62404664847645
 30
0.0
 10
1.547328000060318
 20
58.62606214847646
 30
0.0
 10
1.549653500060323
 20
58.62801414847645
 30
0.0
 10
1.551979000060328
 20
58.62996614847644
 30
0.0
 10
1.554050000060329
 20
58.63160564847645
 30
0.0
 10
1.55612100006033
 20
58.63324514847646
 30
0.0
 10
1.557946000060326
 20
58.63462314847645
 30
0.0
 10
1.559771000060323
 20
58.63600114847644
 30
0.0
 10
1.561545000060327
 20
58.63729064847645
 30
0.0
 10
1.563319000060332
 20
58.63858014847646
 30
0.0
 10
1.565082500060328
 20
58.63982114847646
 30
0.0
 10
1.566846000060323
 20
58.64106214847645
 30
0.0
 10
1.568563500060321
 20
58.64223864847645
 30
0.0
 10
1.570281000060319
 20
58.64341514847645
 30
0.0
 10
1.572042000060321
 20
58.64459314847645
 30
0.0
 10
1.573803000060323
 20
58.64577114847644
 30
0.0
 10
1.575629500060323
 20
58.64696964847644
 30
0.0
 10
1.577456000060323
 20
58.64816814847644
 30
0.0
 10
1.579337500060326
 20
58.64938114847645
 30
0.0
 10
1.581219000060329
 20
58.65059414847646
 30
0.0
 10
1.583195000060329
 20
58.65184914847646
 30
0.0
 10
1.585171000060328
 20
58.65310414847646
 30
0.0
 10
1.587253000060329
 20
58.65440914847646
 30
0.0
 10
1.589335000060331
 20
58.65571414847646
 30
0.0
 10
1.591522500060329
 20
58.65706964847645
 30
0.0
 10
1.593710000060327
 20
58.65842514847644
 30
0.0
 10
1.598467000060324
 20
58.66132964847644
 30
0.0
 10
1.603224000060322
 20
58.66423414847644
 30
0.0
 10
1.608530500060326
 20
58.66742214847645
 30
0.0
 10
1.613837000060329
 20
58.67061014847646
 30
0.0
 10
1.61976050006033
 20
58.67412214847646
 30
0.0
 10
1.625684000060332
 20
58.67763414847646
 30
0.0
 10
1.635840000060327
 20
58.68357564847645
 30
0.0
 10
1.645996000060322
 20
58.68951714847644
 30
0.0
 10
1.657810500060322
 20
58.69634164847645
 30
0.0
 10
1.669625000060321
 20
58.70316614847646
 30
0.0
 10
1.688183500060319
 20
58.71376314847646
 30
0.0
 10
1.706742000060316
 20
58.72436014847646
 30
0.0
 10
1.734970000060322
 20
58.74028764847645
 30
0.0
 10
1.763198000060328
 20
58.75621514847644
 30
0.0
 10
1.797703500060329
 20
58.77545914847644
 30
0.0
 10
1.832209000060331
 20
58.79470314847644
 30
0.0
 10
1.882416000060331
 20
58.82238964847645
 30
0.0
 10
1.932623000060332
 20
58.85007614847645
 30
0.0
 10
2.002036500060328
 20
58.88795064847645
 30
0.0
 10
2.071450000060324
 20
58.92582514847645
 30
0.0
 10
2.162896000060329
 20
58.97517814847645
 30
0.0
 10
2.254342000060333
 20
59.02453114847644
 30
0.0
 10
2.357072500060326
 20
59.07934314847644
 30
0.0
 10
2.459803000060319
 20
59.13415514847644
 30
0.0
 10
2.558246500060321
 20
59.18608664847645
 30
0.0
 10
2.656690000060323
 20
59.23801814847646
 30
0.0
 10
2.747415500060328
 20
59.28533264847646
 30
0.0
 10
2.838141000060332
 20
59.33264714847645
 30
0.0
 10
2.90039150006033
 20
59.36478014847646
 30
0.0
 10
2.962642000060328
 20
59.39691314847646
 30
0.0
 10
2.962667000060328
 20
59.39692014847645
 30
0.0
 10
2.962692000060329
 20
59.39692714847645
 30
0.0
 10
3.130679000060326
 20
59.48293464847644
 30
0.0
 10
3.298666000060322
 20
59.56894214847644
 30
0.0
 10
3.483592500060325
 20
59.66289264847644
 30
0.0
 10
3.668519000060328
 20
59.75684314847645
 30
0.0
 10
3.849887000060328
 20
59.84834414847646
 30
0.0
 10
4.031255000060327
 20
59.93984514847646
 30
0.0
 10
4.208860500060325
 20
60.02893964847645
 30
0.0
 10
4.386466000060324
 20
60.11803414847644
 30
0.0
 10
4.560347500060324
 20
60.20488314847644
 30
0.0
 10
4.734229000060324
 20
60.29173214847644
 30
0.0
 10
4.904677500060323
 20
60.37655314847645
 30
0.0
 10
5.075126000060322
 20
60.46137414847645
 30
0.0
 10
5.242231000060322
 20
60.54411864847644
 30
0.0
 10
5.409336000060321
 20
60.62686314847643
 30
0.0
 10
5.573124000060325
 20
60.70736714847645
 30
0.0
 10
5.736912000060329
 20
60.78787114847647
 30
0.0
 10
5.897640500060326
 20
60.86611064847646
 30
0.0
 10
6.058369000060324
 20
60.94435014847646
 30
0.0
 10
6.216056000060327
 20
61.02022114847645
 30
0.0
 10
6.37374300006033
 20
61.09609214847644
 30
0.0
 10
6.528674000060327
 20
61.16925114847645
 30
0.0
 10
6.683605000060325
 20
61.24241014847645
 30
0.0
 10
6.836605500060323
 20
61.31214114847646
 30
0.0
 10
6.98960600006032
 20
61.38187214847646
 30
0.0
 10
7.141123500060324
 20
61.44701064847645
 30
0.0
 10
7.292641000060328
 20
61.51214914847644
 30
0.0
 10
7.443122000060328
 20
61.57149714847644
 30
0.0
 10
7.593603000060327
 20
61.63084514847644
 30
0.0
 10
7.743757500060326
 20
61.68349664847644
 30
0.0
 10
7.893912000060325
 20
61.73614814847643
 30
0.0
 10
8.043802000060325
 20
61.78094414847644
 30
0.0
 10
8.193692000060324
 20
61.82574014847644
 30
0.0
 10
8.34294350006033
 20
61.86189014847645
 30
0.0
 10
8.492195000060335
 20
61.89804014847645
 30
0.0
 10
8.640898500060331
 20
61.92551714847646
 30
0.0
 10
8.789602000060327
 20
61.95299414847646
 30
0.0
 10
8.937380500060328
 20
61.97193214847645
 30
0.0
 10
9.08515900006033
 20
61.99087014847645
 30
0.0
 10
9.231317500060328
 20
62.00151614847645
 30
0.0
 10
9.377476000060327
 20
62.01216214847646
 30
0.0
 10
9.499932500060325
 20
62.01494564847646
 30
0.0
 10
9.622389000060323
 20
62.01772914847645
 30
0.0
  0
SPLINE
  5
79
330
1F
100
AcDbEntity
  8
DEFAULT
100
AcDbSpline
210
0.0
220
0.0
230
1.0
 70
     8
 71
     2
 72
   184
 73
   181
 74
     0
 42
0.0000000001
 43
0.0000000001
 40
0.0
 40
0.0
 40
0.0
 40
1.0
 40
1.0
 40
2.0
 40
2.0
 40
3.0
 40
3.0
 40
4.0
 40
4.0
 40
5.0
 40
5.0
 40
6.0
 40
6.0
 40
7.0
 40
7.0
 40
8.0
 40
8.0
 40
9.0
 40
9.0
 40
10.0
 40
10.0
 40
11.0
 40
11.0
 40
12.0
 40
12.0
 40
13.0
 40
13.0
 40
14.0
 40
14.0
 40
15.0
 40
15.0
 40
16.0
 40
16.0
 40
17.0
 40
17.0
 40
18.0
 40
18.0
 40
19.0
 40
19.0
 40
20.0
 40
20.0
 40
21.0
 40
21.0
 40
22.0
 40
22.0
 40
23.0
 40
23.0
 40
24.0
 40
24.0
 40
25.0
 40
25.0
 40
26.0
 40
26.0
 40
27.0
 40
27.0
 40
28.0
 40
28.0
 40
29.0
 40
29.0
 40
30.0
 40
30.0
 40
31.0
 40
31.0
 40
32.0
 40
32.0
 40
33.0
 40
33.0
 40
34.0
 40
34.0
 40
35.0
 40
35.0
 40
36.0
 40
36.0
 40
37.0
 40
37.0
 40
38.0
 40
38.0
 40
39.0
 40
39.0
 40
40.0
 40
40.0
 40
41.0
 40
41.0
 40
42.0
 40
42.0
 40
43.0
 40
43.0
 40
44.0
 40
44.0
 40
45.0
 40
45.0
 40
46.0
 40
46.0
 40
47.0
 40
47.0
 40
48.0
 40
48.0
 40
49.0
 40
49.0
 40
50.0
 40
50.0
 40
51.0
 40
51.0
 40
52.0
 40
52.0
 40
53.0
 40
53.0
 40
54.0
 40
54.0
 40
55.0
 40
55.0
 40
56.0
 40
56.0
 40
57.0
 40
57.0
 40
58.0
 40
58.0
 40
59.0
 40
59.0
 40
60.0
 40
60.0
 40
61.0
 40
61.0
 40
62.0
 40
62.0
 40
63.0
 40
63.0
 40
64.0
 40
64.0
 40
65.0
 40
65.0
 40
66.0
 40
66.0
 40
67.0
 40
67.0
 40
68.0
 40
68.0
 40
69.0
 40
69.0
 40
70.0
 40
70.0
 40
71.0
 40
71.0
 40
72.0
 40
72.0
 40
73.0
 40
73.0
 40
74.0
 40
74.0
 40
75.0
 40
75.0
 40
76.0
 40
76.0
 40
77.0
 40
77.0
 40
78.0
 40
78.0
 40
79.0
 40
79.0
 40
80.0
 40
80.0
 40
81.0
 40
81.0
 40
82.0
 40
82.0
 40
83.0
 40
83.0
 40
84.0
 40
84.0
 40
85.0
 40
85.0
 40
86.0
 40
86.0
 40
87.0
 40
87.0
 40
88.0
 40
88.0
 40
89.0
 40
89.0
 40
90.0
 40
90.0
 40
90.0
 10
9.622389000060323
 20
62.01772914847645
 30
0.0
 10
9.744845500060322
 20
62.01494564847646
 30
0.0
 10
9.86730200006032
 20
62.01216214847646
 30
0.0
 10
10.01346050006032
 20
62.00151614847645
 30
0.0
 10
10.15961900006032
 20
61.99087014847645
 30
0.0
 10
10.30739750006032
 20
61.97193214847645
 30
0.0
 10
10.45517600006032
 20
61.95299414847646
 30
0.0
 10
10.60387950006032
 20
61.92551714847646
 30
0.0
 10
10.75258300006031
 20
61.89804014847645
 30
0.0
 10
10.90183450006032
 20
61.86189014847645
 30
0.0
 10
11.05108600006032
 20
61.82574014847644
 30
0.0
 10
11.20097600006032
 20
61.78094414847644
 30
0.0
 10
11.35086600006032
 20
61.73614814847643
 30
0.0
 10
11.50102050006032
 20
61.68349664847644
 30
0.0
 10
11.65117500006032
 20
61.63084514847644
 30
0.0
 10
11.80165600006032
 20
61.57149714847644
 30
0.0
 10
11.95213700006032
 20
61.51214914847644
 30
0.0
 10
12.10365450006032
 20
61.44701064847645
 30
0.0
 10
12.25517200006031
 20
61.38187214847646
 30
0.0
 10
12.40817250006032
 20
61.31214114847646
 30
0.0
 10
12.56117300006032
 20
61.24241014847645
 30
0.0
 10
12.71610400006033
 20
61.16925114847645
 30
0.0
 10
12.87103500006033
 20
61.09609214847644
 30
0.0
 10
13.02872200006033
 20
61.02022114847645
 30
0.0
 10
13.18640900006032
 20
60.94435014847646
 30
0.0
 10
13.34713750006033
 20
60.86611064847646
 30
0.0
 10
13.50786600006033
 20
60.78787114847647
 30
0.0
 10
13.67165400006033
 20
60.70736714847645
 30
0.0
 10
13.83544200006033
 20
60.62686314847643
 30
0.0
 10
14.00254700006032
 20
60.54411864847644
 30
0.0
 10
14.16965200006031
 20
60.46137414847645
 30
0.0
 10
14.34010050006032
 20
60.37655314847645
 30
0.0
 10
14.51054900006032
 20
60.29173214847644
 30
0.0
 10
14.68443050006032
 20
60.20488314847644
 30
0.0
 10
14.85831200006031
 20
60.11803414847644
 30
0.0
 10
15.03591750006032
 20
60.02893964847645
 30
0.0
 10
15.21352300006033
 20
59.93984514847646
 30
0.0
 10
15.39489100006033
 20
59.84834414847646
 30
0.0
 10
15.57625900006032
 20
59.75684314847645
 30
0.0
 10
15.76118550006032
 20
59.66289264847644
 30
0.0
 10
15.94611200006032
 20
59.56894214847644
 30
0.0
 10
16.11409900006032
 20
59.48293464847644
 30
0.0
 10
16.28208600006032
 20
59.39692714847645
 30
0.0
 10
16.28211100006033
 20
59.39692014847645
 30
0.0
 10
16.28213600006033
 20
59.39691314847646
 30
0.0
 10
16.34438650006032
 20
59.36478014847646
 30
0.0
 10
16.40663700006031
 20
59.33264714847645
 30
0.0
 10
16.49736250006032
 20
59.28533264847646
 30
0.0
 10
16.58808800006032
 20
59.23801814847646
 30
0.0
 10
16.68653150006033
 20
59.18608664847645
 30
0.0
 10
16.78497500006033
 20
59.13415514847644
 30
0.0
 10
16.88770550006032
 20
59.07934314847644
 30
0.0
 10
16.99043600006031
 20
59.02453114847644
 30
0.0
 10
17.08188200006032
 20
58.97517814847645
 30
0.0
 10
17.17332800006032
 20
58.92582514847645
 30
0.0
 10
17.24274150006032
 20
58.88795064847645
 30
0.0
 10
17.31215500006032
 20
58.85007614847645
 30
0.0
 10
17.36236200006032
 20
58.82238964847645
 30
0.0
 10
17.41256900006032
 20
58.79470314847644
 30
0.0
 10
17.44707450006032
 20
58.77545914847644
 30
0.0
 10
17.48158000006033
 20
58.75621514847644
 30
0.0
 10
17.50980800006033
 20
58.74028764847645
 30
0.0
 10
17.53803600006033
 20
58.72436014847646
 30
0.0
 10
17.55659450006033
 20
58.71376314847646
 30
0.0
 10
17.57515300006033
 20
58.70316614847646
 30
0.0
 10
17.58696750006033
 20
58.69634164847645
 30
0.0
 10
17.59878200006033
 20
58.68951714847644
 30
0.0
 10
17.60893800006032
 20
58.68357564847645
 30
0.0
 10
17.61909400006031
 20
58.67763414847646
 30
0.0
 10
17.62501750006032
 20
58.67412214847646
 30
0.0
 10
17.63094100006033
 20
58.67061014847646
 30
0.0
 10
17.63624750006032
 20
58.66742214847645
 30
0.0
 10
17.64155400006031
 20
58.66423414847644
 30
0.0
 10
17.64631100006032
 20
58.66132964847644
 30
0.0
 10
17.65106800006033
 20
58.65842514847644
 30
0.0
 10
17.65325550006033
 20
58.65706964847645
 30
0.0
 10
17.65544300006032
 20
58.65571414847646
 30
0.0
 10
17.65752500006032
 20
58.65440914847646
 30
0.0
 10
17.65960700006032
 20
58.65310414847646
 30
0.0
 10
17.66158300006032
 20
58.65184914847646
 30
0.0
 10
17.66355900006032
 20
58.65059414847646
 30
0.0
 10
17.66544050006031
 20
58.64938114847645
 30
0.0
 10
17.66732200006031
 20
58.64816814847644
 30
0.0
 10
17.66914850006032
 20
58.64696964847644
 30
0.0
 10
17.67097500006032
 20
58.64577114847644
 30
0.0
 10
17.67273600006033
 20
58.64459314847645
 30
0.0
 10
17.67449700006033
 20
58.64341514847645
 30
0.0
 10
17.67621450006033
 20
58.64223864847645
 30
0.0
 10
17.67793200006032
 20
58.64106214847645
 30
0.0
 10
17.67969550006032
 20
58.63982114847646
 30
0.0
 10
17.68145900006031
 20
58.63858014847646
 30
0.0
 10
17.68323300006031
 20
58.63729064847645
 30
0.0
 10
17.68500700006031
 20
58.63600114847644
 30
0.0
 10
17.68683200006032
 20
58.63462314847645
 30
0.0
 10
17.68865700006033
 20
58.63324514847646
 30
0.0
 10
17.69072800006033
 20
58.63160564847645
 30
0.0
 10
17.69279900006033
 20
58.62996614847644
 30
0.0
 10
17.69512450006033
 20
58.62801414847645
 30
0.0
 10
17.69745000006033
 20
58.62606214847646
 30
0.0
 10
17.69969400006033
 20
58.62404664847645
 30
0.0
 10
17.70193800006034
 20
58.62203114847644
 30
0.0
 10
17.70255050006033
 20
58.62146464847645
 30
0.0
 10
17.70316300006031
 20
58.62089814847646
 30
0.0
 10
17.70382950006032
 20
58.62028864847645
 30
0.0
 10
17.70449600006033
 20
58.61967914847644
 30
0.0
 10
17.70519550006033
 20
58.61904664847644
 30
0.0
 10
17.70589500006032
 20
58.61841414847645
 30
0.0
 10
17.70662450006033
 20
58.61776114847645
 30
0.0
 10
17.70735400006033
 20
58.61710814847645
 30
0.0
 10
17.70888650006033
 20
58.61575514847645
 30
0.0
 10
17.71041900006033
 20
58.61440214847646
 30
0.0
 10
17.71203750006032
 20
58.61299564847646
 30
0.0
 10
17.71365600006031
 20
58.61158914847645
 30
0.0
 10
17.71534500006031
 20
58.61014114847644
 30
0.0
 10
17.71703400006031
 20
58.60869314847643
 30
0.0
 10
17.71877800006031
 20
58.60721514847644
 30
0.0
 10
17.72052200006031
 20
58.60573714847645
 30
0.0
 10
17.72321450006032
 20
58.60347964847645
 30
0.0
 10
17.72590700006033
 20
58.60122214847645
 30
0.0
 10
17.73517000006032
 20
58.59354264847644
 30
0.0
 10
17.74443300006031
 20
58.58586314847643
 30
0.0
 10
17.74722650006032
 20
58.58352964847644
 30
0.0
 10
17.75002000006033
 20
58.58119614847645
 30
0.0
 10
17.75187950006033
 20
58.57962664847645
 30
0.0
 10
17.75373900006032
 20
58.57805714847645
 30
0.0
 10
17.75559750006032
 20
58.57647064847644
 30
0.0
 10
17.75745600006032
 20
58.57488414847644
 30
0.0
 10
17.75931900006032
 20
58.57326864847644
 30
0.0
 10
17.76118200006032
 20
58.57165314847644
 30
0.0
 10
17.76212200006032
 20
58.57082714847645
 30
0.0
 10
17.76306200006032
 20
58.57000114847646
 30
0.0
 10
17.76400650006032
 20
58.56916264847645
 30
0.0
 10
17.76495100006032
 20
58.56832414847644
 30
0.0
 10
17.76590150006032
 20
58.56747064847644
 30
0.0
 10
17.76685200006033
 20
58.56661714847645
 30
0.0
 10
17.76782300006032
 20
58.56573314847645
 30
0.0
 10
17.76879400006031
 20
58.56484914847645
 30
0.0
 10
17.76978250006032
 20
58.56393664847646
 30
0.0
 10
17.77077100006032
 20
58.56302414847646
 30
0.0
 10
17.77177700006033
 20
58.56207914847646
 30
0.0
 10
17.77278300006033
 20
58.56113414847646
 30
0.0
 10
17.77382850006032
 20
58.56013464847645
 30
0.0
 10
17.77487400006031
 20
58.55913514847644
 30
0.0
 10
17.77595400006031
 20
58.55808014847645
 30
0.0
 10
17.77703400006031
 20
58.55702514847646
 30
0.0
 10
17.77814800006031
 20
58.55591164847645
 30
0.0
 10
17.77926200006031
 20
58.55479814847645
 30
0.0
 10
17.78043600006032
 20
58.55359214847645
 30
0.0
 10
17.78161000006033
 20
58.55238614847646
 30
0.0
 10
17.78283900006032
 20
58.55108514847646
 30
0.0
 10
17.78406800006032
 20
58.54978414847646
 30
0.0
 10
17.78534700006031
 20
58.54838264847645
 30
0.0
 10
17.78662600006031
 20
58.54698114847643
 30
0.0
 10
17.78797650006031
 20
58.54544314847644
 30
0.0
 10
17.78932700006031
 20
58.54390514847644
 30
0.0
 10
17.79074650006032
 20
58.54221664847644
 30
0.0
 10
17.79216600006033
 20
58.54052814847644
 30
0.0
 10
17.79363800006033
 20
58.53868814847644
 30
0.0
 10
17.79511000006032
 20
58.53684814847644
 30
0.0
 10
17.79663200006031
 20
58.53483714847644
 30
0.0
 10
17.79815400006031
 20
58.53282614847645
 30
0.0
 10
17.79970550006031
 20
58.53064864847644
 30
0.0
 10
17.80125700006032
 20
58.52847114847644
 30
0.0
 10
17.80283150006032
 20
58.52610464847645
 30
0.0
 10
17.80440600006033
 20
58.52373814847645
 30
0.0
 10
17.80601950006032
 20
58.52112114847645
 30
0.0
 10
17.80763300006031
 20
58.51850414847645
 30
0.0
 10
17.80929450006032
 20
58.51556014847645
 30
0.0
 10
17.81095600006033
 20
58.51261614847645
 30
0.0
 10
17.81259750006032
 20
58.50939314847645
 30
0.0
 10
17.81423900006031
 20
58.50617014847644
 30
0.0
 10
17.81576850006032
 20
58.50279914847644
 30
0.0
 10
17.81729800006032
 20
58.49942814847644
 30
0.0
 10
17.81874700006031
 20
58.49577914847644
 30
0.0
 10
17.82019600006031
 20
58.49213014847645
 30
0.0
 10
17.82148900006031
 20
58.48832814847644
 30
0.0
 10
17.82278200006031
 20
58.48452614847643
 30
0.0
 10
17.82376150006031
 20
58.48112164847645
 30
0.0
 10
17.82474100006031
 20
58.47771714847646
 30
0.0
 10
17.82662550006032
 20
58.46606789847645
 30
0.0
 10
17.82851000006032
 20
58.45441864847645
 30
0.0
  0
SPLINE
  5
7A
330
1F
100
AcDbEntity
  8
DEFAULT
100
AcDbSpline
210
0.0
220
0.0
230
1.0
 70
     8
 71
     3
 72
    34
 73
    30
 74
     0
 42
0.0000000001
 43
0.0000000001
 40
0.0
 40
0.0
 40
0.0
 40
0.0
 40
1.0
 40
2.0
 40
3.0
 40
4.0
 40
5.0
 40
6.0
 40
7.0
 40
8.0
 40
9.0
 40
10.0
 40
11.0
 40
12.0
 40
13.0
 40
14.0
 40
15.0
 40
16.0
 40
17.0
 40
18.0
 40
19.0
 40
20.0
 40
21.0
 40
22.0
 40
23.0
 40
24.0
 40
25.0
 40
26.0
 40
27.0
 40
27.0
 40
27.0
 40
27.0
 10
17.82851000006032
 20
58.45441864847645
 30
0.0
 10
17.83187926617701
 20
58.32297777177847
 30
0.0
 10
17.82830053587925
 20
58.0968158272277
 30
0.0
 10
17.78566526097661
 20
57.75879102348522
 30
0.0
 10
17.66455275369161
 20
57.43901025678501
 30
0.0
 10
17.41098711187836
 20
57.18743811999808
 30
0.0
 10
17.0603997894368
 20
57.16231620835946
 30
0.0
 10
16.72468196647718
 20
57.19090463484467
 30
0.0
 10
16.38667035935164
 20
57.226782298023
 30
0.0
 10
16.0509095422545
 20
57.2744615375246
 30
0.0
 10
15.71440180527451
 20
57.31796408158208
 30
0.0
 10
15.37722094572142
 20
57.35550600850509
 30
0.0
 10
15.03946259132935
 20
57.38758397417799
 30
0.0
 10
14.70113135614143
 20
57.41286416160942
 30
0.0
 10
14.36249409636379
 20
57.43351362704622
 30
0.0
 10
14.02379404026756
 20
57.45287109355162
 30
0.0
 10
13.6851244541072
 20
57.47342442171849
 30
0.0
 10
13.34732074268136
 20
57.50504193821176
 30
0.0
 10
13.00978263678418
 20
57.53918102189498
 30
0.0
 10
12.67192130763262
 20
57.57000595003747
 30
0.0
 10
12.33385808614027
 20
57.59835854221215
 30
0.0
 10
11.99555483020909
 20
57.62410719711745
 30
0.0
 10
11.65677905156925
 20
57.64251554891861
 30
0.0
 10
11.31791631243239
 20
57.6586630350087
 30
0.0
 10
10.97890932032185
 20
57.67195405360302
 30
0.0
 10
10.63986912279744
 20
57.68419365394614
 30
0.0
 10
10.30077270923327
 20
57.69477588933567
 30
0.0
 10
9.96165233282828
 20
57.70447652216025
 30
0.0
 10
9.735466082742292
 20
57.70597206564211
 30
0.0
 10
9.622384000060336
 20
57.70771414847646
 30
0.0
  0
SPLINE
  5
7B
330
1F
100
AcDbEntity
  8
DEFAULT
100
AcDbSpline
210
0.0
220
0.0
230
1.0
 70
     8
 71
     3
 72
    34
 73
    30
 74
     0
 42
0.0000000001
 43
0.0000000001
 40
-27.0
 40
-27.0
 40
-27.0
 40
-27.0
 40
-26.0
 40
-25.0
 40
-24.0
 40
-23.0
 40
-22.0
 40
-21.0
 40
-20.0
 40
-19.0
 40
-18.0
 40
-17.0
 40
-16.0
 40
-15.0
 40
-14.0
 40
-13.0
 40
-12.0
 40
-11.0
 40
-10.0
 40
-9.0
 40
-8.0
 40
-7.0
 40
-6.0
 40
-5.0
 40
-4.0
 40
-3.0
 40
-2.0
 40
-1.0
 40
0.0
 40
0.0
 40
0.0
 40
0.0
 10
9.622384000060336
 20
57.70771414847646
 30
0.0
 10
9.509311917378355
 20
57.70597206564211
 30
0.0
 10
9.283125667292367
 20
57.70447652216025
 30
0.0
 10
8.944005290887375
 20
57.69477588933567
 30
0.0
 10
8.604908877323211
 20
57.68419365394614
 30
0.0
 10
8.2658686797988
 20
57.67195405360302
 30
0.0
 10
7.926861687688259
 20
57.6586630350087
 30
0.0
 10
7.587998948551402
 20
57.64251554891861
 30
0.0
 10
7.249223169911559
 20
57.62410719711745
 30
0.0
 10
6.910919913980365
 20
57.59835854221215
 30
0.0
 10
6.572856692488031
 20
57.57000595003747
 30
0.0
 10
6.234995363336466
 20
57.53918102189498
 30
0.0
 10
5.897457257439285
 20
57.50504193821176
 30
0.0
 10
5.559653546013465
 20
57.47342442171849
 30
0.0
 10
5.220983959853086
 20
57.45287109355162
 30
0.0
 10
4.882283903756857
 20
57.43351362704622
 30
0.0
 10
4.543646643979216
 20
57.41286416160942
 30
0.0
 10
4.205315408791307
 20
57.38758397417799
 30
0.0
 10
3.867557054399242
 20
57.35550600850509
 30
0.0
 10
3.530376194846141
 20
57.31796408158208
 30
0.0
 10
3.193868457866131
 20
57.2744615375246
 30
0.0
 10
2.858107640769006
 20
57.226782298023
 30
0.0
 10
2.520096033643469
 20
57.19090463484467
 30
0.0
 10
2.184378210683832
 20
57.16231620835946
 30
0.0
 10
1.833790888242291
 20
57.18743811999808
 30
0.0
 10
1.580225246429038
 20
57.43901025678501
 30
0.0
 10
1.459112739144032
 20
57.75879102348522
 30
0.0
 10
1.416477464241396
 20
58.0968158272277
 30
0.0
 10
1.412898733943635
 20
58.32297777177847
 30
0.0
 10
1.416268000060327
 20
58.45441864847645
 30
0.0
  0
SPLINE
  5
7C
330
1F
100
AcDbEntity
  8
DEFAULT
100
AcDbSpline
210
0.0
220
0.0
230
1.0
 70
     8
 71
     3
 72
     8
 73
     4
 74
     0
 42
0.0000000001
 43
0.0000000001
 40
0.0
 40
0.0
 40
0.0
 40
0.0
 40
0.0550136616079278
 40
0.0550136616079278
 40
0.0550136616079278
 40
0.0550136616079278
 10
11.58420600006035
 20
57.49161614847644
 30
0.0
 10
11.60269832410766
 20
57.54207794938249
 30
0.0
 10
11.62118538769961
 20
57.59254190820458
 30
0.0
 10
11.63966805901613
 20
57.64300766876865
 30
0.0
  0
CIRCLE
  5
7D
330
1F
100
AcDbEntity
  8
DEFAULT
100
AcDbCircle
 10
0.0
 20
0.0
 30
0.0
 40
1.0
  0
SPLINE
  5
7E
330
1F
100
AcDbEntity
  8
DEFAULT
100
AcDbSpline
210
0.0
220
0.0
230
1.0
 70
    24
 71
     2
 72
     6
 73
     3
 74
     0
 42
0.0000000001
 43
0.0000000001
 40
0.0
 40
0.0
 40
0.0
 40
1.0
 40
1.0
 40
1.0
 10
19.83571100000002
 20
1.441068000000001
 30
0.0
 10
19.83571100000002
 20
1.360298
 30
0.0
 10
19.83571100000002
 20
1.279527999999999
 30
0.0
  0
SPLINE
  5
7F
330
1F
100
AcDbEntity
  8
DEFAULT
100
AcDbSpline
210
0.0
220
0.0
230
1.0
 70
     8
 71
     3
 72
     9
 73
     5
 74
     0
 42
0.0000000001
 43
0.0000000001
 40
0.0
 40
0.0
 40
0.0
 40
0.0
 40
1.000000115485941
 40
2.0
 40
2.0
 40
2.0
 40
2.0
 10
12.38205800000001
 20
2.60146499999999
 30
0.0
 10
12.39910946089152
 20
2.574127984616013
 30
0.0
 10
12.41585814072049
 20
2.511463308169638
 30
0.0
 10
12.42334722027438
 20
2.44789504975401
 30
0.0
 10
12.42477450000003
 20
2.415829000000002
 30
0.0
  0
SPLINE
  5
80
330
1F
100
AcDbEntity
  8
DEFAULT
100
AcDbSpline
210
0.0
220
0.0
230
1.0
 70
    24
 71
     2
 72
     6
 73
     3
 74
     0
 42
0.0000000001
 43
0.0000000001
 40
0.0
 40
0.0
 40
0.0
 40
1.0
 40
1.0
 40
1.0
 10
12.42477450000003
 20
2.415829000000002
 30
0.0
 10
12.44256071071119
 20
2.023956498217061
 30
0.0
 10
12.46034692142236
 20
1.632083996434119
 30
0.0
  0
ARC
  5
81
330
1F
100
AcDbEntity
  8
DEFAULT
100
AcDbCircle
 10
12.5202850823671
 20
1.63480392134403
 30
0.0
 40
0.0599998427410689
100
AcDbArc
 50
182.598234190645
 51
269.9975340146328
  0
SPLINE
  5
82
330
1F
100
AcDbEntity
  8
DEFAULT
100
AcDbSpline
210
0.0
220
0.0
230
1.0
 70
    24
 71
     2
 72
     6
 73
     3
 74
     0
 42
0.0000000001
 43
0.0000000001
 40
0.0
 40
0.0
 40
0.0
 40
1.0
 40
1.0
 40
1.0
 10
12.52028250000002
 20
1.574804078658531
 30
0.0
 10
12.93583825000002
 20
1.574804088336712
 30
0.0
 10
13.35139400000001
 20
1.574804098014894
 30
0.0
  0
ARC
  5
83
330
1F
100
AcDbEntity
  8
DEFAULT
100
AcDbCircle
 10
13.35139389779111
 20
1.634804423377844
 30
0.0
 40
0.0600003253630366
100
AcDbArc
 50
270.0000976017901
 51
357.6001198212138
  0
SPLINE
  5
84
330
1F
100
AcDbEntity
  8
DEFAULT
100
AcDbSpline
210
0.0
220
0.0
230
1.0
 70
    24
 71
     2
 72
     6
 73
     3
 74
     0
 42
0.0000000001
 43
0.0000000001
 40
0.0
 40
0.0
 40
0.0
 40
1.0
 40
1.0
 40
1.0
 10
13.411341597929
 20
1.632291995896409
 30
0.0
 10
13.4342722989645
 20
2.180653997948205
 30
0.0
 10
13.45720300000001
 20
2.729016000000001
 30
0.0
  0
SPLINE
  5
85
330
1F
100
AcDbEntity
  8
DEFAULT
100
AcDbSpline
210
0.0
220
0.0
230
1.0
 70
     8
 71
     3
 72
     9
 73
     5
 74
     0
 42
0.0000000001
 43
0.0000000001
 40
0.0
 40
0.0
 40
0.0
 40
0.0
 40
0.9999377902530446
 40
2.0
 40
2.0
 40
2.0
 40
2.0
 10
13.45720300000001
 20
2.729016000000001
 30
0.0
 10
13.45739892508387
 20
2.739728213790485
 30
0.0
 10
13.45306679464109
 20
2.761353775542503
 30
0.0
 10
13.43940082118981
 20
2.778628490951661
 30
0.0
 10
13.43125100000002
 20
2.785572999999999
 30
0.0
  0
CIRCLE
  5
86
330
1F
100
AcDbEntity
  8
DEFAULT
100
AcDbCircle
 10
12.01886500000002
 20
0.0
 30
0.0
 40
1.279528000000001
  0
SPLINE
  5
87
330
1F
100
AcDbEntity
  8
DEFAULT
100
AcDbSpline
210
0.0
220
0.0
230
1.0
 70
    24
 71
     2
 72
     6
 73
     3
 74
     0
 42
0.0000000001
 43
0.0000000001
 40
0.0
 40
0.0
 40
0.0
 40
1.0
 40
1.0
 40
1.0
 10
9.235802000000021
 20
4.007722000000001
 30
0.0
 10
9.233874500000027
 20
4.117683
 30
0.0
 10
9.231947000000034
 20
4.227643999999998
 30
0.0
  0
SPLINE
  5
88
330
1F
100
AcDbEntity
  8
DEFAULT
100
AcDbSpline
210
0.0
220
0.0
230
1.0
 70
    24
 71
     2
 72
     6
 73
     3
 74
     0
 42
0.0000000001
 43
0.0000000001
 40
0.0
 40
0.0
 40
0.0
 40
1.0
 40
1.0
 40
1.0
 10
0.4868620000000021
 20
2.797449
 30
0.0
 10
0.48686450000001
 20
2.797449999999998
 30
0.0
 10
0.4868670000000179
 20
2.797450999999995
 30
0.0
  0
SPLINE
  5
89
330
1F
100
AcDbEntity
  8
DEFAULT
100
AcDbSpline
210
0.0
220
0.0
230
1.0
 70
     8
 71
     3
 72
     9
 73
     5
 74
     0
 42
0.0000000001
 43
0.0000000001
 40
0.0
 40
0.0
 40
0.0
 40
0.0
 40
1.0
 40
2.0
 40
2.0
 40
2.0
 40
2.0
 10
8.630130000000023
 20
4.308345222177593
 30
0.0
 10
7.249478464699166
 20
4.272404215957124
 30
0.0
 10
4.559745392396991
 20
3.849709083087419
 30
0.0
 10
1.917115359361503
 20
3.216641134994376
 30
0.0
 10
0.4868670000000179
 20
2.797450999999995
 30
0.0
  0
SPLINE
  5
8A
330
1F
100
AcDbEntity
  8
DEFAULT
100
AcDbSpline
210
0.0
220
0.0
230
1.0
 70
    24
 71
     2
 72
     6
 73
     3
 74
     0
 42
0.0000000001
 43
0.0000000001
 40
0.0
 40
0.0
 40
0.0
 40
1.0
 40
1.0
 40
1.0
 10
20.65756300000002
 20
1.574804
 30
0.0
 10
20.65756300000002
 20
1.515748500000001
 30
0.0
 10
20.65756300000002
 20
1.456693000000001
 30
0.0
  0
SPLINE
  5
8B
330
1F
100
AcDbEntity
  8
DEFAULT
100
AcDbSpline
210
0.0
220
0.0
230
1.0
 70
    24
 71
     2
 72
     6
 73
     3
 74
     0
 42
0.0000000001
 43
0.0000000001
 40
0.0
 40
0.0
 40
0.0
 40
1.0
 40
1.0
 40
1.0
 10
12.65862900000003
 20
1.574804
 30
0.0
 10
12.65862900000003
 20
1.515748500000001
 30
0.0
 10
12.65862900000003
 20
1.456693000000001
 30
0.0
  0
SPLINE
  5
8C
330
1F
100
AcDbEntity
  8
DEFAULT
100
AcDbSpline
210
0.0
220
0.0
230
1.0
 70
     8
 71
     3
 72
     9
 73
     5
 74
     0
 42
0.0000000001
 43
0.0000000001
 40
0.0
 40
0.0
 40
0.0
 40
0.0
 40
1.0
 40
2.0
 40
2.0
 40
2.0
 40
2.0
 10
1.409604000000002
 20
1.574804
 30
0.0
 10
1.420397244777291
 20
1.574990467893471
 30
0.0
 10
1.441892352119112
 20
1.58041636949865
 30
0.0
 10
1.458528351373729
 20
1.595120343005945
 30
0.0
 10
1.464743999999996
 20
1.603955999999997
 30
0.0
  0
SPLINE
  5
8D
330
1F
100
AcDbEntity
  8
DEFAULT
100
AcDbSpline
210
0.0
220
0.0
230
1.0
 70
     8
 71
     3
 72
     9
 73
     5
 74
     0
 42
0.0000000001
 43
0.0000000001
 40
0.0
 40
0.0
 40
0.0
 40
0.0
 40
1.0
 40
2.0
 40
2.0
 40
2.0
 40
2.0
 10
1.464743999999996
 20
1.603955999999997
 30
0.0
 10
1.508851797999398
 20
1.689077144698913
 30
0.0
 10
1.627550598238855
 20
1.845994617982839
 30
0.0
 10
1.806956824348759
 20
1.931692016828237
 30
0.0
 10
1.936937517236998
 20
1.948920408199996
 30
0.0
  0
ARC
  5
8E
330
1F
100
AcDbEntity
  8
DEFAULT
100
AcDbCircle
 10
20.71298300000002
 20
1.634804000000003
 30
0.0
 40
0.0600002755487352
100
AcDbArc
 50
270.0
 51
357.9999895230753
  0
SPLINE
  5
8F
330
1F
100
AcDbEntity
  8
DEFAULT
100
AcDbSpline
210
0.0
220
0.0
230
1.0
 70
    24
 71
     2
 72
     6
 73
     3
 74
     0
 42
0.0000000001
 43
0.0000000001
 40
0.0
 40
0.0
 40
0.0
 40
1.0
 40
1.0
 40
1.0
 10
19.97388700000003
 20
1.279527999999999
 30
0.0
 10
19.71040950000003
 20
1.279527999999999
 30
0.0
 10
19.44693200000002
 20
1.279527999999999
 30
0.0
  0
SPLINE
  5
90
330
1F
100
AcDbEntity
  8
DEFAULT
100
AcDbSpline
210
0.0
220
0.0
230
1.0
 70
    24
 71
     2
 72
     6
 73
     3
 74
     0
 42
0.0000000001
 43
0.0000000001
 40
0.0
 40
0.0
 40
0.0
 40
1.0
 40
1.0
 40
1.0
 10
20.72646000000002
 20
0.3149609999999967
 30
0.0
 10
20.72646000000002
 20
0.1574804999999984
 30
0.0
 10
20.72646000000002
 20
0.0
 30
0.0
  0
SPLINE
  5
91
330
1F
100
AcDbEntity
  8
DEFAULT
100
AcDbSpline
210
0.0
220
0.0
230
1.0
 70
     8
 71
     3
 72
     8
 73
     4
 74
     0
 42
0.0000000001
 43
0.0000000001
 40
0.0
 40
0.0
 40
0.0
 40
0.0
 40
1.0
 40
1.0
 40
1.0
 40
1.0
 10
13.43114400000003
 20
2.785667000000004
 30
0.0
 10
12.63272420295444
 20
3.439487860998085
 30
0.0
 10
11.75301045582331
 20
4.066708017702254
 30
0.0
 10
10.72953500000001
 20
4.289094999999989
 30
0.0
  0
SPLINE
  5
92
330
1F
100
AcDbEntity
  8
DEFAULT
100
AcDbSpline
210
0.0
220
0.0
230
1.0
 70
     8
 71
     3
 72
    11
 73
     7
 74
     0
 42
0.0000000001
 43
0.0000000001
 40
0.0
 40
0.0
 40
0.0
 40
0.0
 40
1.0
 40
2.0
 40
3.0
 40
4.0
 40
4.0
 40
4.0
 40
4.0
 10
12.64382049400002
 20
2.798339706023
 30
0.0
 10
12.38823034935139
 20
2.970974997370789
 30
0.0
 10
11.86530396975495
 20
3.299194294987373
 30
0.0
 10
11.04418180449322
 20
3.727251635542771
 30
0.0
 10
10.19125797117088
 20
4.088726584775003
 30
0.0
 10
9.595117971372261
 20
4.256366617407082
 30
0.0
 10
9.287618546020028
 20
4.289667635103001
 30
0.0
  0
SPLINE
  5
93
330
1F
100
AcDbEntity
  8
DEFAULT
100
AcDbSpline
210
0.0
220
0.0
230
1.0
 70
    24
 71
     2
 72
     6
 73
     3
 74
     0
 42
0.0000000001
 43
0.0000000001
 40
0.0
 40
0.0
 40
0.0
 40
1.0
 40
1.0
 40
1.0
 10
0.5269550000000152
 20
1.279527999999999
 30
0.0
 10
0.2634775000000076
 20
1.279527999999999
 30
0.0
 10
0.0
 20
1.279527999999999
 30
0.0
  0
ARC
  5
94
330
1F
100
AcDbEntity
  8
DEFAULT
100
AcDbCircle
 10
1.445988999999997
 20
1.441068000000001
 30
0.0
 40
0.015625
100
AcDbArc
 50
0.0
 51
90.0
  0
SPLINE
  5
95
330
1F
100
AcDbEntity
  8
DEFAULT
100
AcDbSpline
210
0.0
220
0.0
230
1.0
 70
     8
 71
     3
 72
     9
 73
     5
 74
     0
 42
0.0000000001
 43
0.0000000001
 40
0.0
 40
0.0
 40
0.0
 40
0.0
 40
1.0
 40
2.0
 40
2.0
 40
2.0
 40
2.0
 10
0.9580520872829936
 20
2.798339719737001
 30
0.0
 10
2.28281246983633
 20
3.171451471676022
 30
0.0
 10
4.964698925459459
 20
3.789093426875127
 30
0.0
 10
7.686822184492598
 20
4.223677452697515
 30
0.0
 10
9.06253462652002
 20
4.289667635103001
 30
0.0
  0
SPLINE
  5
96
330
1F
100
AcDbEntity
  8
DEFAULT
100
AcDbSpline
210
0.0
220
0.0
230
1.0
 70
    24
 71
     2
 72
     6
 73
     3
 74
     0
 42
0.0000000001
 43
0.0000000001
 40
0.0
 40
0.0
 40
0.0
 40
1.0
 40
1.0
 40
1.0
 10
10.62212900000002
 20
10.09173399999999
 30
0.0
 10
10.65962900000001
 20
10.129234
 30
0.0
 10
10.697129
 20
10.16673400000001
 30
0.0
  0
SPLINE
  5
97
330
1F
100
AcDbEntity
  8
DEFAULT
100
AcDbSpline
210
0.0
220
0.0
230
1.0
 70
    24
 71
     2
 72
     6
 73
     3
 74
     0
 42
0.0000000001
 43
0.0000000001
 40
0.0
 40
0.0
 40
0.0
 40
1.0
 40
1.0
 40
1.0
 10
8.622129000000015
 20
10.09173399999999
 30
0.0
 10
9.622129000000015
 20
10.09173399999999
 30
0.0
 10
10.62212900000002
 20
10.09173399999999
 30
0.0
  0
SPLINE
  5
98
330
1F
100
AcDbEntity
  8
DEFAULT
100
AcDbSpline
210
0.0
220
0.0
230
1.0
 70
    24
 71
     2
 72
     6
 73
     3
 74
     0
 42
0.0000000001
 43
0.0000000001
 40
-1.0
 40
-1.0
 40
-1.0
 40
0.0
 40
0.0
 40
0.0
 10
17.40338600000003
 20
19.73399936806274
 30
0.0
 10
17.53768543655316
 20
19.94892390770901
 30
0.0
 10
17.6719848731063
 20
20.16384844735528
 30
0.0
  0
ARC
  5
99
330
1F
100
AcDbEntity
  8
DEFAULT
100
AcDbCircle
 10
17.39212981705707
 20
20.33872209185131
 30
0.0
 40
0.3299994605081066
100
AcDbArc
 50
327.9998826495001
 51
16.62705623837233
  0
ARC
  5
9A
330
1F
100
AcDbEntity
  8
DEFAULT
100
AcDbCircle
 10
14.40258144265313
 20
19.44595787537284
 30
0.0
 40
3.450003856198021
100
AcDbArc
 50
16.62711566253618
 51
42.81730653986661
  0
ARC
  5
9B
330
1F
100
AcDbEntity
  8
DEFAULT
100
AcDbCircle
 10
16.49312981974704
 20
21.38300025039025
 30
0.0
 40
0.5999993510115813
100
AcDbArc
 50
42.81730060376013
 51
86.39895866621946
  0
ARC
  5
9C
330
1F
100
AcDbEntity
  8
DEFAULT
100
AcDbCircle
 10
9.621875000091975
 20
-87.80095298127773
 30
0.0
 40
109.9999526695194
100
AcDbArc
 50
86.39896361006214
 51
89.99986717795665
  0
ARC
  5
9D
330
1F
100
AcDbEntity
  8
DEFAULT
100
AcDbCircle
 10
9.62238400006909
 20
-87.80103791345599
 30
0.0
 40
110.0000376016953
100
AcDbArc
 50
90.00013230115323
 51
93.60103361145285
  0
ARC
  5
9E
330
1F
100
AcDbEntity
  8
DEFAULT
100
AcDbCircle
 10
2.751129772188307
 20
21.38300005670145
 30
0.0
 40
0.5999997491751065
100
AcDbArc
 50
93.60109658613247
 51
137.182724247455
  0
ARC
  5
9F
330
1F
100
AcDbEntity
  8
DEFAULT
100
AcDbCircle
 10
4.841675795660962
 20
19.44595852499909
 30
0.0
 40
3.450001954752505
100
AcDbArc
 50
137.1826814888865
 51
163.3728863033159
  0
ARC
  5
A0
330
1F
100
AcDbEntity
  8
DEFAULT
100
AcDbCircle
 10
1.852130173998802
 20
20.33872215812669
 30
0.0
 40
0.3300003636263555
100
AcDbArc
 50
163.3730040238594
 51
212.0000359252202
  0
SPLINE
  5
A1
330
1F
100
AcDbEntity
  8
DEFAULT
100
AcDbSpline
210
0.0
220
0.0
230
1.0
 70
    24
 71
     2
 72
     6
 73
     3
 74
     0
 42
0.0000000001
 43
0.0000000001
 40
0.0
 40
0.0
 40
0.0
 40
1.0
 40
1.0
 40
1.0
 10
1.572274103542668
 20
20.16384843276359
 30
0.0
 10
1.706573551771342
 20
19.94892390041316
 30
0.0
 10
1.840873000000016
 20
19.73399936806274
 30
0.0
  0
SPLINE
  5
A2
330
1F
100
AcDbEntity
  8
DEFAULT
100
AcDbSpline
210
0.0
220
0.0
230
1.0
 70
     8
 71
     3
 72
     8
 73
     4
 74
     0
 42
0.0000000001
 43
0.0000000001
 40
0.0
 40
0.0
 40
0.0
 40
0.0
 40
1.0
 40
1.0
 40
1.0
 40
1.0
 10
20.80801300000003
 20
2.706040000000002
 30
0.0
 10
17.59354293212989
 20
3.419708669241643
 30
0.0
 10
14.33962843354057
 20
4.018147864471345
 30
0.0
 10
11.04844575970002
 20
4.219504144308999
 30
0.0
  0
SPLINE
  5
A3
330
1F
100
AcDbEntity
  8
DEFAULT
100
AcDbSpline
210
0.0
220
0.0
230
1.0
 70
    24
 71
     2
 72
     6
 73
     3
 74
     0
 42
0.0000000001
 43
0.0000000001
 40
0.0
 40
0.0
 40
0.0
 40
1.0
 40
1.0
 40
1.0
 10
1.840873000000016
 20
19.73399936806274
 30
0.0
 10
9.622129500000021
 20
19.73399936806274
 30
0.0
 10
17.40338600000003
 20
19.73399936806274
 30
0.0
  0
ARC
  5
A4
330
1F
100
AcDbEntity
  8
DEFAULT
100
AcDbCircle
 10
20.89292100000002
 20
1.441068000000001
 30
0.0
 40
0.015625
100
AcDbArc
 50
0.0
 51
90.0
  0
ARC
  5
A5
330
1F
100
AcDbEntity
  8
DEFAULT
100
AcDbCircle
 10
0.5026421514209005
 20
1.634804006800664
 30
0.0
 40
0.0599998623429707
100
AcDbArc
 50
182.5715586997538
 51
270.0041525966939
  0
SPLINE
  5
A6
330
1F
100
AcDbEntity
  8
DEFAULT
100
AcDbSpline
210
0.0
220
0.0
230
1.0
 70
    24
 71
     2
 72
     6
 73
     3
 74
     0
 42
0.0000000001
 43
0.0000000001
 40
0.0
 40
0.0
 40
0.0
 40
1.0
 40
1.0
 40
1.0
 10
0.5026464999999973
 20
1.574804144615271
 30
0.0
 10
0.9561067500000036
 20
1.574804072307636
 30
0.0
 10
1.40956700000001
 20
1.574804
 30
0.0
  0
SPLINE
  5
A7
330
1F
100
AcDbEntity
  8
DEFAULT
100
AcDbSpline
210
0.0
220
0.0
230
1.0
 70
     8
 71
     3
 72
     9
 73
     5
 74
     0
 42
0.0000000001
 43
0.0000000001
 40
0.0
 40
0.0
 40
0.0
 40
0.0
 40
1.0
 40
2.0
 40
2.0
 40
2.0
 40
2.0
 10
9.287618546020028
 20
4.289667635103001
 30
0.0
 10
9.250199732113671
 20
4.29273710935432
 30
0.0
 10
9.175074194259835
 20
4.293024460417243
 30
0.0
 10
9.100032272094367
 20
4.291477952912444
 30
0.0
 10
9.06253462652002
 20
4.289667635103001
 30
0.0
  0
SPLINE
  5
A8
330
1F
100
AcDbEntity
  8
DEFAULT
100
AcDbSpline
210
0.0
220
0.0
230
1.0
 70
    24
 71
     2
 72
     6
 73
     3
 74
     0
 42
0.0000000001
 43
0.0000000001
 40
0.0
 40
0.0
 40
0.0
 40
1.0
 40
1.0
 40
1.0
 10
20.77294400000001
 20
1.632709999999989
 30
0.0
 10
20.79167700000002
 20
2.169149499999989
 30
0.0
 10
20.81041000000003
 20
2.705588999999989
 30
0.0
  0
ARC
  5
A9
330
1F
100
AcDbEntity
  8
DEFAULT
100
AcDbCircle
 10
9.926920244167164
 20
1.877652713152287
 30
0.0
 40
0.0704776720462187
100
AcDbArc
 50
311.4208952918149
 51
336.7301367228027
  0
SPLINE
  5
AA
330
1F
100
AcDbEntity
  8
DEFAULT
100
AcDbSpline
210
0.0
220
0.0
230
1.0
 70
     8
 71
     3
 72
    14
 73
    10
 74
     0
 42
0.0000000001
 43
0.0000000001
 40
0.0
 40
0.0
 40
0.0
 40
0.0
 40
1.0
 40
2.0
 40
3.0
 40
4.0
 40
5.0
 40
6.0
 40
7.0
 40
7.0
 40
7.0
 40
7.0
 10
9.991664861020027
 20
1.849809637790003
 30
0.0
 10
10.00483915016112
 20
1.880444339296545
 30
0.0
 10
10.02047862113214
 20
1.945196222786706
 30
0.0
 10
10.04590213758193
 20
2.041594192016959
 30
0.0
 10
10.0709416813947
 20
2.138110943301072
 30
0.0
 10
10.09555279777238
 20
2.234882391560603
 30
0.0
 10
10.13141011102424
 20
2.327965604747689
 30
0.0
 10
10.18115428561156
 20
2.41568960462962
 30
0.0
 10
10.24339060025794
 20
2.451339779670235
 30
0.0
 10
10.27768700000003
 20
2.443497999999991
 30
0.0
  0
SPLINE
  5
AB
330
1F
100
AcDbEntity
  8
DEFAULT
100
AcDbSpline
210
0.0
220
0.0
230
1.0
 70
    24
 71
     2
 72
     6
 73
     3
 74
     0
 42
0.0000000001
 43
0.0000000001
 40
0.0
 40
0.0
 40
0.0
 40
1.0
 40
1.0
 40
1.0
 10
19.97388700000003
 20
1.279527999999999
 30
0.0
 10
19.97388700000003
 20
1.222747499999997
 30
0.0
 10
19.97388700000003
 20
1.165966999999995
 30
0.0
  0
SPLINE
  5
AC
330
1F
100
AcDbEntity
  8
DEFAULT
100
AcDbSpline
210
0.0
220
0.0
230
1.0
 70
    24
 71
     2
 72
     6
 73
     3
 74
     0
 42
0.0000000001
 43
0.0000000001
 40
0.0
 40
0.0
 40
0.0
 40
1.0
 40
1.0
 40
1.0
 10
0.5269550000000152
 20
1.279527999999999
 30
0.0
 10
0.5269550000000152
 20
1.222747499999997
 30
0.0
 10
0.5269550000000152
 20
1.165966999999995
 30
0.0
  0
SPLINE
  5
AD
330
1F
100
AcDbEntity
  8
DEFAULT
100
AcDbSpline
210
0.0
220
0.0
230
1.0
 70
     8
 71
     3
 72
    10
 73
     6
 74
     0
 42
0.0000000001
 43
0.0000000001
 40
0.0
 40
0.0
 40
0.0
 40
0.0
 40
0.3415628690301
 40
0.6759514705783
 40
1.0
 40
1.0
 40
1.0
 40
1.0
 10
9.231946930460012
 20
4.227643913922989
 30
0.0
 10
9.231749908950022
 20
4.238039358083995
 30
0.0
 10
9.236562157010027
 20
4.259064678979996
 30
0.0
 10
9.25752546163001
 20
4.282866337741993
 30
0.0
 10
9.27775835072002
 20
4.289386926784999
 30
0.0
 10
9.287618560670026
 20
4.289666319490991
 30
0.0
  0
SPLINE
  5
AE
330
1F
100
AcDbEntity
  8
DEFAULT
100
AcDbSpline
210
0.0
220
0.0
230
1.0
 70
    24
 71
     2
 72
     6
 73
     3
 74
     0
 42
0.0000000001
 43
0.0000000001
 40
0.0
 40
0.0
 40
0.0
 40
1.0
 40
1.0
 40
1.0
 10
1.210630000000009
 20
1.574804
 30
0.0
 10
1.210630000000009
 20
1.515748500000001
 30
0.0
 10
1.210630000000009
 20
1.456693000000001
 30
0.0
  0
SPLINE
  5
AF
330
1F
100
AcDbEntity
  8
DEFAULT
100
AcDbSpline
210
0.0
220
0.0
230
1.0
 70
     8
 71
     3
 72
     9
 73
     5
 74
     0
 42
0.0000000001
 43
0.0000000001
 40
0.0
 40
0.0
 40
0.0
 40
0.0
 40
1.0
 40
2.0
 40
2.0
 40
2.0
 40
2.0
 10
9.055127000000013
 20
3.920969999999997
 30
0.0
 10
7.783033344219348
 20
3.861311733474992
 30
0.0
 10
5.26510379491171
 20
3.469277630728996
 30
0.0
 10
2.780952411945833
 20
2.917788578833225
 30
0.0
 10
1.552171000000016
 20
2.587086999999997
 30
0.0
  0
ARC
  5
B0
330
1F
100
AcDbEntity
  8
DEFAULT
100
AcDbCircle
 10
0.4044039999999995
 20
1.441068000000001
 30
0.0
 40
0.015625
100
AcDbArc
 50
90.0
 51
180.0
  0
SPLINE
  5
B1
330
1F
100
AcDbEntity
  8
DEFAULT
100
AcDbSpline
210
0.0
220
0.0
230
1.0
 70
     8
 71
     3
 72
     9
 73
     5
 74
     0
 42
0.0000000001
 43
0.0000000001
 40
0.0
 40
0.0
 40
0.0
 40
0.0
 40
1.0
 40
2.0
 40
2.0
 40
2.0
 40
2.0
 10
12.38269700000002
 20
2.600594999999998
 30
0.0
 10
11.91151433088912
 20
2.907365886724548
 30
0.0
 10
10.924303101039
 20
3.440933014300441
 30
0.0
 10
9.87067947006419
 20
3.854815095616431
 30
0.0
 10
9.309802000000033
 20
3.921478999999991
 30
0.0
  0
SPLINE
  5
B2
330
1F
100
AcDbEntity
  8
DEFAULT
100
AcDbSpline
210
0.0
220
0.0
230
1.0
 70
    24
 71
     2
 72
     6
 73
     3
 74
     0
 42
0.0000000001
 43
0.0000000001
 40
0.0
 40
0.0
 40
0.0
 40
1.0
 40
1.0
 40
1.0
 10
0.6397640000000138
 20
1.574804
 30
0.0
 10
0.6397640000000138
 20
1.515748500000001
 30
0.0
 10
0.6397640000000138
 20
1.456693000000001
 30
0.0
  0
CIRCLE
  5
B3
330
1F
100
AcDbEntity
  8
DEFAULT
100
AcDbCircle
 10
0.0
 20
0.0
 30
0.0
 40
1.279528000000001
  0
ARC
  5
B4
330
1F
100
AcDbEntity
  8
DEFAULT
100
AcDbCircle
 10
20.75044900000002
 20
2.707682999999989
 30
0.0
 40
0.0599999500611571
100
AcDbArc
 50
357.9999561960891
 51
76.7746261113896
  0
SPLINE
  5
B5
330
1F
100
AcDbEntity
  8
DEFAULT
100
AcDbSpline
210
0.0
220
0.0
230
1.0
 70
     8
 71
     3
 72
     9
 73
     5
 74
     0
 42
0.0000000001
 43
0.0000000001
 40
0.0
 40
0.0
 40
0.0
 40
0.0
 40
1.0
 40
2.0
 40
2.0
 40
2.0
 40
2.0
 10
0.9580520872829936
 20
2.798339719737001
 30
0.0
 10
0.881609767996423
 20
2.775795252672452
 30
0.0
 10
0.7229785764086216
 20
2.764994933903381
 30
0.0
 10
0.5645482784811975
 20
2.765340678883916
 30
0.0
 10
0.485343540618004
 20
2.768676004816996
 30
0.0
  0
ARC
  5
B6
330
1F
100
AcDbEntity
  8
DEFAULT
100
AcDbCircle
 10
19.09334200000002
 20
1.198538999999997
 30
0.0
 40
0.7499999902752901
100
AcDbArc
 50
32.97175451880226
 51
83.77637330541374
  0
LINE
  5
B7
330
1F
100
AcDbEntity
  8
DEFAULT
100
AcDbLine
 10
10.889436
 20
1.793734000000001
 30
0.0
 11
8.335120140793563
 21
1.793733999999986
 31
0.0
  0
LINE
  5
B8
330
1F
100
AcDbEntity
  8
DEFAULT
100
AcDbLine
 10
8.335120140793563
 20
1.793733999999986
 30
0.0
 11
8.007867000000005
 21
1.722494999999995
 31
0.0
  0
SPLINE
  5
B9
330
1F
100
AcDbEntity
  8
DEFAULT
100
AcDbSpline
210
0.0
220
0.0
230
1.0
 70
    24
 71
     2
 72
     6
 73
     3
 74
     0
 42
0.0000000001
 43
0.0000000001
 40
1.0
 40
1.0
 40
1.0
 40
2.0
 40
2.0
 40
2.0
 10
8.007867000000005
 20
1.722494999999995
 30
0.0
 10
7.900486999999998
 20
1.697690999999992
 30
0.0
 10
7.793106999999992
 20
1.672886999999989
 30
0.0
  0
SPLINE
  5
BA
330
1F
100
AcDbEntity
  8
DEFAULT
100
AcDbSpline
210
0.0
220
0.0
230
1.0
 70
    24
 71
     2
 72
     6
 73
     3
 74
     0
 42
0.0000000001
 43
0.0000000001
 40
2.0
 40
2.0
 40
2.0
 40
3.0
 40
3.0
 40
3.0
 10
7.793106999999992
 20
1.672886999999989
 30
0.0
 10
7.679547499999998
 20
1.644906499999991
 30
0.0
 10
7.565988000000004
 20
1.616925999999992
 30
0.0
  0
SPLINE
  5
BB
330
1F
100
AcDbEntity
  8
DEFAULT
100
AcDbSpline
210
0.0
220
0.0
230
1.0
 70
    24
 71
     2
 72
     6
 73
     3
 74
     0
 42
0.0000000001
 43
0.0000000001
 40
3.0
 40
3.0
 40
3.0
 40
4.0
 40
4.0
 40
4.0
 10
7.565988000000004
 20
1.616925999999992
 30
0.0
 10
7.445869999999999
 20
1.586403999999995
 30
0.0
 10
7.325751999999994
 20
1.555881999999997
 30
0.0
  0
SPLINE
  5
BC
330
1F
100
AcDbEntity
  8
DEFAULT
100
AcDbSpline
210
0.0
220
0.0
230
1.0
 70
    24
 71
     2
 72
     6
 73
     3
 74
     0
 42
0.0000000001
 43
0.0000000001
 40
4.0
 40
4.0
 40
4.0
 40
5.0
 40
5.0
 40
5.0
 10
7.325751999999994
 20
1.555881999999997
 30
0.0
 10
7.198715499999992
 20
1.523238999999997
 30
0.0
 10
7.071678999999989
 20
1.490595999999996
 30
0.0
  0
SPLINE
  5
BD
330
1F
100
AcDbEntity
  8
DEFAULT
100
AcDbSpline
210
0.0
220
0.0
230
1.0
 70
    24
 71
     2
 72
     6
 73
     3
 74
     0
 42
0.0000000001
 43
0.0000000001
 40
5.0
 40
5.0
 40
5.0
 40
6.0
 40
6.0
 40
6.0
 10
7.071678999999989
 20
1.490595999999996
 30
0.0
 10
6.937472499999998
 20
1.456132999999994
 30
0.0
 10
6.803266000000008
 20
1.421669999999992
 30
0.0
  0
SPLINE
  5
BE
330
1F
100
AcDbEntity
  8
DEFAULT
100
AcDbSpline
210
0.0
220
0.0
230
1.0
 70
    24
 71
     2
 72
     6
 73
     3
 74
     0
 42
0.0000000001
 43
0.0000000001
 40
6.0
 40
6.0
 40
6.0
 40
7.0
 40
7.0
 40
7.0
 10
6.803266000000008
 20
1.421669999999992
 30
0.0
 10
6.661699499999997
 20
1.38560249999999
 30
0.0
 10
6.520132999999987
 20
1.349534999999989
 30
0.0
  0
SPLINE
  5
BF
330
1F
100
AcDbEntity
  8
DEFAULT
100
AcDbSpline
210
0.0
220
0.0
230
1.0
 70
    24
 71
     2
 72
     6
 73
     3
 74
     0
 42
0.0000000001
 43
0.0000000001
 40
7.0
 40
7.0
 40
7.0
 40
8.0
 40
8.0
 40
8.0
 10
6.520132999999987
 20
1.349534999999989
 30
0.0
 10
6.381374999999991
 20
1.314604999999993
 30
0.0
 10
6.242616999999996
 20
1.279674999999997
 30
0.0
  0
LINE
  5
C0
330
1F
100
AcDbEntity
  8
DEFAULT
100
AcDbLine
 10
6.242616999999996
 20
1.279674999999997
 30
0.0
 11
5.782046107414828
 21
1.163733999999991
 31
0.0
  0
ARC
  5
C1
330
1F
100
AcDbEntity
  8
DEFAULT
100
AcDbCircle
 10
4.749004526649458
 20
-65.37724701432583
 30
0.0
 40
70.00000232123381
100
AcDbArc
 50
76.77588180357931
 51
83.00237981337082
  0
ARC
  5
C2
330
1F
100
AcDbEntity
  8
DEFAULT
100
AcDbCircle
 10
9.622130100421415
 20
-25.67519294001684
 30
0.0
 40
29.99999668902039
100
AcDbArc
 50
83.00238018814096
 51
88.1203612938394
  0
CIRCLE
  5
C3
330
1F
100
AcDbEntity
  8
DEFAULT
100
AcDbCircle
 10
12.01886500000002
 20
0.0
 30
0.0
 40
1.0
  0
SPLINE
  5
C4
330
1F
100
AcDbEntity
  8
DEFAULT
100
AcDbSpline
210
0.0
220
0.0
230
1.0
 70
    24
 71
     2
 72
     6
 73
     3
 74
     0
 42
0.0000000001
 43
0.0000000001
 40
0.0
 40
0.0
 40
0.0
 40
1.0
 40
1.0
 40
1.0
 10
13.29839300000002
 20
0.3149609999999967
 30
0.0
 10
13.29839300000002
 20
0.1574804999999984
 30
0.0
 10
13.29839300000002
 20
0.0
 30
0.0
  0
ARC
  5
C5
330
1F
100
AcDbEntity
  8
DEFAULT
100
AcDbCircle
 10
13.46485400000002
 20
1.441068000000001
 30
0.0
 40
0.015625
100
AcDbArc
 50
0.0
 51
90.0
  0
SPLINE
  5
C6
330
1F
100
AcDbEntity
  8
DEFAULT
100
AcDbSpline
210
0.0
220
0.0
230
1.0
 70
     8
 71
     3
 72
     8
 73
     4
 74
     0
 42
0.0000000001
 43
0.0000000001
 40
0.0
 40
0.0
 40
0.0
 40
0.0
 40
1.0
 40
1.0
 40
1.0
 40
1.0
 10
11.87121577336002
 20
3.861587137371998
 30
0.0
 10
14.56744358627169
 20
3.621108403511144
 30
0.0
 10
17.24211037478106
 20
3.167885469616422
 30
0.0
 10
19.88490646846002
 20
2.586168322741003
 30
0.0
  0
ARC
  5
C7
330
1F
100
AcDbEntity
  8
DEFAULT
100
AcDbCircle
 10
12.01886500000002
 20
0.0
 30
0.0
 40
1.279527939310224
100
AcDbArc
 50
15.7620695672927
 51
18.57560333516714
  0
SPLINE
  5
C8
330
1F
100
AcDbEntity
  8
DEFAULT
100
AcDbSpline
210
0.0
220
0.0
230
1.0
 70
     8
 71
     3
 72
     9
 73
     5
 74
     0
 42
0.0000000001
 43
0.0000000001
 40
0.0
 40
0.0
 40
0.0
 40
0.0
 40
1.0
 40
2.0
 40
2.0
 40
2.0
 40
2.0
 10
9.05512400000002
 20
3.920968999999999
 30
0.0
 10
9.097549390875614
 20
3.922976362295472
 30
0.0
 10
9.182452552475652
 20
3.924811059239104
 30
0.0
 10
9.267439738416172
 20
3.924591205705553
 30
0.0
 10
9.309802000000033
 20
3.921478999999991
 30
0.0
  0
ARC
  5
C9
330
1F
100
AcDbEntity
  8
DEFAULT
100
AcDbCircle
 10
11.71230777049986
 20
1.695055056010403
 30
0.0
 40
0.7499957291095208
100
AcDbArc
 50
126.1124709469616
 51
140.0000944329648
  0
SPLINE
  5
CA
330
1F
100
AcDbEntity
  8
DEFAULT
100
AcDbSpline
210
0.0
220
0.0
230
1.0
 70
    24
 71
     2
 72
     6
 73
     3
 74
     0
 42
0.0000000001
 43
0.0000000001
 40
-1.0
 40
-1.0
 40
-1.0
 40
0.0
 40
0.0
 40
0.0
 10
11.13777691529226
 20
2.17714207107818
 30
0.0
 10
11.00044445764614
 20
2.013476035539085
 30
0.0
 10
10.86311200000002
 20
1.849809999999991
 30
0.0
  0
SPLINE
  5
CB
330
1F
100
AcDbEntity
  8
DEFAULT
100
AcDbSpline
210
0.0
220
0.0
230
1.0
 70
     8
 71
     5
 72
    12
 73
     6
 74
     0
 42
0.0000000001
 43
0.0000000001
 40
0.0
 40
0.0
 40
0.0
 40
0.0
 40
0.0
 40
0.0
 40
1.0
 40
1.0
 40
1.0
 40
1.0
 40
1.0
 40
1.0
 10
10.86311200000002
 20
1.849809999999991
 30
0.0
 10
10.85550551895979
 20
1.840744971836983
 30
0.0
 10
10.84789903791956
 20
1.831679943673976
 30
0.0
 10
10.83315513243399
 20
1.824804023785589
 30
0.0
 10
10.82132156621701
 20
1.82480402365708
 30
0.0
 10
10.80948800000003
 20
1.824804023528571
 30
0.0
  0
POLYLINE
  5
CC
330
1F
100
AcDbEntity
  8
DEFAULT
100
AcDb2dPolyline
 66
     1
 10
0.0
 20
0.0
 30
0.0
  0
VERTEX
  5
CE
330
CC
100
AcDbEntity
  8
DEFAULT
100
AcDbVertex
100
AcDb2dVertex
 10
10.80948800000003
 20
1.824804023528571
 30
0.0
  0
VERTEX
  5
CF
330
CC
100
AcDbEntity
  8
DEFAULT
100
AcDbVertex
100
AcDb2dVertex
 10
8.642810317854483
 20
1.824804
 30
0.0
  0
SEQEND
  5
CD
330
CC
100
AcDbEntity
  8
DEFAULT
  0
SPLINE
  5
D0
330
1F
100
AcDbEntity
  8
DEFAULT
100
AcDbSpline
210
0.0
220
0.0
230
1.0
 70
     8
 71
     5
 72
    12
 73
     6
 74
     0
 42
0.0000000001
 43
0.0000000001
 40
-1.0
 40
-1.0
 40
-1.0
 40
-1.0
 40
-1.0
 40
-1.0
 40
0.0
 40
0.0
 40
0.0
 40
0.0
 40
0.0
 40
0.0
 10
8.642810317854483
 20
1.824804
 30
0.0
 10
8.63298193468593
 20
1.824803999893263
 30
0.0
 10
8.623153551517348
 20
1.824803999786539
 30
0.0
 10
8.61252590497601
 20
1.834292244106521
 30
0.0
 10
8.606488366428735
 20
1.842048500978152
 30
0.0
 10
8.600546000000023
 20
1.849876999999992
 30
0.0
  0
SPLINE
  5
D1
330
1F
100
AcDbEntity
  8
DEFAULT
100
AcDbSpline
210
0.0
220
0.0
230
1.0
 70
     8
 71
     3
 72
     9
 73
     5
 74
     0
 42
0.0000000001
 43
0.0000000001
 40
-2.0
 40
-2.0
 40
-2.0
 40
-2.0
 40
-1.0
 40
0.0
 40
0.0
 40
0.0
 40
0.0
 10
8.600546000000023
 20
1.849876999999992
 30
0.0
 10
8.504169424748241
 20
1.976843913625686
 30
0.0
 10
8.370532700381276
 20
2.277656347947797
 30
0.0
 10
8.07322829486202
 20
2.449455917370571
 30
0.0
 10
7.909675637060019
 20
2.444418629514999
 30
0.0
  0
LINE
  5
D2
330
1F
100
AcDbEntity
  8
DEFAULT
100
AcDbLine
 10
10.60935803335876
 20
4.308661999999998
 30
0.0
 11
8.638130000000032
 21
4.308661999999998
 31
0.0
  0
SPLINE
  5
D3
330
1F
100
AcDbEntity
  8
DEFAULT
100
AcDbSpline
210
0.0
220
0.0
230
1.0
 70
    24
 71
     2
 72
     6
 73
     3
 74
     0
 42
0.0000000001
 43
0.0000000001
 40
0.0
 40
0.0
 40
0.0
 40
1.0
 40
1.0
 40
1.0
 10
12.42326900000002
 20
1.456693000000001
 30
0.0
 10
12.94406150000002
 20
1.456693000000001
 30
0.0
 10
13.46485400000002
 20
1.456693000000001
 30
0.0
  0
SPLINE
  5
D4
330
1F
100
AcDbEntity
  8
DEFAULT
100
AcDbSpline
210
0.0
220
0.0
230
1.0
 70
    24
 71
     2
 72
     6
 73
     3
 74
     0
 42
0.0000000001
 43
0.0000000001
 40
0.0
 40
0.0
 40
0.0
 40
1.0
 40
1.0
 40
1.0
 10
1.279527999999999
 20
0.3149609999999967
 30
0.0
 10
1.279527999999999
 20
0.1574804999999984
 30
0.0
 10
1.279527999999999
 20
0.0
 30
0.0
  0
SPLINE
  5
D5
330
1F
100
AcDbEntity
  8
DEFAULT
100
AcDbSpline
210
0.0
220
0.0
230
1.0
 70
    24
 71
     2
 72
     6
 73
     3
 74
     0
 42
0.0000000001
 43
0.0000000001
 40
0.0
 40
0.0
 40
0.0
 40
1.0
 40
1.0
 40
1.0
 10
1.461613999999997
 20
1.441068000000001
 30
0.0
 10
1.461613999999997
 20
0.9929814999999991
 30
0.0
 10
1.461613999999997
 20
0.5448949999999968
 30
0.0
  0
CIRCLE
  5
D6
330
1F
100
AcDbEntity
  8
DEFAULT
100
AcDbCircle
 10
46.27871573909543
 20
0.0
 30
0.0
 40
1.279528000000001
  0
SPLINE
  5
D7
330
1F
100
AcDbEntity
  8
DEFAULT
100
AcDbSpline
210
0.0
220
0.0
230
1.0
 70
     8
 71
     3
 72
    10
 73
     6
 74
     0
 42
0.0000000001
 43
0.0000000001
 40
0.0
 40
0.0
 40
0.0
 40
0.0
 40
0.3098884097075
 40
0.6612939512471
 40
1.0
 40
1.0
 40
1.0
 40
1.0
 10
39.27654697516543
 20
1.982489443939997
 30
0.0
 10
39.05942170073543
 20
2.056479691899995
 30
0.0
 10
38.59042545702543
 20
2.198341545609992
 30
0.0
 10
37.86655661075544
 20
2.356504488399992
 30
0.0
 10
37.35925375040544
 20
2.422190602779992
 30
0.0
 10
37.10947084632544
 20
2.443498356585991
 30
0.0
  0
SPLINE
  5
D8
330
1F
100
AcDbEntity
  8
DEFAULT
100
AcDbSpline
210
0.0
220
0.0
230
1.0
 70
     8
 71
     3
 72
    10
 73
     6
 74
     0
 42
0.0000000001
 43
0.0000000001
 40
0.0
 40
0.0
 40
0.0
 40
0.0
 40
0.3334081987195
 40
0.6667405702355
 40
1.0
 40
1.0
 40
1.0
 40
1.0
 10
46.88644270622542
 20
1.632709662339991
 30
0.0
 10
46.88679596223544
 20
1.622588450259997
 30
0.0
 10
46.89287956321543
 20
1.60216301138
 30
0.0
 10
46.91563116549544
 20
1.580177131319999
 30
0.0
 10
46.93625200007544
 20
1.574803632149994
 30
0.0
 10
46.94637485614543
 20
1.574803632149994
 30
0.0
  0
SPLINE
  5
D9
330
1F
100
AcDbEntity
  8
DEFAULT
100
AcDbSpline
210
0.0
220
0.0
230
1.0
 70
    24
 71
     2
 72
     6
 73
     3
 74
     0
 42
0.0000000001
 43
0.0000000001
 40
0.0
 40
0.0
 40
0.0
 40
1.0
 40
1.0
 40
1.0
 10
46.68311973909543
 20
1.456693000000001
 30
0.0
 10
47.20391223909543
 20
1.456693000000001
 30
0.0
 10
47.72470473909543
 20
1.456693000000001
 30
0.0
  0
SPLINE
  5
DA
330
1F
100
AcDbEntity
  8
DEFAULT
100
AcDbSpline
210
0.0
220
0.0
230
1.0
 70
    24
 71
     2
 72
     6
 73
     3
 74
     0
 42
0.0000000001
 43
0.0000000001
 40
0.0
 40
0.0
 40
0.0
 40
1.0
 40
1.0
 40
1.0
 10
47.55824373909543
 20
0.3149609999999967
 30
0.0
 10
47.55824373909543
 20
0.1574804999999984
 30
0.0
 10
47.55824373909543
 20
0.0
 30
0.0
  0
CIRCLE
  5
DB
330
1F
100
AcDbEntity
  8
DEFAULT
100
AcDbCircle
 10
46.27871573909543
 20
0.0
 30
0.0
 40
1.0625
  0
SPLINE
  5
DC
330
1F
100
AcDbEntity
  8
DEFAULT
100
AcDbSpline
210
0.0
220
0.0
230
1.0
 70
     8
 71
     3
 72
    10
 73
     6
 74
     0
 42
0.0000000001
 43
0.0000000001
 40
0.0
 40
0.0
 40
0.0
 40
0.0
 40
0.4240323129197
 40
0.7689249100014
 40
1.0
 40
1.0
 40
1.0
 40
1.0
 10
35.93280489705545
 20
4.007722273358993
 30
0.0
 10
35.93301376182542
 20
3.992828443516999
 30
0.0
 10
35.92953816824543
 20
3.965724690269994
 30
0.0
 10
35.91473102101544
 20
3.932656798194003
 30
0.0
 10
35.89499927961545
 20
3.921511910836003
 30
0.0
 10
35.88690916773542
 20
3.920991993606989
 30
0.0
  0
SPLINE
  5
DD
330
1F
100
AcDbEntity
  8
DEFAULT
100
AcDbSpline
210
0.0
220
0.0
230
1.0
 70
    24
 71
     2
 72
     6
 73
     3
 74
     0
 42
0.0000000001
 43
0.0000000001
 40
0.0
 40
0.0
 40
0.0
 40
1.0
 40
1.0
 40
1.0
 10
46.91847973909545
 20
1.574804
 30
0.0
 10
46.91847973909545
 20
1.515748500000001
 30
0.0
 10
46.91847973909545
 20
1.456693000000001
 30
0.0
  0
SPLINE
  5
DE
330
1F
100
AcDbEntity
  8
DEFAULT
100
AcDbSpline
210
0.0
220
0.0
230
1.0
 70
     8
 71
     3
 72
     9
 73
     5
 74
     0
 42
0.0000000001
 43
0.0000000001
 40
0.0
 40
0.0
 40
0.0
 40
0.0
 40
1.000000115485941
 40
2.0
 40
2.0
 40
2.0
 40
2.0
 10
39.21384173909543
 20
2.60146499999999
 30
0.0
 10
39.23089319998694
 20
2.574127984616013
 30
0.0
 10
39.2476418798159
 20
2.511463308169638
 30
0.0
 10
39.25513095936979
 20
2.44789504975401
 30
0.0
 10
39.25655823909544
 20
2.415829000000002
 30
0.0
  0
SPLINE
  5
DF
330
1F
100
AcDbEntity
  8
DEFAULT
100
AcDbSpline
210
0.0
220
0.0
230
1.0
 70
    24
 71
     2
 72
     6
 73
     3
 74
     0
 42
0.0000000001
 43
0.0000000001
 40
0.0
 40
0.0
 40
0.0
 40
1.0
 40
1.0
 40
1.0
 10
39.25655823909544
 20
2.415829000000002
 30
0.0
 10
39.27434444980661
 20
2.023956498217061
 30
0.0
 10
39.29213066051777
 20
1.632083996434119
 30
0.0
  0
ARC
  5
E0
330
1F
100
AcDbEntity
  8
DEFAULT
100
AcDbCircle
 10
39.35206882146251
 20
1.63480392134403
 30
0.0
 40
0.0599998427410689
100
AcDbArc
 50
182.598234190645
 51
269.9975340146277
  0
SPLINE
  5
E1
330
1F
100
AcDbEntity
  8
DEFAULT
100
AcDbSpline
210
0.0
220
0.0
230
1.0
 70
    24
 71
     2
 72
     6
 73
     3
 74
     0
 42
0.0000000001
 43
0.0000000001
 40
0.0
 40
0.0
 40
0.0
 40
1.0
 40
1.0
 40
1.0
 10
39.35206623909544
 20
1.574804078658531
 30
0.0
 10
39.76762198909543
 20
1.574804088336712
 30
0.0
 10
40.18317773909543
 20
1.574804098014894
 30
0.0
  0
ARC
  5
E2
330
1F
100
AcDbEntity
  8
DEFAULT
100
AcDbCircle
 10
40.18317763688653
 20
1.634804423377844
 30
0.0
 40
0.0600003253630366
100
AcDbArc
 50
270.0000976017883
 51
357.6001198212138
  0
SPLINE
  5
E3
330
1F
100
AcDbEntity
  8
DEFAULT
100
AcDbSpline
210
0.0
220
0.0
230
1.0
 70
    24
 71
     2
 72
     6
 73
     3
 74
     0
 42
0.0000000001
 43
0.0000000001
 40
0.0
 40
0.0
 40
0.0
 40
1.0
 40
1.0
 40
1.0
 10
40.24312533702441
 20
1.632291995896409
 30
0.0
 10
40.26605603805992
 20
2.180653997948205
 30
0.0
 10
40.28898673909542
 20
2.729016000000001
 30
0.0
  0
SPLINE
  5
E4
330
1F
100
AcDbEntity
  8
DEFAULT
100
AcDbSpline
210
0.0
220
0.0
230
1.0
 70
     8
 71
     3
 72
     9
 73
     5
 74
     0
 42
0.0000000001
 43
0.0000000001
 40
0.0
 40
0.0
 40
0.0
 40
0.0
 40
0.9999377902530446
 40
2.0
 40
2.0
 40
2.0
 40
2.0
 10
40.28898673909542
 20
2.729016000000001
 30
0.0
 10
40.28918266417928
 20
2.739728213790485
 30
0.0
 10
40.2848505337365
 20
2.761353775542503
 30
0.0
 10
40.27118456028522
 20
2.778628490951661
 30
0.0
 10
40.26303473909543
 20
2.785572999999999
 30
0.0
  0
SPLINE
  5
E5
330
1F
100
AcDbEntity
  8
DEFAULT
100
AcDbSpline
210
0.0
220
0.0
230
1.0
 70
    24
 71
     2
 72
     6
 73
     3
 74
     0
 42
0.0000000001
 43
0.0000000001
 40
0.0
 40
0.0
 40
0.0
 40
1.0
 40
1.0
 40
1.0
 10
46.66749473909543
 20
1.441068000000001
 30
0.0
 10
46.66749473909543
 20
1.360298
 30
0.0
 10
46.66749473909543
 20
1.279527999999999
 30
0.0
  0
CIRCLE
  5
E6
330
1F
100
AcDbEntity
  8
DEFAULT
100
AcDbCircle
 10
26.83178373909543
 20
0.0
 30
0.0
 40
1.0
  0
SPLINE
  5
E7
330
1F
100
AcDbEntity
  8
DEFAULT
100
AcDbSpline
210
0.0
220
0.0
230
1.0
 70
     8
 71
     3
 72
    11
 73
     7
 74
     0
 42
0.0000000001
 43
0.0000000001
 40
0.0
 40
0.0
 40
0.0
 40
0.0
 40
1.0
 40
2.0
 40
3.0
 40
4.0
 40
4.0
 40
4.0
 40
4.0
 10
39.47560423309544
 20
2.798339706023
 30
0.0
 10
39.2200140884468
 20
2.970974997370789
 30
0.0
 10
38.69708770885036
 20
3.299194294987373
 30
0.0
 10
37.87596554358863
 20
3.727251635542771
 30
0.0
 10
37.0230417102663
 20
4.088726584775003
 30
0.0
 10
36.42690171046767
 20
4.256366617407082
 30
0.0
 10
36.11940228511544
 20
4.289667635103001
 30
0.0
  0
SPLINE
  5
E8
330
1F
100
AcDbEntity
  8
DEFAULT
100
AcDbSpline
210
0.0
220
0.0
230
1.0
 70
     8
 71
     3
 72
     9
 73
     5
 74
     0
 42
0.0000000001
 43
0.0000000001
 40
0.0
 40
0.0
 40
0.0
 40
0.0
 40
1.0
 40
2.0
 40
2.0
 40
2.0
 40
2.0
 10
40.22879194795543
 20
2.798339705936996
 30
0.0
 10
40.24035405085282
 20
2.789806686439277
 30
0.0
 10
40.21840904474679
 20
2.774210389125884
 30
0.0
 10
40.20070931658519
 20
2.77293623354646
 30
0.0
 10
40.19056411202543
 20
2.772304271371993
 30
0.0
  0
SPLINE
  5
E9
330
1F
100
AcDbEntity
  8
DEFAULT
100
AcDbSpline
210
0.0
220
0.0
230
1.0
 70
     8
 71
     3
 72
     9
 73
     5
 74
     0
 42
0.0000000001
 43
0.0000000001
 40
0.0
 40
0.0
 40
0.0
 40
0.0
 40
1.0
 40
2.0
 40
2.0
 40
2.0
 40
2.0
 10
40.19056411202543
 20
2.772304271371993
 30
0.0
 10
40.07065700050451
 20
2.764835051950755
 30
0.0
 10
39.83236175392581
 20
2.771281816186629
 30
0.0
 10
39.58924098663836
 20
2.757915190050738
 30
0.0
 10
39.47560423309544
 20
2.798339706023
 30
0.0
  0
SPLINE
  5
EA
330
1F
100
AcDbEntity
  8
DEFAULT
100
AcDbSpline
210
0.0
220
0.0
230
1.0
 70
    24
 71
     2
 72
     6
 73
     3
 74
     0
 42
0.0000000001
 43
0.0000000001
 40
0.0
 40
0.0
 40
0.0
 40
1.0
 40
1.0
 40
1.0
 10
10.59712900000001
 20
10.941734
 30
0.0
 10
9.622129000000015
 20
10.941734
 30
0.0
 10
8.647129000000021
 20
10.941734
 30
0.0
  0
SPLINE
  5
EB
330
1F
100
AcDbEntity
  8
DEFAULT
100
AcDbSpline
210
0.0
220
0.0
230
1.0
 70
    24
 71
     2
 72
     6
 73
     3
 74
     0
 42
0.0000000001
 43
0.0000000001
 40
0.0
 40
0.0
 40
0.0
 40
1.0
 40
1.0
 40
1.0
 10
10.697129
 20
10.84173399999999
 30
0.0
 10
10.697129
 20
10.504234
 30
0.0
 10
10.697129
 20
10.16673400000001
 30
0.0
  0
SPLINE
  5
EC
330
1F
100
AcDbEntity
  8
DEFAULT
100
AcDbSpline
210
0.0
220
0.0
230
1.0
 70
    24
 71
     2
 72
     6
 73
     3
 74
     0
 42
0.0000000001
 43
0.0000000001
 40
0.0
 40
0.0
 40
0.0
 40
1.0
 40
1.0
 40
1.0
 10
13.22949500000003
 20
1.574804
 30
0.0
 10
13.22949500000003
 20
1.515748500000001
 30
0.0
 10
13.22949500000003
 20
1.456693000000001
 30
0.0
  0
CIRCLE
  5
ED
330
1F
100
AcDbEntity
  8
DEFAULT
100
AcDbCircle
 10
0.0
 20
0.0
 30
0.0
 40
1.0625
  0
ARC
  5
EE
330
1F
100
AcDbEntity
  8
DEFAULT
100
AcDbCircle
 10
1.339207000000016
 20
1.63480398705731
 30
0.0
 40
0.0599999624739702
100
AcDbArc
 50
270.0
 51
357.1168156066992
  0
SPLINE
  5
EF
330
1F
100
AcDbEntity
  8
DEFAULT
100
AcDbSpline
210
0.0
220
0.0
230
1.0
 70
    24
 71
     2
 72
     6
 73
     3
 74
     0
 42
0.0000000001
 43
0.0000000001
 40
0.0
 40
0.0
 40
0.0
 40
1.0
 40
1.0
 40
1.0
 10
1.399131012276115
 20
1.631785999381719
 30
0.0
 10
1.418876006138063
 20
2.023581499690856
 30
0.0
 10
1.438621000000012
 20
2.415376999999992
 30
0.0
  0
SPLINE
  5
F0
330
1F
100
AcDbEntity
  8
DEFAULT
100
AcDbSpline
210
0.0
220
0.0
230
1.0
 70
     8
 71
     3
 72
     9
 73
     5
 74
     0
 42
0.0000000001
 43
0.0000000001
 40
0.0
 40
0.0
 40
0.0
 40
0.0
 40
1.0
 40
2.0
 40
2.0
 40
2.0
 40
2.0
 10
1.438621000000012
 20
2.415376999999992
 30
0.0
 10
1.440952587809221
 20
2.451708179137867
 30
0.0
 10
1.46033040448296
 20
2.524269628192812
 30
0.0
 10
1.516642745364237
 20
2.576963854766205
 30
0.0
 10
1.552244999999999
 20
2.587097999999997
 30
0.0
  0
SPLINE
  5
F1
330
1F
100
AcDbEntity
  8
DEFAULT
100
AcDbSpline
210
0.0
220
0.0
230
1.0
 70
    24
 71
     2
 72
     6
 73
     3
 74
     0
 42
0.0000000001
 43
0.0000000001
 40
0.0
 40
0.0
 40
0.0
 40
1.0
 40
1.0
 40
1.0
 10
0.3887789999999995
 20
1.441068000000001
 30
0.0
 10
0.3887789999999995
 20
1.360298
 30
0.0
 10
0.3887789999999995
 20
1.279527999999999
 30
0.0
  0
SPLINE
  5
F2
330
1F
100
AcDbEntity
  8
DEFAULT
100
AcDbSpline
210
0.0
220
0.0
230
1.0
 70
    24
 71
     2
 72
     6
 73
     3
 74
     0
 42
0.0000000001
 43
0.0000000001
 40
0.0
 40
0.0
 40
0.0
 40
1.0
 40
1.0
 40
1.0
 10
20.02632100000001
 20
2.41677
 30
0.0
 10
20.04049000000002
 20
2.024739999999994
 30
0.0
 10
20.05465900000003
 20
1.632709999999989
 30
0.0
  0
SPLINE
  5
F3
330
1F
100
AcDbEntity
  8
DEFAULT
100
AcDbSpline
210
0.0
220
0.0
230
1.0
 70
     8
 71
     3
 72
    10
 73
     6
 74
     0
 42
0.0000000001
 43
0.0000000001
 40
0.0
 40
0.0
 40
0.0
 40
0.0
 40
0.4051007004553
 40
0.7475947607501
 40
1.0
 40
1.0
 40
1.0
 40
1.0
 10
9.097167364200018
 20
4.227643939370992
 30
0.0
 10
9.097023208360028
 20
4.237904861774993
 30
0.0
 10
9.093972478590032
 20
4.25689137114999
 30
0.0
 10
9.083018186680007
 20
4.280221349089999
 30
0.0
 10
9.068921250620022
 20
4.289363065583998
 30
0.0
 10
9.062534626530024
 20
4.289667634490996
 30
0.0
  0
SPLINE
  5
F4
330
1F
100
AcDbEntity
  8
DEFAULT
100
AcDbSpline
210
0.0
220
0.0
230
1.0
 70
     8
 71
     3
 72
     8
 73
     4
 74
     0
 42
0.0000000001
 43
0.0000000001
 40
0.0
 40
0.0
 40
0.0
 40
0.0
 40
1.0
 40
1.0
 40
1.0
 40
1.0
 10
12.65866368681002
 20
1.575258484239995
 30
0.0
 10
12.66092970494002
 20
1.574957836099998
 30
0.0
 10
12.66320671207002
 20
1.574803805160002
 30
0.0
 10
12.66547361377003
 20
1.574803632299989
 30
0.0
  0
SPLINE
  5
F5
330
1F
100
AcDbEntity
  8
DEFAULT
100
AcDbSpline
210
0.0
220
0.0
230
1.0
 70
     8
 71
     3
 72
    10
 73
     6
 74
     0
 42
0.0000000001
 43
0.0000000001
 40
0.0
 40
0.0
 40
0.0
 40
0.0
 40
0.3745727208191
 40
0.7379583218834
 40
1.0
 40
1.0
 40
1.0
 40
1.0
 10
9.235800200390017
 20
4.007722273420001
 30
0.0
 10
9.236090181010027
 20
3.99243018450899
 30
0.0
 10
9.244161187500012
 20
3.961870459536996
 30
0.0
 10
9.27379610712002
 20
3.931178062312
 30
0.0
 10
9.299057040980031
 20
3.922819848800998
 30
0.0
 10
9.309783052810033
 20
3.921513614136003
 30
0.0
  0
SPLINE
  5
F6
330
1F
100
AcDbEntity
  8
DEFAULT
100
AcDbSpline
210
0.0
220
0.0
230
1.0
 70
    24
 71
     2
 72
     6
 73
     3
 74
     0
 42
0.0000000001
 43
0.0000000001
 40
0.0
 40
0.0
 40
0.0
 40
1.0
 40
1.0
 40
1.0
 10
15.05941900000001
 20
0.797506999999996
 30
0.0
 10
15.020802
 20
0.7306204999999935
 30
0.0
 10
14.982185
 20
0.6637339999999909
 30
0.0
  0
SPLINE
  5
F7
330
1F
100
AcDbEntity
  8
DEFAULT
100
AcDbSpline
210
0.0
220
0.0
230
1.0
 70
    24
 71
     2
 72
     6
 73
     3
 74
     0
 42
0.0000000001
 43
0.0000000001
 40
0.0
 40
0.0
 40
0.0
 40
1.0
 40
1.0
 40
1.0
 10
20.08669600000003
 20
1.574804
 30
0.0
 10
20.08669600000003
 20
1.515748500000001
 30
0.0
 10
20.08669600000003
 20
1.456693000000001
 30
0.0
  0
SPLINE
  5
F8
330
1F
100
AcDbEntity
  8
DEFAULT
100
AcDbSpline
210
0.0
220
0.0
230
1.0
 70
    24
 71
     2
 72
     6
 73
     3
 74
     0
 42
0.0000000001
 43
0.0000000001
 40
0.0
 40
0.0
 40
0.0
 40
1.0
 40
1.0
 40
1.0
 10
12.40764400000002
 20
1.441068000000001
 30
0.0
 10
12.40764400000002
 20
1.360298
 30
0.0
 10
12.40764400000002
 20
1.279527999999999
 30
0.0
  0
ARC
  5
F9
330
1F
100
AcDbEntity
  8
DEFAULT
100
AcDbCircle
 10
19.78127200000002
 20
1.644803999999993
 30
0.0
 40
0.0700001724710036
100
AcDbArc
 50
212.971779499647
 51
270.0
  0
ARC
  5
FA
330
1F
100
AcDbEntity
  8
DEFAULT
100
AcDbCircle
 10
47.54476673909544
 20
1.634804000000003
 30
0.0
 40
0.0600002755487352
100
AcDbArc
 50
270.0
 51
357.9999895230753
  0
SPLINE
  5
FB
330
1F
100
AcDbEntity
  8
DEFAULT
100
AcDbSpline
210
0.0
220
0.0
230
1.0
 70
    24
 71
     2
 72
     6
 73
     3
 74
     0
 42
0.0000000001
 43
0.0000000001
 40
0.0
 40
0.0
 40
0.0
 40
1.0
 40
1.0
 40
1.0
 10
19.72239400000002
 20
1.606985999999992
 30
0.0
 10
19.72247050000003
 20
1.606846999999995
 30
0.0
 10
19.72254700000003
 20
1.606707999999998
 30
0.0
  0
SPLINE
  5
FC
330
1F
100
AcDbEntity
  8
DEFAULT
100
AcDbSpline
210
0.0
220
0.0
230
1.0
 70
     8
 71
     3
 72
    10
 73
     6
 74
     0
 42
0.0000000001
 43
0.0000000001
 40
0.0
 40
0.0
 40
0.0
 40
0.0
 40
0.4240323129197
 40
0.7689249100014
 40
1.0
 40
1.0
 40
1.0
 40
1.0
 10
9.101021157960034
 20
4.007722273358993
 30
0.0
 10
9.101230022730007
 20
3.992828443516999
 30
0.0
 10
9.097754429150015
 20
3.965724690269994
 30
0.0
 10
9.082947281920028
 20
3.932656798194003
 30
0.0
 10
9.063215540520034
 20
3.921511910836003
 30
0.0
 10
9.055125428640011
 20
3.920991993606989
 30
0.0
  0
SPLINE
  5
FD
330
1F
100
AcDbEntity
  8
DEFAULT
100
AcDbSpline
210
0.0
220
0.0
230
1.0
 70
    24
 71
     2
 72
     6
 73
     3
 74
     0
 42
0.0000000001
 43
0.0000000001
 40
0.0
 40
0.0
 40
0.0
 40
1.0
 40
1.0
 40
1.0
 10
19.85133600000002
 20
1.456693000000001
 30
0.0
 10
20.37212850000002
 20
1.456693000000001
 30
0.0
 10
20.89292100000002
 20
1.456693000000001
 30
0.0
  0
SPLINE
  5
FE
330
1F
100
AcDbEntity
  8
DEFAULT
100
AcDbSpline
210
0.0
220
0.0
230
1.0
 70
     8
 71
     3
 72
    11
 73
     7
 74
     0
 42
0.0000000001
 43
0.0000000001
 40
0.0
 40
0.0
 40
0.0
 40
0.0
 40
0.2489561854195
 40
0.4983553878348
 40
0.7485815498319
 40
1.0
 40
1.0
 40
1.0
 40
1.0
 10
19.88490653060002
 20
2.58616831510399
 30
0.0
 10
19.90405338346001
 20
2.581919862759989
 30
0.0
 10
19.94125757042003
 20
2.566992837329991
 30
0.0
 10
19.98679734757003
 20
2.527931543175001
 30
0.0
 10
20.01747138871004
 20
2.476119547018996
 30
0.0
 10
20.02558994765003
 20
2.436563151535992
 30
0.0
 10
20.02632094552003
 20
2.416770141019995
 30
0.0
  0
CIRCLE
  5
FF
330
1F
100
AcDbEntity
  8
DEFAULT
100
AcDbCircle
 10
19.44693200000002
 20
0.0
 30
0.0
 40
1.0625
  0
SPLINE
  5
100
330
1F
100
AcDbEntity
  8
DEFAULT
100
AcDbSpline
210
0.0
220
0.0
230
1.0
 70
     8
 71
     3
 72
    10
 73
     6
 74
     0
 42
0.0000000001
 43
0.0000000001
 40
0.0
 40
0.0
 40
0.0
 40
0.0
 40
0.3334081987195
 40
0.6667405702355
 40
1.0
 40
1.0
 40
1.0
 40
1.0
 10
20.05465896713001
 20
1.632709662339991
 30
0.0
 10
20.05501222314003
 20
1.622588450259997
 30
0.0
 10
20.06109582412002
 20
1.60216301138
 30
0.0
 10
20.08384742640003
 20
1.580177131319999
 30
0.0
 10
20.10446826098003
 20
1.574803632149994
 30
0.0
 10
20.11459111705001
 20
1.574803632149994
 30
0.0
  0
CIRCLE
  5
101
330
1F
100
AcDbEntity
  8
DEFAULT
100
AcDbCircle
 10
12.01886500000002
 20
0.0
 30
0.0
 40
1.0625
  0
SPLINE
  5
102
330
1F
100
AcDbEntity
  8
DEFAULT
100
AcDbSpline
210
0.0
220
0.0
230
1.0
 70
     8
 71
     3
 72
    10
 73
     6
 74
     0
 42
0.0000000001
 43
0.0000000001
 40
0.0
 40
0.0
 40
0.0
 40
0.0
 40
0.3098884097075
 40
0.6612939512471
 40
1.0
 40
1.0
 40
1.0
 40
1.0
 10
12.44476323607002
 20
1.982489443939997
 30
0.0
 10
12.22763796164001
 20
2.056479691899995
 30
0.0
 10
11.75864171793002
 20
2.198341545609992
 30
0.0
 10
11.03477287166002
 20
2.356504488399992
 30
0.0
 10
10.52747001131003
 20
2.422190602779992
 30
0.0
 10
10.27768710723002
 20
2.443498356585991
 30
0.0
  0
ARC
  5
103
330
1F
100
AcDbEntity
  8
DEFAULT
100
AcDbCircle
 10
1.225394999999992
 20
0.5448949999999968
 30
0.0
 40
0.2362201456744931
100
AcDbArc
 50
283.2478113805402
 51
359.9999999999999
  0
CIRCLE
  5
104
330
1F
100
AcDbEntity
  8
DEFAULT
100
AcDbCircle
 10
19.44693200000002
 20
0.0
 30
0.0
 40
1.279528000000001
  0
ARC
  5
105
330
1F
100
AcDbEntity
  8
DEFAULT
100
AcDbCircle
 10
9.417783000000028
 20
-87.525449
 30
0.0
 40
90.00000008861713
100
AcDbArc
 50
83.77635464235605
 51
87.43672945249743
  0
ARC
  5
106
330
1F
100
AcDbEntity
  8
DEFAULT
100
AcDbCircle
 10
24.22099473909718
 20
33.91339386707608
 30
0.0
 40
0.1500005583889545
100
AcDbArc
 50
104.8687485525721
 51
195.233443535248
  0
SPLINE
  5
107
330
1F
100
AcDbEntity
  8
DEFAULT
100
AcDbSpline
210
0.0
220
0.0
230
1.0
 70
     8
 71
     3
 72
     9
 73
     5
 74
     0
 42
0.0000000001
 43
0.0000000001
 40
0.0
 40
0.0
 40
0.0
 40
0.0
 40
1.0
 40
2.0
 40
2.0
 40
2.0
 40
2.0
 10
24.07626498336718
 20
33.87398045249608
 30
0.0
 10
24.5236855899535
 20
32.23156775827439
 30
0.0
 10
24.97943919988624
 20
28.84926263115405
 30
0.0
 10
24.99835036435967
 20
25.44615005073955
 30
0.0
 10
25.00601755601041
 20
23.74639487488957
 30
0.0
  0
ARC
  5
108
330
1F
100
AcDbEntity
  8
DEFAULT
100
AcDbCircle
 10
25.25601487919822
 20
23.74749977135363
 30
0.0
 40
0.2499997647944185
100
AcDbArc
 50
180.2532246793642
 51
269.9999678911831
  0
SPLINE
  5
109
330
1F
100
AcDbEntity
  8
DEFAULT
100
AcDbSpline
210
0.0
220
0.0
230
1.0
 70
    24
 71
     2
 72
     6
 73
     3
 74
     0
 42
0.0000000001
 43
0.0000000001
 40
0.0
 40
0.0
 40
0.0
 40
1.0
 40
1.0
 40
1.0
 10
25.25601473909718
 20
23.49750000655925
 30
0.0
 10
26.32271848909718
 20
23.49749987878847
 30
0.0
 10
27.38942223909719
 20
23.4974997510177
 30
0.0
  0
ARC
  5
10A
330
1F
100
AcDbEntity
  8
DEFAULT
100
AcDbCircle
 10
27.38928385085241
 20
23.74749982564339
 30
0.0
 40
0.2500001129282869
100
AcDbArc
 50
270.0317162367323
 51
339.657982420215
  0
ARC
  5
10B
330
1F
100
AcDbEntity
  8
DEFAULT
100
AcDbCircle
 10
12.04079060906311
 20
29.45837210460063
 30
0.0
 40
16.62651688018725
100
AcDbArc
 50
339.591767312622
 51
340.0288855941284
  0
SPLINE
  5
10C
330
1F
100
AcDbEntity
  8
DEFAULT
100
AcDbSpline
210
0.0
220
0.0
230
1.0
 70
     8
 71
     3
 72
     9
 73
     5
 74
     0
 42
0.0000000001
 43
0.0000000001
 40
0.0
 40
0.0
 40
0.0
 40
0.0
 40
1.0
 40
2.0
 40
2.0
 40
2.0
 40
2.0
 10
27.6674707390972
 20
23.77964586707608
 30
0.0
 10
27.95735617805796
 20
24.57735064091433
 30
0.0
 10
28.43685776197172
 20
26.21431250397177
 30
0.0
 10
28.62202596255274
 20
27.90706140553317
 30
0.0
 10
28.6764527390972
 20
28.75419786707609
 30
0.0
  0
SPLINE
  5
10D
330
1F
100
AcDbEntity
  8
DEFAULT
100
AcDbSpline
210
0.0
220
0.0
230
1.0
 70
    24
 71
     2
 72
     6
 73
     3
 74
     0
 42
0.0000000001
 43
0.0000000001
 40
0.0
 40
0.0
 40
0.0
 40
1.0
 40
1.0
 40
1.0
 10
26.14991373909719
 20
23.49749986707609
 30
0.0
 10
26.14991373909719
 20
22.67324986707609
 30
0.0
 10
26.14991373909719
 20
21.84899986707609
 30
0.0
  0
ARC
  5
10E
330
1F
100
AcDbEntity
  8
DEFAULT
100
AcDbCircle
 10
28.11491373909719
 20
21.84899986707609
 30
0.0
 40
1.965000000000003
100
AcDbArc
 50
180.0
 51
270.0
  0
LINE
  5
10F
330
1F
100
AcDbEntity
  8
DEFAULT
100
AcDbLine
 10
28.11491373909719
 20
19.88399986707608
 30
0.0
 11
28.57892673909718
 21
19.88399986707608
 31
0.0
  0
SPLINE
  5
110
330
1F
100
AcDbEntity
  8
DEFAULT
100
AcDbSpline
210
0.0
220
0.0
230
1.0
 70
    24
 71
     2
 72
     6
 73
     3
 74
     0
 42
0.0000000001
 43
0.0000000001
 40
0.0
 40
0.0
 40
0.0
 40
1.0
 40
1.0
 40
1.0
 10
28.9965077390972
 20
19.63399986707608
 30
0.0
 10
28.55571073909719
 20
19.63399986707608
 30
0.0
 10
28.11491373909719
 20
19.63399986707608
 30
0.0
  0
ARC
  5
111
330
1F
100
AcDbEntity
  8
DEFAULT
100
AcDbCircle
 10
28.11491373909719
 20
21.84899986707609
 30
0.0
 40
2.215000000000003
100
AcDbArc
 50
180.0
 51
270.0
  0
SPLINE
  5
112
330
1F
100
AcDbEntity
  8
DEFAULT
100
AcDbSpline
210
0.0
220
0.0
230
1.0
 70
    24
 71
     2
 72
     6
 73
     3
 74
     0
 42
0.0000000001
 43
0.0000000001
 40
0.0
 40
0.0
 40
0.0
 40
1.0
 40
1.0
 40
1.0
 10
25.89991373909719
 20
21.84899986707609
 30
0.0
 10
25.89991373909719
 20
22.67324986707609
 30
0.0
 10
25.89991373909719
 20
23.49749986707609
 30
0.0
  0
ARC
  5
113
330
1F
100
AcDbEntity
  8
DEFAULT
100
AcDbCircle
 10
-1.043052999939675
 20
42.56807814847643
 30
0.0
 40
0.2362210042417907
100
AcDbArc
 50
180.0
 51
265.3395701367955
  0
SPLINE
  5
114
330
1F
100
AcDbEntity
  8
DEFAULT
100
AcDbSpline
210
0.0
220
0.0
230
1.0
 70
    24
 71
     2
 72
     6
 73
     3
 74
     0
 42
0.0000000001
 43
0.0000000001
 40
0.0
 40
0.0
 40
0.0
 40
1.0
 40
1.0
 40
1.0
 10
46.80567073909545
 20
1.279527999999999
 30
0.0
 10
46.54219323909544
 20
1.279527999999999
 30
0.0
 10
46.27871573909543
 20
1.279527999999999
 30
0.0
  0
SPLINE
  5
115
330
1F
100
AcDbEntity
  8
DEFAULT
100
AcDbSpline
210
0.0
220
0.0
230
1.0
 70
    24
 71
     2
 72
     6
 73
     3
 74
     0
 42
0.0000000001
 43
0.0000000001
 40
0.0
 40
0.0
 40
0.0
 40
1.0
 40
1.0
 40
1.0
 10
9.101021000000017
 20
4.007722000000001
 30
0.0
 10
9.099090000000018
 20
4.117682500000001
 30
0.0
 10
9.097159000000019
 20
4.227643
 30
0.0
  0
SPLINE
  5
116
330
1F
100
AcDbEntity
  8
DEFAULT
100
AcDbSpline
210
0.0
220
0.0
230
1.0
 70
    24
 71
     2
 72
     6
 73
     3
 74
     0
 42
0.0000000001
 43
0.0000000001
 40
0.0
 40
0.0
 40
0.0
 40
1.0
 40
1.0
 40
1.0
 10
20.90854600000002
 20
1.441068000000001
 30
0.0
 10
20.90854600000002
 20
0.9929814999999991
 30
0.0
 10
20.90854600000002
 20
0.5448949999999968
 30
0.0
  0
ARC
  5
117
330
1F
100
AcDbEntity
  8
DEFAULT
100
AcDbCircle
 10
19.85133600000002
 20
1.441068000000001
 30
0.0
 40
0.015625
100
AcDbArc
 50
90.0
 51
180.0
  0
SPLINE
  5
118
330
1F
100
AcDbEntity
  8
DEFAULT
100
AcDbSpline
210
0.0
220
0.0
230
1.0
 70
     8
 71
     3
 72
     9
 73
     5
 74
     0
 42
0.0000000001
 43
0.0000000001
 40
0.0
 40
0.0
 40
0.0
 40
0.0
 40
1.0
 40
2.0
 40
2.0
 40
2.0
 40
2.0
 10
13.39700820886002
 20
2.798339705936996
 30
0.0
 10
13.4085703117574
 20
2.789806686439277
 30
0.0
 10
13.38662530565138
 20
2.774210389125884
 30
0.0
 10
13.36892557748978
 20
2.77293623354646
 30
0.0
 10
13.35878037293001
 20
2.772304271371993
 30
0.0
  0
SPLINE
  5
119
330
1F
100
AcDbEntity
  8
DEFAULT
100
AcDbSpline
210
0.0
220
0.0
230
1.0
 70
     8
 71
     3
 72
     9
 73
     5
 74
     0
 42
0.0000000001
 43
0.0000000001
 40
0.0
 40
0.0
 40
0.0
 40
0.0
 40
1.0
 40
2.0
 40
2.0
 40
2.0
 40
2.0
 10
13.35878037293001
 20
2.772304271371993
 30
0.0
 10
13.2388732614091
 20
2.764835051950755
 30
0.0
 10
13.0005780148304
 20
2.771281816186629
 30
0.0
 10
12.75745724754294
 20
2.757915190050738
 30
0.0
 10
12.64382049400002
 20
2.798339706023
 30
0.0
  0
ARC
  5
11A
330
1F
100
AcDbEntity
  8
DEFAULT
100
AcDbCircle
 10
28.27777273909543
 20
1.441068000000001
 30
0.0
 40
0.015625
100
AcDbArc
 50
0.0
 51
90.0
  0
SPLINE
  5
11B
330
1F
100
AcDbEntity
  8
DEFAULT
100
AcDbSpline
210
0.0
220
0.0
230
1.0
 70
    24
 71
     2
 72
     6
 73
     3
 74
     0
 42
0.0000000001
 43
0.0000000001
 40
0.0
 40
0.0
 40
0.0
 40
1.0
 40
1.0
 40
1.0
 10
27.35873873909544
 20
1.279527999999999
 30
0.0
 10
27.09526123909544
 20
1.279527999999999
 30
0.0
 10
26.83178373909543
 20
1.279527999999999
 30
0.0
  0
SPLINE
  5
11C
330
1F
100
AcDbEntity
  8
DEFAULT
100
AcDbSpline
210
0.0
220
0.0
230
1.0
 70
    24
 71
     2
 72
     6
 73
     3
 74
     0
 42
0.0000000001
 43
0.0000000001
 40
0.0
 40
0.0
 40
0.0
 40
1.0
 40
1.0
 40
1.0
 10
28.67265673909544
 20
19.73399936806274
 30
0.0
 10
36.45391323909544
 20
19.73399936806274
 30
0.0
 10
44.23516973909544
 20
19.73399936806274
 30
0.0
  0
SPLINE
  5
11D
330
1F
100
AcDbEntity
  8
DEFAULT
100
AcDbSpline
210
0.0
220
0.0
230
1.0
 70
     8
 71
     3
 72
     8
 73
     4
 74
     0
 42
0.0000000001
 43
0.0000000001
 40
0.0
 40
0.0
 40
0.0
 40
0.0
 40
1.0
 40
1.0
 40
1.0
 40
1.0
 10
47.63979673909544
 20
2.706040000000002
 30
0.0
 10
44.42532667122531
 20
3.419708669241643
 30
0.0
 10
41.17141217263598
 20
4.018147864471345
 30
0.0
 10
37.88022949879543
 20
4.219504144308999
 30
0.0
  0
SPLINE
  5
11E
330
1F
100
AcDbEntity
  8
DEFAULT
100
AcDbSpline
210
0.0
220
0.0
230
1.0
 70
    24
 71
     2
 72
     6
 73
     3
 74
     0
 42
0.0000000001
 43
0.0000000001
 40
-1.0
 40
-1.0
 40
-1.0
 40
0.0
 40
0.0
 40
0.0
 10
44.23516973909544
 20
19.73399936806274
 30
0.0
 10
44.36946917564858
 20
19.94892390770901
 30
0.0
 10
44.50376861220171
 20
20.16384844735528
 30
0.0
  0
ARC
  5
11F
330
1F
100
AcDbEntity
  8
DEFAULT
100
AcDbCircle
 10
44.22391355615248
 20
20.33872209185131
 30
0.0
 40
0.3299994605081066
100
AcDbArc
 50
327.9998826495005
 51
16.62705623837251
  0
ARC
  5
120
330
1F
100
AcDbEntity
  8
DEFAULT
100
AcDbCircle
 10
41.23436518174854
 20
19.44595787537284
 30
0.0
 40
3.450003856198021
100
AcDbArc
 50
16.62711566253618
 51
42.81730653986661
  0
ARC
  5
121
330
1F
100
AcDbEntity
  8
DEFAULT
100
AcDbCircle
 10
43.32491355884245
 20
21.38300025039025
 30
0.0
 40
0.5999993510115813
100
AcDbArc
 50
42.81730060375989
 51
86.39895866622012
  0
ARC
  5
122
330
1F
100
AcDbEntity
  8
DEFAULT
100
AcDbCircle
 10
36.45365873918739
 20
-87.80095298127773
 30
0.0
 40
109.9999526695194
100
AcDbArc
 50
86.39896361006214
 51
89.99986717795665
  0
ARC
  5
123
330
1F
100
AcDbEntity
  8
DEFAULT
100
AcDbCircle
 10
36.4541677391645
 20
-87.80103791345599
 30
0.0
 40
110.0000376016953
100
AcDbArc
 50
90.00013230115323
 51
93.60103361145285
  0
ARC
  5
124
330
1F
100
AcDbEntity
  8
DEFAULT
100
AcDbCircle
 10
29.58291351128373
 20
21.38300005670145
 30
0.0
 40
0.5999997491751065
100
AcDbArc
 50
93.6010965861326
 51
137.182724247455
  0
ARC
  5
125
330
1F
100
AcDbEntity
  8
DEFAULT
100
AcDbCircle
 10
31.67345953475639
 20
19.44595852499909
 30
0.0
 40
3.450001954752505
100
AcDbArc
 50
137.1826814888865
 51
163.3728863033159
  0
ARC
  5
126
330
1F
100
AcDbEntity
  8
DEFAULT
100
AcDbCircle
 10
28.68391391309423
 20
20.33872215812669
 30
0.0
 40
0.3300003636263555
100
AcDbArc
 50
163.3730040238594
 51
212.0000359252203
  0
SPLINE
  5
127
330
1F
100
AcDbEntity
  8
DEFAULT
100
AcDbSpline
210
0.0
220
0.0
230
1.0
 70
    24
 71
     2
 72
     6
 73
     3
 74
     0
 42
0.0000000001
 43
0.0000000001
 40
0.0
 40
0.0
 40
0.0
 40
1.0
 40
1.0
 40
1.0
 10
28.4040578426381
 20
20.16384843276359
 30
0.0
 10
28.53835729086677
 20
19.94892390041316
 30
0.0
 10
28.67265673909544
 20
19.73399936806274
 30
0.0
  0
ARC
  5
128
330
1F
100
AcDbEntity
  8
DEFAULT
100
AcDbCircle
 10
20.67232700000001
 20
0.5448949999999968
 30
0.0
 40
0.2362201456744931
100
AcDbArc
 50
283.2478113805403
 51
359.9999999999999
  0
CIRCLE
  5
129
330
1F
100
AcDbEntity
  8
DEFAULT
100
AcDbCircle
 10
19.44693200000002
 20
0.0
 30
0.0
 40
1.0
  0
SPLINE
  5
12A
330
1F
100
AcDbEntity
  8
DEFAULT
100
AcDbSpline
210
0.0
220
0.0
230
1.0
 70
     8
 71
     3
 72
     9
 73
     5
 74
     0
 42
0.0000000001
 43
0.0000000001
 40
0.0
 40
0.0
 40
0.0
 40
0.0
 40
1.0
 40
2.0
 40
2.0
 40
2.0
 40
2.0
 10
1.936937517236998
 20
1.948920408199996
 30
0.0
 10
2.9273617585647
 20
2.081840037062804
 30
0.0
 10
4.914925592350897
 20
2.297689413371472
 30
0.0
 10
6.910882072024236
 20
2.412459896694187
 30
0.0
 10
7.909675637060019
 20
2.444418629514999
 30
0.0
  0
SPLINE
  5
12B
330
1F
100
AcDbEntity
  8
DEFAULT
100
AcDbSpline
210
0.0
220
0.0
230
1.0
 70
    24
 71
     2
 72
     6
 73
     3
 74
     0
 42
0.0000000001
 43
0.0000000001
 40
0.0
 40
0.0
 40
0.0
 40
1.0
 40
1.0
 40
1.0
 10
20.68708900000003
 20
0.3149609999999967
 30
0.0
 10
20.70677450000002
 20
0.3149609999999967
 30
0.0
 10
20.72646000000002
 20
0.3149609999999967
 30
0.0
  0
ARC
  5
12C
330
1F
100
AcDbEntity
  8
DEFAULT
100
AcDbCircle
 10
19.44693200000002
 20
0.0
 30
0.0
 40
1.279527939310224
100
AcDbArc
 50
15.7620695672927
 51
18.57560333516714
  0
SPLINE
  5
12D
330
1F
100
AcDbEntity
  8
DEFAULT
100
AcDbSpline
210
0.0
220
0.0
230
1.0
 70
     8
 71
     3
 72
     9
 73
     5
 74
     0
 42
0.0000000001
 43
0.0000000001
 40
0.0
 40
0.0
 40
0.0
 40
0.0
 40
1.0
 40
2.0
 40
2.0
 40
2.0
 40
2.0
 10
0.4868670000000179
 20
2.797449999999998
 30
0.0
 10
0.4657263189230605
 20
2.790469611421017
 30
0.0
 10
0.4197647735827559
 20
2.779062543245416
 30
0.0
 10
0.3933066018655893
 20
2.737346548889931
 30
0.0
 10
0.3943429999999921
 20
2.714154999999991
 30
0.0
  0
SPLINE
  5
12E
330
1F
100
AcDbEntity
  8
DEFAULT
100
AcDbSpline
210
0.0
220
0.0
230
1.0
 70
    24
 71
     2
 72
     6
 73
     3
 74
     0
 42
0.0000000001
 43
0.0000000001
 40
0.0
 40
0.0
 40
0.0
 40
1.0
 40
1.0
 40
1.0
 10
0.3943429999999921
 20
2.714154999999991
 30
0.0
 10
0.4185204999999996
 20
2.173133499999992
 30
0.0
 10
0.4426980000000071
 20
1.632111999999992
 30
0.0
  0
ARC
  5
12F
330
1F
100
AcDbEntity
  8
DEFAULT
100
AcDbCircle
 10
10.59712900000001
 20
10.84173399999999
 30
0.0
 40
0.1000000000000005
100
AcDbArc
 50
0.0
 51
90.0
  0
SPLINE
  5
130
330
1F
100
AcDbEntity
  8
DEFAULT
100
AcDbSpline
210
0.0
220
0.0
230
1.0
 70
    24
 71
     2
 72
     6
 73
     3
 74
     0
 42
0.0000000001
 43
0.0000000001
 40
0.0
 40
0.0
 40
0.0
 40
1.0
 40
1.0
 40
1.0
 10
10.92537700000001
 20
0.6637339999999909
 30
0.0
 10
7.593724999999999
 20
0.6637339999999909
 30
0.0
 10
4.262072999999987
 20
0.6637339999999909
 30
0.0
  0
SPLINE
  5
131
330
1F
100
AcDbEntity
  8
DEFAULT
100
AcDbSpline
210
0.0
220
0.0
230
1.0
 70
    24
 71
     2
 72
     6
 73
     3
 74
     0
 42
0.0000000001
 43
0.0000000001
 40
0.0
 40
0.0
 40
0.0
 40
1.0
 40
1.0
 40
1.0
 10
1.948373000000004
 20
19.73399936806274
 30
0.0
 10
1.969268970217342
 20
19.70055884945253
 30
0.0
 10
1.990164940434681
 20
19.66711833084231
 30
0.0
  0
ARC
  5
132
330
1F
100
AcDbEntity
  8
DEFAULT
100
AcDbCircle
 10
2.185216126712646
 20
19.78899929782462
 30
0.0
 40
0.2299998595238275
100
AcDbArc
 50
211.999885629289
 51
269.9999684343341
  0
SPLINE
  5
133
330
1F
100
AcDbEntity
  8
DEFAULT
100
AcDbSpline
210
0.0
220
0.0
230
1.0
 70
    24
 71
     2
 72
     6
 73
     3
 74
     0
 42
0.0000000001
 43
0.0000000001
 40
-1.0
 40
-1.0
 40
-1.0
 40
0.0
 40
0.0
 40
0.0
 10
2.185215999999997
 20
19.55899943830083
 30
0.0
 10
9.622129500000007
 20
19.55899943830083
 30
0.0
 10
17.05904300000002
 20
19.55899943830083
 30
0.0
  0
ARC
  5
134
330
1F
100
AcDbEntity
  8
DEFAULT
100
AcDbCircle
 10
17.0590428732874
 20
19.78899929782463
 30
0.0
 40
0.2299998595238402
100
AcDbArc
 50
270.0000315656671
 51
328.0001143707087
  0
SPLINE
  5
135
330
1F
100
AcDbEntity
  8
DEFAULT
100
AcDbSpline
210
0.0
220
0.0
230
1.0
 70
    24
 71
     2
 72
     6
 73
     3
 74
     0
 42
0.0000000001
 43
0.0000000001
 40
-1.0
 40
-1.0
 40
-1.0
 40
0.0
 40
0.0
 40
0.0
 10
17.25409405956536
 20
19.66711833084231
 30
0.0
 10
17.27499002978269
 20
19.70055884945253
 30
0.0
 10
17.29588600000001
 20
19.73399936806274
 30
0.0
  0
ARC
  5
136
330
1F
100
AcDbEntity
  8
DEFAULT
100
AcDbCircle
 10
8.647129000000021
 20
10.84173399999999
 30
0.0
 40
0.1000000000000005
100
AcDbArc
 50
90.0
 51
180.0
  0
POLYLINE
  5
137
330
1F
100
AcDbEntity
  8
DEFAULT
100
AcDb2dPolyline
 66
     1
 10
0.0
 20
0.0
 30
0.0
  0
VERTEX
  5
139
330
137
100
AcDbEntity
  8
DEFAULT
100
AcDbVertex
100
AcDb2dVertex
 10
8.747129000000015
 20
17.75319599999999
 30
0.0
  0
VERTEX
  5
13A
330
137
100
AcDbEntity
  8
DEFAULT
100
AcDbVertex
100
AcDb2dVertex
 10
10.49712900000002
 20
17.75319599999999
 30
0.0
  0
SEQEND
  5
138
330
137
100
AcDbEntity
  8
DEFAULT
  0
SPLINE
  5
13B
330
1F
100
AcDbEntity
  8
DEFAULT
100
AcDbSpline
210
0.0
220
0.0
230
1.0
 70
    24
 71
     2
 72
     6
 73
     3
 74
     0
 42
0.0000000001
 43
0.0000000001
 40
0.0
 40
0.0
 40
0.0
 40
1.0
 40
1.0
 40
1.0
 10
12.54582000000001
 20
1.279527999999999
 30
0.0
 10
12.28234250000001
 20
1.279527999999999
 30
0.0
 10
12.01886500000002
 20
1.279527999999999
 30
0.0
  0
SPLINE
  5
13C
330
1F
100
AcDbEntity
  8
DEFAULT
100
AcDbSpline
210
0.0
220
0.0
230
1.0
 70
     8
 71
     3
 72
     8
 73
     4
 74
     0
 42
0.0000000001
 43
0.0000000001
 40
0.0
 40
0.0
 40
0.0
 40
0.0
 40
0.9854228229731458
 40
0.9854228229731458
 40
0.9854228229731458
 40
0.9854228229731458
 10
3.459243897362995
 20
19.55780300489074
 30
0.0
 10
4.752210781984786
 20
19.53721208291989
 30
0.0
 10
6.540356167533304
 20
19.23901927697121
 30
0.0
 10
8.74887280106499
 20
17.75319599999999
 30
0.0
  0
ARC
  5
13D
330
1F
100
AcDbEntity
  8
DEFAULT
100
AcDbCircle
 10
13.24426000000001
 20
0.5448949999999968
 30
0.0
 40
0.2362201456744931
100
AcDbArc
 50
283.2478113805399
 51
359.9999999999999
  0
CIRCLE
  5
13E
330
1F
100
AcDbEntity
  8
DEFAULT
100
AcDbCircle
 10
26.83178373909543
 20
0.0
 30
0.0
 40
1.0625
  0
SPLINE
  5
13F
330
1F
100
AcDbEntity
  8
DEFAULT
100
AcDbSpline
210
0.0
220
0.0
230
1.0
 70
    24
 71
     2
 72
     6
 73
     3
 74
     0
 42
0.0000000001
 43
0.0000000001
 40
0.0
 40
0.0
 40
0.0
 40
1.0
 40
1.0
 40
1.0
 10
13.48047900000002
 20
1.441068000000001
 30
0.0
 10
13.48047900000002
 20
0.9929814999999991
 30
0.0
 10
13.48047900000002
 20
0.5448949999999968
 30
0.0
  0
ARC
  5
140
330
1F
100
AcDbEntity
  8
DEFAULT
100
AcDbCircle
 10
12.42326900000002
 20
1.441068000000001
 30
0.0
 40
0.015625
100
AcDbArc
 50
90.0
 51
180.0
  0
SPLINE
  5
141
330
1F
100
AcDbEntity
  8
DEFAULT
100
AcDbSpline
210
0.0
220
0.0
230
1.0
 70
    24
 71
     2
 72
     6
 73
     3
 74
     0
 42
0.0000000001
 43
0.0000000001
 40
0.0
 40
0.0
 40
0.0
 40
1.0
 40
1.0
 40
1.0
 10
12.54582000000001
 20
1.279527999999999
 30
0.0
 10
12.54582000000001
 20
1.222747499999997
 30
0.0
 10
12.54582000000001
 20
1.165966999999995
 30
0.0
  0
SPLINE
  5
142
330
1F
100
AcDbEntity
  8
DEFAULT
100
AcDbSpline
210
0.0
220
0.0
230
1.0
 70
    24
 71
     2
 72
     6
 73
     3
 74
     0
 42
0.0000000001
 43
0.0000000001
 40
0.0
 40
0.0
 40
0.0
 40
1.0
 40
1.0
 40
1.0
 10
19.78127200000002
 20
1.574804
 30
0.0
 10
20.24712450000001
 20
1.574804
 30
0.0
 10
20.71297700000001
 20
1.574804
 30
0.0
  0
SPLINE
  5
143
330
1F
100
AcDbEntity
  8
DEFAULT
100
AcDbSpline
210
0.0
220
0.0
230
1.0
 70
    24
 71
     2
 72
     6
 73
     3
 74
     0
 42
0.0000000001
 43
0.0000000001
 40
0.0
 40
0.0
 40
0.0
 40
1.0
 40
1.0
 40
1.0
 10
0.4044039999999995
 20
1.456693000000001
 30
0.0
 10
0.9251964999999984
 20
1.456693000000001
 30
0.0
 10
1.445988999999997
 20
1.456693000000001
 30
0.0
  0
SPLINE
  5
144
330
1F
100
AcDbEntity
  8
DEFAULT
100
AcDbSpline
210
0.0
220
0.0
230
1.0
 70
    24
 71
     2
 72
     6
 73
     3
 74
     0
 42
0.0000000001
 43
0.0000000001
 40
0.0
 40
0.0
 40
0.0
 40
1.0
 40
1.0
 40
1.0
 10
14.835795
 20
1.163733999999991
 30
0.0
 10
14.15813700000001
 20
1.163733999999991
 30
0.0
 10
13.48047900000002
 20
1.163733999999991
 30
0.0
  0
SPLINE
  5
145
330
1F
100
AcDbEntity
  8
DEFAULT
100
AcDbSpline
210
0.0
220
0.0
230
1.0
 70
    24
 71
     2
 72
     6
 73
     3
 74
     0
 42
0.0000000001
 43
0.0000000001
 40
0.0
 40
0.0
 40
0.0
 40
1.0
 40
1.0
 40
1.0
 10
8.618947000000006
 20
1.282562999999996
 30
0.0
 10
9.027088500000005
 20
1.282562999999996
 30
0.0
 10
9.435230000000004
 20
1.282562999999996
 30
0.0
  0
ARC
  5
146
330
1F
100
AcDbEntity
  8
DEFAULT
100
AcDbCircle
 10
4.396280999999988
 20
0.9195819999999912
 30
0.0
 40
0.2441518217144169
100
AcDbArc
 50
90.0
 51
209.9997773345846
  0
SPLINE
  5
147
330
1F
100
AcDbEntity
  8
DEFAULT
100
AcDbSpline
210
0.0
220
0.0
230
1.0
 70
    24
 71
     2
 72
     6
 73
     3
 74
     0
 42
0.0000000001
 43
0.0000000001
 40
0.0
 40
0.0
 40
0.0
 40
1.0
 40
1.0
 40
1.0
 10
14.982185
 20
0.6637339999999909
 30
0.0
 10
14.23133200000001
 20
0.6637339999999909
 30
0.0
 10
13.48047900000002
 20
0.6637339999999909
 30
0.0
  0
SPLINE
  5
148
330
1F
100
AcDbEntity
  8
DEFAULT
100
AcDbSpline
210
0.0
220
0.0
230
1.0
 70
    24
 71
     2
 72
     6
 73
     3
 74
     0
 42
0.0000000001
 43
0.0000000001
 40
0.0
 40
0.0
 40
0.0
 40
1.0
 40
1.0
 40
1.0
 10
4.184839000000011
 20
0.797506999999996
 30
0.0
 10
4.223455999999999
 20
0.7306204999999935
 30
0.0
 10
4.262072999999987
 20
0.6637339999999909
 30
0.0
  0
ARC
  5
149
330
1F
100
AcDbEntity
  8
DEFAULT
100
AcDbCircle
 10
14.847978
 20
0.9195819999999912
 30
0.0
 40
0.2441513887009997
100
AcDbArc
 50
330.0001053293281
 51
90.0
  0
SPLINE
  5
14A
330
1F
100
AcDbEntity
  8
DEFAULT
100
AcDbSpline
210
0.0
220
0.0
230
1.0
 70
     8
 71
     3
 72
     9
 73
     5
 74
     0
 42
0.0000000001
 43
0.0000000001
 40
0.0
 40
0.0
 40
0.0
 40
0.0
 40
0.4526822822758
 40
1.0
 40
1.0
 40
1.0
 40
1.0
 10
10.64825325433002
 20
1.164433499139989
 30
0.0
 10
10.46673296071999
 20
1.195015040589993
 30
0.0
 10
10.06443749265001
 20
1.254707246669994
 30
0.0
 10
9.657756998810001
 20
1.282563279769988
 30
0.0
 10
9.435229755780014
 20
1.282563279769988
 30
0.0
  0
SPLINE
  5
14B
330
1F
100
AcDbEntity
  8
DEFAULT
100
AcDbSpline
210
0.0
220
0.0
230
1.0
 70
     8
 71
     3
 72
    16
 73
    12
 74
     0
 42
0.0000000001
 43
0.0000000001
 40
0.0
 40
0.0
 40
0.0
 40
0.0
 40
0.08036318855295
 40
0.1650120153995
 40
0.2570413384004
 40
0.3594431207832
 40
0.4745568832878
 40
0.6038766267263
 40
0.7478665488324
 40
0.9075021814449
 40
1.0
 40
1.0
 40
1.0
 40
1.0
 10
9.935386123849995
 20
1.791111326699991
 30
0.0
 10
10.00253139539002
 20
1.785033517439999
 30
0.0
 10
10.14020876563002
 20
1.770348232410001
 30
0.0
 10
10.35396891136001
 20
1.74177843631999
 30
0.0
 10
10.58531200386001
 20
1.705651732020002
 30
0.0
 10
10.84113179941001
 20
1.660923279480002
 30
0.0
 10
11.12698564831
 20
1.60653292856999
 30
0.0
 10
11.44634030527
 20
1.541695092599994
 30
0.0
 10
11.80153830997001
 20
1.465779704580001
 30
0.0
 10
12.12589356997002
 20
1.393427157219989
 30
0.0
 10
12.33205606598001
 20
1.346096263459998
 30
0.0
 10
12.40765094448001
 20
1.328568787189994
 30
0.0
  0
ARC
  5
14C
330
1F
100
AcDbEntity
  8
DEFAULT
100
AcDbCircle
 10
8.735408842605565
 20
-2.362790137815878
 30
0.0
 40
3.647213306725817
100
AcDbArc
 50
91.82986493507241
 51
100.668978075618
  0
LINE
  5
14D
330
1F
100
AcDbEntity
  8
DEFAULT
100
AcDbLine
 10
8.060183584439983
 20
1.221374444829991
 30
0.0
 11
7.754222220599871
 21
1.163733999999991
 31
0.0
  0
SPLINE
  5
14E
330
1F
100
AcDbEntity
  8
DEFAULT
100
AcDbSpline
210
0.0
220
0.0
230
1.0
 70
    24
 71
     2
 72
     6
 73
     3
 74
     0
 42
0.0000000001
 43
0.0000000001
 40
0.0
 40
0.0
 40
0.0
 40
1.0
 40
1.0
 40
1.0
 10
12.40764500000002
 20
1.430233000000001
 30
0.0
 10
12.29011200000001
 20
1.460414499999999
 30
0.0
 10
12.172579
 20
1.490595999999996
 30
0.0
  0
SPLINE
  5
14F
330
1F
100
AcDbEntity
  8
DEFAULT
100
AcDbSpline
210
0.0
220
0.0
230
1.0
 70
    24
 71
     2
 72
     6
 73
     3
 74
     0
 42
0.0000000001
 43
0.0000000001
 40
1.0
 40
1.0
 40
1.0
 40
2.0
 40
2.0
 40
2.0
 10
12.172579
 20
1.490595999999996
 30
0.0
 10
12.045542
 20
1.523238999999997
 30
0.0
 10
11.918505
 20
1.555881999999997
 30
0.0
  0
SPLINE
  5
150
330
1F
100
AcDbEntity
  8
DEFAULT
100
AcDbSpline
210
0.0
220
0.0
230
1.0
 70
    24
 71
     2
 72
     6
 73
     3
 74
     0
 42
0.0000000001
 43
0.0000000001
 40
2.0
 40
2.0
 40
2.0
 40
3.0
 40
3.0
 40
3.0
 10
11.918505
 20
1.555881999999997
 30
0.0
 10
11.7983875
 20
1.586403999999995
 30
0.0
 10
11.67827000000001
 20
1.616925999999992
 30
0.0
  0
SPLINE
  5
151
330
1F
100
AcDbEntity
  8
DEFAULT
100
AcDbSpline
210
0.0
220
0.0
230
1.0
 70
    24
 71
     2
 72
     6
 73
     3
 74
     0
 42
0.0000000001
 43
0.0000000001
 40
3.0
 40
3.0
 40
3.0
 40
4.0
 40
4.0
 40
4.0
 10
11.67827000000001
 20
1.616925999999992
 30
0.0
 10
11.56471000000001
 20
1.644906499999991
 30
0.0
 10
11.45115
 20
1.672886999999989
 30
0.0
  0
SPLINE
  5
152
330
1F
100
AcDbEntity
  8
DEFAULT
100
AcDbSpline
210
0.0
220
0.0
230
1.0
 70
    24
 71
     2
 72
     6
 73
     3
 74
     0
 42
0.0000000001
 43
0.0000000001
 40
4.0
 40
4.0
 40
4.0
 40
5.0
 40
5.0
 40
5.0
 10
11.45115
 20
1.672886999999989
 30
0.0
 10
11.34377000000001
 20
1.697690999999992
 30
0.0
 10
11.23639000000001
 20
1.722494999999995
 30
0.0
  0
SPLINE
  5
153
330
1F
100
AcDbEntity
  8
DEFAULT
100
AcDbSpline
210
0.0
220
0.0
230
1.0
 70
    24
 71
     2
 72
     6
 73
     3
 74
     0
 42
0.0000000001
 43
0.0000000001
 40
5.0
 40
5.0
 40
5.0
 40
6.0
 40
6.0
 40
6.0
 10
11.23639000000001
 20
1.722494999999995
 30
0.0
 10
11.22108950000001
 20
1.725825499999992
 30
0.0
 10
11.205789
 20
1.729155999999989
 30
0.0
  0
ARC
  5
154
330
1F
100
AcDbEntity
  8
DEFAULT
100
AcDbCircle
 10
8.547278516821294
 20
-10.48418723611678
 30
0.0
 40
12.49933722212385
100
AcDbArc
 50
77.7198360494219
 51
79.19955087541652
  0
ARC
  5
155
330
1F
100
AcDbEntity
  8
DEFAULT
100
AcDbCircle
 10
0.0
 20
0.0
 30
0.0
 40
1.279527939310224
100
AcDbArc
 50
15.76206956729271
 51
18.57560333516714
  0
SPLINE
  5
156
330
1F
100
AcDbEntity
  8
DEFAULT
100
AcDbSpline
210
0.0
220
0.0
230
1.0
 70
    24
 71
     2
 72
     6
 73
     3
 74
     0
 42
0.0000000001
 43
0.0000000001
 40
0.0
 40
0.0
 40
0.0
 40
1.0
 40
1.0
 40
1.0
 10
8.622129000000015
 20
4.308027999999993
 30
0.0
 10
8.622129000000015
 20
7.199880999999991
 30
0.0
 10
8.622129000000015
 20
10.09173399999999
 30
0.0
  0
SPLINE
  5
157
330
1F
100
AcDbEntity
  8
DEFAULT
100
AcDbSpline
210
0.0
220
0.0
230
1.0
 70
    24
 71
     2
 72
     6
 73
     3
 74
     0
 42
0.0000000001
 43
0.0000000001
 40
0.0
 40
0.0
 40
0.0
 40
1.0
 40
1.0
 40
1.0
 10
8.622129000000015
 20
10.09173399999999
 30
0.0
 10
8.584629000000007
 20
10.129234
 30
0.0
 10
8.547128999999998
 20
10.16673400000001
 30
0.0
  0
SPLINE
  5
158
330
1F
100
AcDbEntity
  8
DEFAULT
100
AcDbSpline
210
0.0
220
0.0
230
1.0
 70
    24
 71
     2
 72
     6
 73
     3
 74
     0
 42
0.0000000001
 43
0.0000000001
 40
0.0
 40
0.0
 40
0.0
 40
1.0
 40
1.0
 40
1.0
 10
1.240157000000011
 20
0.3149609999999967
 30
0.0
 10
1.259842500000005
 20
0.3149609999999967
 30
0.0
 10
1.279527999999999
 20
0.3149609999999967
 30
0.0
  0
SPLINE
  5
159
330
1F
100
AcDbEntity
  8
DEFAULT
100
AcDbSpline
210
0.0
220
0.0
230
1.0
 70
    24
 71
     2
 72
     6
 73
     3
 74
     0
 42
0.0000000001
 43
0.0000000001
 40
0.0
 40
0.0
 40
0.0
 40
1.0
 40
1.0
 40
1.0
 10
10.62212900000002
 20
4.307419999999993
 30
0.0
 10
10.62212900000002
 20
7.199576999999991
 30
0.0
 10
10.62212900000002
 20
10.09173399999999
 30
0.0
  0
SPLINE
  5
15A
330
1F
100
AcDbEntity
  8
DEFAULT
100
AcDbSpline
210
0.0
220
0.0
230
1.0
 70
    24
 71
     2
 72
     6
 73
     3
 74
     0
 42
0.0000000001
 43
0.0000000001
 40
0.0
 40
0.0
 40
0.0
 40
1.0
 40
1.0
 40
1.0
 10
11.48698800000001
 20
1.163733999999991
 30
0.0
 10
7.947725499999997
 20
1.163733999999991
 30
0.0
 10
4.408462999999983
 20
1.163733999999991
 30
0.0
  0
SPLINE
  5
15B
330
1F
100
AcDbEntity
  8
DEFAULT
100
AcDbSpline
210
0.0
220
0.0
230
1.0
 70
    24
 71
     2
 72
     6
 73
     3
 74
     0
 42
0.0000000001
 43
0.0000000001
 40
0.0
 40
0.0
 40
0.0
 40
1.0
 40
1.0
 40
1.0
 10
8.547128999999998
 20
10.84173399999999
 30
0.0
 10
8.547128999999998
 20
10.504234
 30
0.0
 10
8.547128999999998
 20
10.16673400000001
 30
0.0
  0
SPLINE
  5
15C
330
1F
100
AcDbEntity
  8
DEFAULT
100
AcDbSpline
210
0.0
220
0.0
230
1.0
 70
    24
 71
     2
 72
     6
 73
     3
 74
     0
 42
0.0000000001
 43
0.0000000001
 40
0.0
 40
0.0
 40
0.0
 40
1.0
 40
1.0
 40
1.0
 10
8.747129000000015
 20
17.75319599999999
 30
0.0
 10
8.747129000000015
 20
14.34746499999999
 30
0.0
 10
8.747129000000015
 20
10.941734
 30
0.0
  0
SPLINE
  5
15D
330
1F
100
AcDbEntity
  8
DEFAULT
100
AcDbSpline
210
0.0
220
0.0
230
1.0
 70
    24
 71
     2
 72
     6
 73
     3
 74
     0
 42
0.0000000001
 43
0.0000000001
 40
0.0
 40
0.0
 40
0.0
 40
1.0
 40
1.0
 40
1.0
 10
10.49712900000002
 20
17.75319599999999
 30
0.0
 10
10.49712900000002
 20
14.34746499999999
 30
0.0
 10
10.49712900000002
 20
10.941734
 30
0.0
  0
SPLINE
  5
15E
330
1F
100
AcDbEntity
  8
DEFAULT
100
AcDbSpline
210
0.0
220
0.0
230
1.0
 70
    24
 71
     2
 72
     6
 73
     3
 74
     0
 42
0.0000000001
 43
0.0000000001
 40
0.0
 40
0.0
 40
0.0
 40
1.0
 40
1.0
 40
1.0
 10
13.25902200000003
 20
0.3149609999999967
 30
0.0
 10
13.27870750000002
 20
0.3149609999999967
 30
0.0
 10
13.29839300000002
 20
0.3149609999999967
 30
0.0
  0
SPLINE
  5
15F
330
1F
100
AcDbEntity
  8
DEFAULT
100
AcDbSpline
210
0.0
220
0.0
230
1.0
 70
     8
 71
     3
 72
     8
 73
     4
 74
     0
 42
0.0000000001
 43
0.0000000001
 40
0.0
 40
0.0
 40
0.0
 40
0.0
 40
0.9854228229731457
 40
0.9854228229731457
 40
0.9854228229731457
 40
0.9854228229731457
 10
15.78501510263702
 20
19.55780300489074
 30
0.0
 10
14.4920482180152
 20
19.53721208291989
 30
0.0
 10
12.70390283246668
 20
19.23901927697121
 30
0.0
 10
10.49538619893501
 20
17.75319599999999
 30
0.0
  0
SPLINE
  5
160
330
1F
100
AcDbEntity
  8
DEFAULT
100
AcDbSpline
210
0.0
220
0.0
230
1.0
 70
    24
 71
     2
 72
     6
 73
     3
 74
     0
 42
0.0000000001
 43
0.0000000001
 40
0.0
 40
0.0
 40
0.0
 40
1.0
 40
1.0
 40
1.0
 10
37.45391273909543
 20
10.09173399999999
 30
0.0
 10
37.49141273909542
 20
10.129234
 30
0.0
 10
37.52891273909542
 20
10.16673400000001
 30
0.0
  0
SPLINE
  5
161
330
1F
100
AcDbEntity
  8
DEFAULT
100
AcDbSpline
210
0.0
220
0.0
230
1.0
 70
    24
 71
     2
 72
     6
 73
     3
 74
     0
 42
0.0000000001
 43
0.0000000001
 40
0.0
 40
0.0
 40
0.0
 40
1.0
 40
1.0
 40
1.0
 10
40.06127873909544
 20
1.574804
 30
0.0
 10
40.06127873909544
 20
1.515748500000001
 30
0.0
 10
40.06127873909544
 20
1.456693000000001
 30
0.0
  0
SPLINE
  5
162
330
1F
100
AcDbEntity
  8
DEFAULT
100
AcDbSpline
210
0.0
220
0.0
230
1.0
 70
     8
 71
     3
 72
     9
 73
     5
 74
     0
 42
0.0000000001
 43
0.0000000001
 40
0.0
 40
0.0
 40
0.0
 40
0.0
 40
1.0
 40
2.0
 40
2.0
 40
2.0
 40
2.0
 10
27.78983582637842
 20
2.798339719737001
 30
0.0
 10
29.11459620893176
 20
3.171451471676022
 30
0.0
 10
31.79648266455489
 20
3.789093426875127
 30
0.0
 10
34.51860592358803
 20
4.223677452697515
 30
0.0
 10
35.89431836561543
 20
4.289667635103001
 30
0.0
  0
ARC
  5
163
330
1F
100
AcDbEntity
  8
DEFAULT
100
AcDbCircle
 10
35.56719258170098
 20
-2.362790137815878
 30
0.0
 40
3.647213306725817
100
AcDbArc
 50
91.82986493507237
 51
100.6689780756181
  0
LINE
  5
164
330
1F
100
AcDbEntity
  8
DEFAULT
100
AcDbLine
 10
34.89196732353541
 20
1.221374444829991
 30
0.0
 11
34.5860059596953
 21
1.163733999999991
 31
0.0
  0
SPLINE
  5
165
330
1F
100
AcDbEntity
  8
DEFAULT
100
AcDbSpline
210
0.0
220
0.0
230
1.0
 70
     8
 71
     3
 72
    16
 73
    12
 74
     0
 42
0.0000000001
 43
0.0000000001
 40
0.0
 40
0.0
 40
0.0
 40
0.0
 40
0.08036318855295
 40
0.1650120153995
 40
0.2570413384004
 40
0.3594431207832
 40
0.4745568832878
 40
0.6038766267263
 40
0.7478665488324
 40
0.9075021814449
 40
1.0
 40
1.0
 40
1.0
 40
1.0
 10
36.76716986294541
 20
1.791111326699991
 30
0.0
 10
36.83431513448544
 20
1.785033517439999
 30
0.0
 10
36.97199250472543
 20
1.770348232410001
 30
0.0
 10
37.18575265045543
 20
1.74177843631999
 30
0.0
 10
37.41709574295542
 20
1.705651732020002
 30
0.0
 10
37.67291553850542
 20
1.660923279480002
 30
0.0
 10
37.95876938740541
 20
1.60653292856999
 30
0.0
 10
38.27812404436541
 20
1.541695092599994
 30
0.0
 10
38.63332204906543
 20
1.465779704580001
 30
0.0
 10
38.95767730906543
 20
1.393427157219989
 30
0.0
 10
39.16383980507543
 20
1.346096263459998
 30
0.0
 10
39.23943468357542
 20
1.328568787189994
 30
0.0
  0
SPLINE
  5
166
330
1F
100
AcDbEntity
  8
DEFAULT
100
AcDbSpline
210
0.0
220
0.0
230
1.0
 70
     8
 71
     3
 72
     9
 73
     5
 74
     0
 42
0.0000000001
 43
0.0000000001
 40
0.0
 40
0.0
 40
0.0
 40
0.0
 40
0.4526822822758
 40
1.0
 40
1.0
 40
1.0
 40
1.0
 10
37.48003699342543
 20
1.164433499139989
 30
0.0
 10
37.29851669981541
 20
1.195015040589993
 30
0.0
 10
36.89622123174543
 20
1.254707246669994
 30
0.0
 10
36.48954073790541
 20
1.282563279769988
 30
0.0
 10
36.26701349487543
 20
1.282563279769988
 30
0.0
  0
ARC
  5
167
330
1F
100
AcDbEntity
  8
DEFAULT
100
AcDbCircle
 10
41.67976173909541
 20
0.9195819999999912
 30
0.0
 40
0.2441513887009997
100
AcDbArc
 50
330.0001053293284
 51
90.0
  0
SPLINE
  5
168
330
1F
100
AcDbEntity
  8
DEFAULT
100
AcDbSpline
210
0.0
220
0.0
230
1.0
 70
    24
 71
     2
 72
     6
 73
     3
 74
     0
 42
0.0000000001
 43
0.0000000001
 40
0.0
 40
0.0
 40
0.0
 40
1.0
 40
1.0
 40
1.0
 10
31.01662273909544
 20
0.797506999999996
 30
0.0
 10
31.05523973909543
 20
0.7306204999999935
 30
0.0
 10
31.09385673909541
 20
0.6637339999999909
 30
0.0
  0
SPLINE
  5
169
330
1F
100
AcDbEntity
  8
DEFAULT
100
AcDbSpline
210
0.0
220
0.0
230
1.0
 70
    24
 71
     2
 72
     6
 73
     3
 74
     0
 42
0.0000000001
 43
0.0000000001
 40
0.0
 40
0.0
 40
0.0
 40
1.0
 40
1.0
 40
1.0
 10
41.81396873909542
 20
0.6637339999999909
 30
0.0
 10
41.06311573909542
 20
0.6637339999999909
 30
0.0
 10
40.31226273909543
 20
0.6637339999999909
 30
0.0
  0
ARC
  5
16A
330
1F
100
AcDbEntity
  8
DEFAULT
100
AcDbCircle
 10
31.22806473909542
 20
0.9195819999999912
 30
0.0
 40
0.2441518217144169
100
AcDbArc
 50
90.0
 51
209.9997773345848
  0
SPLINE
  5
16B
330
1F
100
AcDbEntity
  8
DEFAULT
100
AcDbSpline
210
0.0
220
0.0
230
1.0
 70
    24
 71
     2
 72
     6
 73
     3
 74
     0
 42
0.0000000001
 43
0.0000000001
 40
0.0
 40
0.0
 40
0.0
 40
1.0
 40
1.0
 40
1.0
 10
35.45073073909542
 20
1.282562999999996
 30
0.0
 10
35.85887223909542
 20
1.282562999999996
 30
0.0
 10
36.26701373909542
 20
1.282562999999996
 30
0.0
  0
SPLINE
  5
16C
330
1F
100
AcDbEntity
  8
DEFAULT
100
AcDbSpline
210
0.0
220
0.0
230
1.0
 70
    24
 71
     2
 72
     6
 73
     3
 74
     0
 42
0.0000000001
 43
0.0000000001
 40
0.0
 40
0.0
 40
0.0
 40
1.0
 40
1.0
 40
1.0
 10
41.66757873909542
 20
1.163733999999991
 30
0.0
 10
40.98992073909542
 20
1.163733999999991
 30
0.0
 10
40.31226273909543
 20
1.163733999999991
 30
0.0
  0
SPLINE
  5
16D
330
1F
100
AcDbEntity
  8
DEFAULT
100
AcDbSpline
210
0.0
220
0.0
230
1.0
 70
    24
 71
     2
 72
     6
 73
     3
 74
     0
 42
0.0000000001
 43
0.0000000001
 40
0.0
 40
0.0
 40
0.0
 40
1.0
 40
1.0
 40
1.0
 10
27.23618773909543
 20
1.456693000000001
 30
0.0
 10
27.75698023909543
 20
1.456693000000001
 30
0.0
 10
28.27777273909543
 20
1.456693000000001
 30
0.0
  0
SPLINE
  5
16E
330
1F
100
AcDbEntity
  8
DEFAULT
100
AcDbSpline
210
0.0
220
0.0
230
1.0
 70
    24
 71
     2
 72
     6
 73
     3
 74
     0
 42
0.0000000001
 43
0.0000000001
 40
0.0
 40
0.0
 40
0.0
 40
1.0
 40
1.0
 40
1.0
 10
46.61305573909543
 20
1.574804
 30
0.0
 10
47.07890823909543
 20
1.574804
 30
0.0
 10
47.54476073909542
 20
1.574804
 30
0.0
  0
SPLINE
  5
16F
330
1F
100
AcDbEntity
  8
DEFAULT
100
AcDbSpline
210
0.0
220
0.0
230
1.0
 70
    24
 71
     2
 72
     6
 73
     3
 74
     0
 42
0.0000000001
 43
0.0000000001
 40
0.0
 40
0.0
 40
0.0
 40
1.0
 40
1.0
 40
1.0
 10
39.37760373909542
 20
1.279527999999999
 30
0.0
 10
39.37760373909542
 20
1.222747499999997
 30
0.0
 10
39.37760373909542
 20
1.165966999999995
 30
0.0
  0
ARC
  5
170
330
1F
100
AcDbEntity
  8
DEFAULT
100
AcDbCircle
 10
39.25505273909543
 20
1.441068000000001
 30
0.0
 40
0.015625
100
AcDbArc
 50
90.0
 51
180.0
  0
SPLINE
  5
171
330
1F
100
AcDbEntity
  8
DEFAULT
100
AcDbSpline
210
0.0
220
0.0
230
1.0
 70
    24
 71
     2
 72
     6
 73
     3
 74
     0
 42
0.0000000001
 43
0.0000000001
 40
0.0
 40
0.0
 40
0.0
 40
1.0
 40
1.0
 40
1.0
 10
40.31226273909543
 20
1.441068000000001
 30
0.0
 10
40.31226273909543
 20
0.9929814999999991
 30
0.0
 10
40.31226273909543
 20
0.5448949999999968
 30
0.0
  0
ARC
  5
172
330
1F
100
AcDbEntity
  8
DEFAULT
100
AcDbCircle
 10
40.07604373909543
 20
0.5448949999999968
 30
0.0
 40
0.2362201456744931
100
AcDbArc
 50
283.2478113805395
 51
359.9999999999999
  0
SPLINE
  5
173
330
1F
100
AcDbEntity
  8
DEFAULT
100
AcDbSpline
210
0.0
220
0.0
230
1.0
 70
     8
 71
     3
 72
     8
 73
     4
 74
     0
 42
0.0000000001
 43
0.0000000001
 40
0.0
 40
0.0
 40
0.0
 40
0.0
 40
0.9854228229731458
 40
0.9854228229731458
 40
0.9854228229731458
 40
0.9854228229731458
 10
30.29102763645842
 20
19.55780300489074
 30
0.0
 10
31.58399452108021
 20
19.53721208291989
 30
0.0
 10
33.37213990662873
 20
19.23901927697121
 30
0.0
 10
35.5806565401604
 20
17.75319599999999
 30
0.0
  0
SPLINE
  5
174
330
1F
100
AcDbEntity
  8
DEFAULT
100
AcDbSpline
210
0.0
220
0.0
230
1.0
 70
    24
 71
     2
 72
     6
 73
     3
 74
     0
 42
0.0000000001
 43
0.0000000001
 40
0.0
 40
0.0
 40
0.0
 40
1.0
 40
1.0
 40
1.0
 10
39.37760373909542
 20
1.279527999999999
 30
0.0
 10
39.11412623909543
 20
1.279527999999999
 30
0.0
 10
38.85064873909543
 20
1.279527999999999
 30
0.0
  0
POLYLINE
  5
175
330
1F
100
AcDbEntity
  8
DEFAULT
100
AcDb2dPolyline
 66
     1
 10
0.0
 20
0.0
 30
0.0
  0
VERTEX
  5
177
330
175
100
AcDbEntity
  8
DEFAULT
100
AcDbVertex
100
AcDb2dVertex
 10
35.57891273909543
 20
17.75319599999999
 30
0.0
  0
VERTEX
  5
178
330
175
100
AcDbEntity
  8
DEFAULT
100
AcDbVertex
100
AcDb2dVertex
 10
37.32891273909543
 20
17.75319599999999
 30
0.0
  0
SEQEND
  5
176
330
175
100
AcDbEntity
  8
DEFAULT
  0
SPLINE
  5
179
330
1F
100
AcDbEntity
  8
DEFAULT
100
AcDbSpline
210
0.0
220
0.0
230
1.0
 70
    24
 71
     2
 72
     6
 73
     3
 74
     0
 42
0.0000000001
 43
0.0000000001
 40
0.0
 40
0.0
 40
0.0
 40
1.0
 40
1.0
 40
1.0
 10
37.52891273909542
 20
10.84173399999999
 30
0.0
 10
37.52891273909542
 20
10.504234
 30
0.0
 10
37.52891273909542
 20
10.16673400000001
 30
0.0
  0
SPLINE
  5
17A
330
1F
100
AcDbEntity
  8
DEFAULT
100
AcDbSpline
210
0.0
220
0.0
230
1.0
 70
    24
 71
     2
 72
     6
 73
     3
 74
     0
 42
0.0000000001
 43
0.0000000001
 40
0.0
 40
0.0
 40
0.0
 40
1.0
 40
1.0
 40
1.0
 10
37.42891273909542
 20
10.941734
 30
0.0
 10
36.45391273909543
 20
10.941734
 30
0.0
 10
35.47891273909543
 20
10.941734
 30
0.0
  0
SPLINE
  5
17B
330
1F
100
AcDbEntity
  8
DEFAULT
100
AcDbSpline
210
0.0
220
0.0
230
1.0
 70
     8
 71
     3
 72
     9
 73
     5
 74
     0
 42
0.0000000001
 43
0.0000000001
 40
0.0
 40
0.0
 40
0.0
 40
0.0
 40
1.0
 40
2.0
 40
2.0
 40
2.0
 40
2.0
 10
28.24138773909543
 20
1.574804
 30
0.0
 10
28.25218098387272
 20
1.574990467893471
 30
0.0
 10
28.27367609121454
 20
1.58041636949865
 30
0.0
 10
28.29031209046916
 20
1.595120343005945
 30
0.0
 10
28.29652773909542
 20
1.603955999999997
 30
0.0
  0
SPLINE
  5
17C
330
1F
100
AcDbEntity
  8
DEFAULT
100
AcDbSpline
210
0.0
220
0.0
230
1.0
 70
     8
 71
     3
 72
     9
 73
     5
 74
     0
 42
0.0000000001
 43
0.0000000001
 40
0.0
 40
0.0
 40
0.0
 40
0.0
 40
1.0
 40
2.0
 40
2.0
 40
2.0
 40
2.0
 10
28.29652773909542
 20
1.603955999999997
 30
0.0
 10
28.34063553709483
 20
1.689077144698913
 30
0.0
 10
28.45933433733428
 20
1.845994617982839
 30
0.0
 10
28.63874056344419
 20
1.931692016828237
 30
0.0
 10
28.76872125633243
 20
1.948920408199996
 30
0.0
  0
SPLINE
  5
17D
330
1F
100
AcDbEntity
  8
DEFAULT
100
AcDbSpline
210
0.0
220
0.0
230
1.0
 70
    24
 71
     2
 72
     6
 73
     3
 74
     0
 42
0.0000000001
 43
0.0000000001
 40
0.0
 40
0.0
 40
0.0
 40
1.0
 40
1.0
 40
1.0
 10
35.45391273909543
 20
10.09173399999999
 30
0.0
 10
36.45391273909543
 20
10.09173399999999
 30
0.0
 10
37.45391273909543
 20
10.09173399999999
 30
0.0
  0
SPLINE
  5
17E
330
1F
100
AcDbEntity
  8
DEFAULT
100
AcDbSpline
210
0.0
220
0.0
230
1.0
 70
    24
 71
     2
 72
     6
 73
     3
 74
     0
 42
0.0000000001
 43
0.0000000001
 40
0.0
 40
0.0
 40
0.0
 40
1.0
 40
1.0
 40
1.0
 10
39.49041273909545
 20
1.574804
 30
0.0
 10
39.49041273909545
 20
1.515748500000001
 30
0.0
 10
39.49041273909545
 20
1.456693000000001
 30
0.0
  0
SPLINE
  5
17F
330
1F
100
AcDbEntity
  8
DEFAULT
100
AcDbSpline
210
0.0
220
0.0
230
1.0
 70
    24
 71
     2
 72
     6
 73
     3
 74
     0
 42
0.0000000001
 43
0.0000000001
 40
0.0
 40
0.0
 40
0.0
 40
1.0
 40
1.0
 40
1.0
 10
47.48934673909544
 20
1.574804
 30
0.0
 10
47.48934673909544
 20
1.515748500000001
 30
0.0
 10
47.48934673909544
 20
1.456693000000001
 30
0.0
  0
SPLINE
  5
180
330
1F
100
AcDbEntity
  8
DEFAULT
100
AcDbSpline
210
0.0
220
0.0
230
1.0
 70
     8
 71
     3
 72
     9
 73
     5
 74
     0
 42
0.0000000001
 43
0.0000000001
 40
0.0
 40
0.0
 40
0.0
 40
0.0
 40
1.0
 40
2.0
 40
2.0
 40
2.0
 40
2.0
 10
35.46191373909544
 20
4.308345222177593
 30
0.0
 10
34.08126220379459
 20
4.272404215957124
 30
0.0
 10
31.39152913149242
 20
3.849709083087419
 30
0.0
 10
28.74889909845693
 20
3.216641134994376
 30
0.0
 10
27.31865073909545
 20
2.797450999999995
 30
0.0
  0
SPLINE
  5
181
330
1F
100
AcDbEntity
  8
DEFAULT
100
AcDbSpline
210
0.0
220
0.0
230
1.0
 70
    24
 71
     2
 72
     6
 73
     3
 74
     0
 42
0.0000000001
 43
0.0000000001
 40
0.0
 40
0.0
 40
0.0
 40
1.0
 40
1.0
 40
1.0
 10
27.31864573909543
 20
2.797449
 30
0.0
 10
27.31864823909544
 20
2.797449999999998
 30
0.0
 10
27.31865073909545
 20
2.797450999999995
 30
0.0
  0
SPLINE
  5
182
330
1F
100
AcDbEntity
  8
DEFAULT
100
AcDbSpline
210
0.0
220
0.0
230
1.0
 70
    24
 71
     2
 72
     6
 73
     3
 74
     0
 42
0.0000000001
 43
0.0000000001
 40
0.0
 40
0.0
 40
0.0
 40
1.0
 40
1.0
 40
1.0
 10
36.06758573909543
 20
4.007722000000001
 30
0.0
 10
36.06565823909544
 20
4.117683
 30
0.0
 10
36.06373073909545
 20
4.227643999999998
 30
0.0
  0
CIRCLE
  5
183
330
1F
100
AcDbEntity
  8
DEFAULT
100
AcDbCircle
 10
38.85064873909543
 20
0.0
 30
0.0
 40
1.279528000000001
  0
SPLINE
  5
184
330
1F
100
AcDbEntity
  8
DEFAULT
100
AcDbSpline
210
0.0
220
0.0
230
1.0
 70
    24
 71
     2
 72
     6
 73
     3
 74
     0
 42
0.0000000001
 43
0.0000000001
 40
0.0
 40
0.0
 40
0.0
 40
1.0
 40
1.0
 40
1.0
 10
28.29339773909543
 20
1.441068000000001
 30
0.0
 10
28.29339773909543
 20
0.9929814999999991
 30
0.0
 10
28.29339773909543
 20
0.5448949999999968
 30
0.0
  0
SPLINE
  5
185
330
1F
100
AcDbEntity
  8
DEFAULT
100
AcDbSpline
210
0.0
220
0.0
230
1.0
 70
    24
 71
     2
 72
     6
 73
     3
 74
     0
 42
0.0000000001
 43
0.0000000001
 40
0.0
 40
0.0
 40
0.0
 40
1.0
 40
1.0
 40
1.0
 10
28.11131173909543
 20
0.3149609999999967
 30
0.0
 10
28.11131173909543
 20
0.1574804999999984
 30
0.0
 10
28.11131173909543
 20
0.0
 30
0.0
  0
SPLINE
  5
186
330
1F
100
AcDbEntity
  8
DEFAULT
100
AcDbSpline
210
0.0
220
0.0
230
1.0
 70
    24
 71
     2
 72
     6
 73
     3
 74
     0
 42
0.0000000001
 43
0.0000000001
 40
0.0
 40
0.0
 40
0.0
 40
1.0
 40
1.0
 40
1.0
 10
39.25505273909543
 20
1.456693000000001
 30
0.0
 10
39.77584523909543
 20
1.456693000000001
 30
0.0
 10
40.29663773909543
 20
1.456693000000001
 30
0.0
  0
LINE
  5
187
330
1F
100
AcDbEntity
  8
DEFAULT
100
AcDbLine
 10
37.44114177245417
 20
4.308661999999998
 30
0.0
 11
35.46991373909545
 21
4.308661999999998
 31
0.0
  0
ARC
  5
188
330
1F
100
AcDbEntity
  8
DEFAULT
100
AcDbCircle
 10
38.54409150959528
 20
1.695055056010403
 30
0.0
 40
0.7499957291095208
100
AcDbArc
 50
126.1124709469619
 51
140.000094432965
  0
SPLINE
  5
189
330
1F
100
AcDbEntity
  8
DEFAULT
100
AcDbSpline
210
0.0
220
0.0
230
1.0
 70
    24
 71
     2
 72
     6
 73
     3
 74
     0
 42
0.0000000001
 43
0.0000000001
 40
-1.0
 40
-1.0
 40
-1.0
 40
0.0
 40
0.0
 40
0.0
 10
37.96956065438768
 20
2.17714207107818
 30
0.0
 10
37.83222819674155
 20
2.013476035539085
 30
0.0
 10
37.69489573909543
 20
1.849809999999991
 30
0.0
  0
SPLINE
  5
18A
330
1F
100
AcDbEntity
  8
DEFAULT
100
AcDbSpline
210
0.0
220
0.0
230
1.0
 70
     8
 71
     5
 72
    12
 73
     6
 74
     0
 42
0.0000000001
 43
0.0000000001
 40
0.0
 40
0.0
 40
0.0
 40
0.0
 40
0.0
 40
0.0
 40
1.0
 40
1.0
 40
1.0
 40
1.0
 40
1.0
 40
1.0
 10
37.69489573909543
 20
1.849809999999991
 30
0.0
 10
37.6872892580552
 20
1.840744971836983
 30
0.0
 10
37.67968277701497
 20
1.831679943673976
 30
0.0
 10
37.6649388715294
 20
1.824804023785589
 30
0.0
 10
37.65310530531242
 20
1.82480402365708
 30
0.0
 10
37.64127173909544
 20
1.824804023528571
 30
0.0
  0
POLYLINE
  5
18B
330
1F
100
AcDbEntity
  8
DEFAULT
100
AcDb2dPolyline
 66
     1
 10
0.0
 20
0.0
 30
0.0
  0
VERTEX
  5
18D
330
18B
100
AcDbEntity
  8
DEFAULT
100
AcDbVertex
100
AcDb2dVertex
 10
37.64127173909544
 20
1.824804023528571
 30
0.0
  0
VERTEX
  5
18E
330
18B
100
AcDbEntity
  8
DEFAULT
100
AcDbVertex
100
AcDb2dVertex
 10
35.4745940569499
 20
1.824804
 30
0.0
  0
SEQEND
  5
18C
330
18B
100
AcDbEntity
  8
DEFAULT
  0
SPLINE
  5
18F
330
1F
100
AcDbEntity
  8
DEFAULT
100
AcDbSpline
210
0.0
220
0.0
230
1.0
 70
     8
 71
     5
 72
    12
 73
     6
 74
     0
 42
0.0000000001
 43
0.0000000001
 40
-1.0
 40
-1.0
 40
-1.0
 40
-1.0
 40
-1.0
 40
-1.0
 40
0.0
 40
0.0
 40
0.0
 40
0.0
 40
0.0
 40
0.0
 10
35.4745940569499
 20
1.824804
 30
0.0
 10
35.46476567378134
 20
1.824803999893263
 30
0.0
 10
35.45493729061276
 20
1.824803999786539
 30
0.0
 10
35.44430964407142
 20
1.834292244106521
 30
0.0
 10
35.43827210552415
 20
1.842048500978152
 30
0.0
 10
35.43232973909544
 20
1.849876999999992
 30
0.0
  0
SPLINE
  5
190
330
1F
100
AcDbEntity
  8
DEFAULT
100
AcDbSpline
210
0.0
220
0.0
230
1.0
 70
     8
 71
     3
 72
     9
 73
     5
 74
     0
 42
0.0000000001
 43
0.0000000001
 40
-2.0
 40
-2.0
 40
-2.0
 40
-2.0
 40
-1.0
 40
0.0
 40
0.0
 40
0.0
 40
0.0
 10
35.43232973909544
 20
1.849876999999992
 30
0.0
 10
35.33595316384366
 20
1.976843913625686
 30
0.0
 10
35.20231643947669
 20
2.277656347947797
 30
0.0
 10
34.90501203395745
 20
2.449455917370571
 30
0.0
 10
34.74145937615545
 20
2.444418629514999
 30
0.0
  0
SPLINE
  5
191
330
1F
100
AcDbEntity
  8
DEFAULT
100
AcDbSpline
210
0.0
220
0.0
230
1.0
 70
     8
 71
     3
 72
     9
 73
     5
 74
     0
 42
0.0000000001
 43
0.0000000001
 40
0.0
 40
0.0
 40
0.0
 40
0.0
 40
1.0
 40
2.0
 40
2.0
 40
2.0
 40
2.0
 10
35.88690773909543
 20
3.920968999999999
 30
0.0
 10
35.92933312997103
 20
3.922976362295472
 30
0.0
 10
36.01423629157107
 20
3.924811059239104
 30
0.0
 10
36.09922347751159
 20
3.924591205705553
 30
0.0
 10
36.14158573909545
 20
3.921478999999991
 30
0.0
  0
ARC
  5
192
330
1F
100
AcDbEntity
  8
DEFAULT
100
AcDbCircle
 10
38.85064873909543
 20
0.0
 30
0.0
 40
1.279527939310224
100
AcDbArc
 50
15.76206956729274
 51
18.5756033351671
  0
SPLINE
  5
193
330
1F
100
AcDbEntity
  8
DEFAULT
100
AcDbSpline
210
0.0
220
0.0
230
1.0
 70
     8
 71
     3
 72
     8
 73
     4
 74
     0
 42
0.0000000001
 43
0.0000000001
 40
0.0
 40
0.0
 40
0.0
 40
0.0
 40
1.0
 40
1.0
 40
1.0
 40
1.0
 10
38.70299951245543
 20
3.861587137371998
 30
0.0
 10
41.39922732536711
 20
3.621108403511144
 30
0.0
 10
44.07389411387648
 20
3.167885469616422
 30
0.0
 10
46.71669020755543
 20
2.586168322741003
 30
0.0
  0
ARC
  5
194
330
1F
100
AcDbEntity
  8
DEFAULT
100
AcDbCircle
 10
40.29663773909543
 20
1.441068000000001
 30
0.0
 40
0.015625
100
AcDbArc
 50
0.0
 51
90.0
  0
SPLINE
  5
195
330
1F
100
AcDbEntity
  8
DEFAULT
100
AcDbSpline
210
0.0
220
0.0
230
1.0
 70
    24
 71
     2
 72
     6
 73
     3
 74
     0
 42
0.0000000001
 43
0.0000000001
 40
0.0
 40
0.0
 40
0.0
 40
1.0
 40
1.0
 40
1.0
 10
40.13017673909543
 20
0.3149609999999967
 30
0.0
 10
40.13017673909543
 20
0.1574804999999984
 30
0.0
 10
40.13017673909543
 20
0.0
 30
0.0
  0
CIRCLE
  5
196
330
1F
100
AcDbEntity
  8
DEFAULT
100
AcDbCircle
 10
38.85064873909543
 20
0.0
 30
0.0
 40
1.0
  0
ARC
  5
197
330
1F
100
AcDbEntity
  8
DEFAULT
100
AcDbCircle
 10
31.58078826574489
 20
-65.37724701432583
 30
0.0
 40
70.00000232123381
100
AcDbArc
 50
76.77588180357931
 51
83.00237981337082
  0
ARC
  5
198
330
1F
100
AcDbEntity
  8
DEFAULT
100
AcDbCircle
 10
36.45391383951683
 20
-25.67519294001684
 30
0.0
 40
29.99999668902039
100
AcDbArc
 50
83.00238018814096
 51
88.12036129383938
  0
LINE
  5
199
330
1F
100
AcDbEntity
  8
DEFAULT
100
AcDbLine
 10
37.72121973909542
 20
1.793734000000001
 30
0.0
 11
35.16690387988898
 21
1.793733999999986
 31
0.0
  0
LINE
  5
19A
330
1F
100
AcDbEntity
  8
DEFAULT
100
AcDbLine
 10
35.16690387988898
 20
1.793733999999986
 30
0.0
 11
34.83965073909543
 21
1.722494999999995
 31
0.0
  0
SPLINE
  5
19B
330
1F
100
AcDbEntity
  8
DEFAULT
100
AcDbSpline
210
0.0
220
0.0
230
1.0
 70
    24
 71
     2
 72
     6
 73
     3
 74
     0
 42
0.0000000001
 43
0.0000000001
 40
1.0
 40
1.0
 40
1.0
 40
2.0
 40
2.0
 40
2.0
 10
34.83965073909543
 20
1.722494999999995
 30
0.0
 10
34.73227073909543
 20
1.697690999999992
 30
0.0
 10
34.62489073909542
 20
1.672886999999989
 30
0.0
  0
SPLINE
  5
19C
330
1F
100
AcDbEntity
  8
DEFAULT
100
AcDbSpline
210
0.0
220
0.0
230
1.0
 70
    24
 71
     2
 72
     6
 73
     3
 74
     0
 42
0.0000000001
 43
0.0000000001
 40
2.0
 40
2.0
 40
2.0
 40
3.0
 40
3.0
 40
3.0
 10
34.62489073909542
 20
1.672886999999989
 30
0.0
 10
34.51133123909543
 20
1.644906499999991
 30
0.0
 10
34.39777173909543
 20
1.616925999999992
 30
0.0
  0
SPLINE
  5
19D
330
1F
100
AcDbEntity
  8
DEFAULT
100
AcDbSpline
210
0.0
220
0.0
230
1.0
 70
    24
 71
     2
 72
     6
 73
     3
 74
     0
 42
0.0000000001
 43
0.0000000001
 40
3.0
 40
3.0
 40
3.0
 40
4.0
 40
4.0
 40
4.0
 10
34.39777173909543
 20
1.616925999999992
 30
0.0
 10
34.27765373909543
 20
1.586403999999995
 30
0.0
 10
34.15753573909542
 20
1.555881999999997
 30
0.0
  0
SPLINE
  5
19E
330
1F
100
AcDbEntity
  8
DEFAULT
100
AcDbSpline
210
0.0
220
0.0
230
1.0
 70
    24
 71
     2
 72
     6
 73
     3
 74
     0
 42
0.0000000001
 43
0.0000000001
 40
4.0
 40
4.0
 40
4.0
 40
5.0
 40
5.0
 40
5.0
 10
34.15753573909542
 20
1.555881999999997
 30
0.0
 10
34.03049923909542
 20
1.523238999999997
 30
0.0
 10
33.90346273909542
 20
1.490595999999996
 30
0.0
  0
SPLINE
  5
19F
330
1F
100
AcDbEntity
  8
DEFAULT
100
AcDbSpline
210
0.0
220
0.0
230
1.0
 70
    24
 71
     2
 72
     6
 73
     3
 74
     0
 42
0.0000000001
 43
0.0000000001
 40
5.0
 40
5.0
 40
5.0
 40
6.0
 40
6.0
 40
6.0
 10
33.90346273909542
 20
1.490595999999996
 30
0.0
 10
33.76925623909543
 20
1.456132999999994
 30
0.0
 10
33.63504973909544
 20
1.421669999999992
 30
0.0
  0
SPLINE
  5
1A0
330
1F
100
AcDbEntity
  8
DEFAULT
100
AcDbSpline
210
0.0
220
0.0
230
1.0
 70
    24
 71
     2
 72
     6
 73
     3
 74
     0
 42
0.0000000001
 43
0.0000000001
 40
6.0
 40
6.0
 40
6.0
 40
7.0
 40
7.0
 40
7.0
 10
33.63504973909544
 20
1.421669999999992
 30
0.0
 10
33.49348323909543
 20
1.38560249999999
 30
0.0
 10
33.35191673909542
 20
1.349534999999989
 30
0.0
  0
SPLINE
  5
1A1
330
1F
100
AcDbEntity
  8
DEFAULT
100
AcDbSpline
210
0.0
220
0.0
230
1.0
 70
    24
 71
     2
 72
     6
 73
     3
 74
     0
 42
0.0000000001
 43
0.0000000001
 40
7.0
 40
7.0
 40
7.0
 40
8.0
 40
8.0
 40
8.0
 10
33.35191673909542
 20
1.349534999999989
 30
0.0
 10
33.21315873909542
 20
1.314604999999993
 30
0.0
 10
33.07440073909542
 20
1.279674999999997
 30
0.0
  0
LINE
  5
1A2
330
1F
100
AcDbEntity
  8
DEFAULT
100
AcDbLine
 10
33.07440073909542
 20
1.279674999999997
 30
0.0
 11
32.61382984651026
 21
1.163733999999991
 31
0.0
  0
ARC
  5
1A3
330
1F
100
AcDbEntity
  8
DEFAULT
100
AcDbCircle
 10
45.92512573909544
 20
1.198538999999997
 30
0.0
 40
0.7499999902752901
100
AcDbArc
 50
32.97175451880211
 51
83.77637330541374
  0
SPLINE
  5
1A4
330
1F
100
AcDbEntity
  8
DEFAULT
100
AcDbSpline
210
0.0
220
0.0
230
1.0
 70
     8
 71
     3
 72
     9
 73
     5
 74
     0
 42
0.0000000001
 43
0.0000000001
 40
0.0
 40
0.0
 40
0.0
 40
0.0
 40
1.0
 40
2.0
 40
2.0
 40
2.0
 40
2.0
 10
27.78983582637842
 20
2.798339719737001
 30
0.0
 10
27.71339350709185
 20
2.775795252672452
 30
0.0
 10
27.55476231550405
 20
2.764994933903381
 30
0.0
 10
27.39633201757663
 20
2.765340678883916
 30
0.0
 10
27.31712727971343
 20
2.768676004816996
 30
0.0
  0
ARC
  5
1A5
330
1F
100
AcDbEntity
  8
DEFAULT
100
AcDbCircle
 10
47.58223273909543
 20
2.707682999999989
 30
0.0
 40
0.0599999500611571
100
AcDbArc
 50
357.999956196089
 51
76.7746261113896
  0
CIRCLE
  5
1A6
330
1F
100
AcDbEntity
  8
DEFAULT
100
AcDbCircle
 10
26.83178373909543
 20
0.0
 30
0.0
 40
1.279528000000001
  0
SPLINE
  5
1A7
330
1F
100
AcDbEntity
  8
DEFAULT
100
AcDbSpline
210
0.0
220
0.0
230
1.0
 70
    24
 71
     2
 72
     6
 73
     3
 74
     0
 42
0.0000000001
 43
0.0000000001
 40
0.0
 40
0.0
 40
0.0
 40
1.0
 40
1.0
 40
1.0
 10
27.47154773909544
 20
1.574804
 30
0.0
 10
27.47154773909544
 20
1.515748500000001
 30
0.0
 10
27.47154773909544
 20
1.456693000000001
 30
0.0
  0
SPLINE
  5
1A8
330
1F
100
AcDbEntity
  8
DEFAULT
100
AcDbSpline
210
0.0
220
0.0
230
1.0
 70
     8
 71
     3
 72
     9
 73
     5
 74
     0
 42
0.0000000001
 43
0.0000000001
 40
0.0
 40
0.0
 40
0.0
 40
0.0
 40
1.0
 40
2.0
 40
2.0
 40
2.0
 40
2.0
 10
39.21448073909544
 20
2.600594999999998
 30
0.0
 10
38.74329806998453
 20
2.907365886724548
 30
0.0
 10
37.75608684013442
 20
3.440933014300441
 30
0.0
 10
36.7024632091596
 20
3.854815095616431
 30
0.0
 10
36.14158573909545
 20
3.921478999999991
 30
0.0
  0
ARC
  5
1A9
330
1F
100
AcDbEntity
  8
DEFAULT
100
AcDbCircle
 10
27.23618773909543
 20
1.441068000000001
 30
0.0
 40
0.015625
100
AcDbArc
 50
90.0
 51
180.0
  0
SPLINE
  5
1AA
330
1F
100
AcDbEntity
  8
DEFAULT
100
AcDbSpline
210
0.0
220
0.0
230
1.0
 70
     8
 71
     3
 72
     9
 73
     5
 74
     0
 42
0.0000000001
 43
0.0000000001
 40
0.0
 40
0.0
 40
0.0
 40
0.0
 40
1.0
 40
2.0
 40
2.0
 40
2.0
 40
2.0
 10
35.88691073909543
 20
3.920969999999997
 30
0.0
 10
34.61481708331478
 20
3.861311733474992
 30
0.0
 10
32.09688753400714
 20
3.469277630728996
 30
0.0
 10
29.61273615104126
 20
2.917788578833225
 30
0.0
 10
28.38395473909544
 20
2.587086999999997
 30
0.0
  0
SPLINE
  5
1AB
330
1F
100
AcDbEntity
  8
DEFAULT
100
AcDbSpline
210
0.0
220
0.0
230
1.0
 70
    24
 71
     2
 72
     6
 73
     3
 74
     0
 42
0.0000000001
 43
0.0000000001
 40
0.0
 40
0.0
 40
0.0
 40
1.0
 40
1.0
 40
1.0
 10
28.04241373909544
 20
1.574804
 30
0.0
 10
28.04241373909544
 20
1.515748500000001
 30
0.0
 10
28.04241373909544
 20
1.456693000000001
 30
0.0
  0
SPLINE
  5
1AC
330
1F
100
AcDbEntity
  8
DEFAULT
100
AcDbSpline
210
0.0
220
0.0
230
1.0
 70
     8
 71
     3
 72
    10
 73
     6
 74
     0
 42
0.0000000001
 43
0.0000000001
 40
0.0
 40
0.0
 40
0.0
 40
0.0
 40
0.3415628690301
 40
0.6759514705783
 40
1.0
 40
1.0
 40
1.0
 40
1.0
 10
36.06373066955543
 20
4.227643913922989
 30
0.0
 10
36.06353364804544
 20
4.238039358083995
 30
0.0
 10
36.06834589610544
 20
4.259064678979996
 30
0.0
 10
36.08930920072542
 20
4.282866337741993
 30
0.0
 10
36.10954208981543
 20
4.289386926784999
 30
0.0
 10
36.11940229976544
 20
4.289666319490991
 30
0.0
  0
SPLINE
  5
1AD
330
1F
100
AcDbEntity
  8
DEFAULT
100
AcDbSpline
210
0.0
220
0.0
230
1.0
 70
    24
 71
     2
 72
     6
 73
     3
 74
     0
 42
0.0000000001
 43
0.0000000001
 40
0.0
 40
0.0
 40
0.0
 40
1.0
 40
1.0
 40
1.0
 10
27.35873873909544
 20
1.279527999999999
 30
0.0
 10
27.35873873909544
 20
1.222747499999997
 30
0.0
 10
27.35873873909544
 20
1.165966999999995
 30
0.0
  0
SPLINE
  5
1AE
330
1F
100
AcDbEntity
  8
DEFAULT
100
AcDbSpline
210
0.0
220
0.0
230
1.0
 70
    24
 71
     2
 72
     6
 73
     3
 74
     0
 42
0.0000000001
 43
0.0000000001
 40
0.0
 40
0.0
 40
0.0
 40
1.0
 40
1.0
 40
1.0
 10
46.80567073909545
 20
1.279527999999999
 30
0.0
 10
46.80567073909545
 20
1.222747499999997
 30
0.0
 10
46.80567073909545
 20
1.165966999999995
 30
0.0
  0
ARC
  5
1AF
330
1F
100
AcDbEntity
  8
DEFAULT
100
AcDbCircle
 10
36.75870398326258
 20
1.877652713152287
 30
0.0
 40
0.0704776720462187
100
AcDbArc
 50
311.4208952918182
 51
336.7301367228033
  0
SPLINE
  5
1B0
330
1F
100
AcDbEntity
  8
DEFAULT
100
AcDbSpline
210
0.0
220
0.0
230
1.0
 70
     8
 71
     3
 72
    14
 73
    10
 74
     0
 42
0.0000000001
 43
0.0000000001
 40
0.0
 40
0.0
 40
0.0
 40
0.0
 40
1.0
 40
2.0
 40
3.0
 40
4.0
 40
5.0
 40
6.0
 40
7.0
 40
7.0
 40
7.0
 40
7.0
 10
36.82344860011544
 20
1.849809637790003
 30
0.0
 10
36.83662288925653
 20
1.880444339296545
 30
0.0
 10
36.85226236022756
 20
1.945196222786706
 30
0.0
 10
36.87768587667735
 20
2.041594192016959
 30
0.0
 10
36.90272542049011
 20
2.138110943301072
 30
0.0
 10
36.9273365368678
 20
2.234882391560603
 30
0.0
 10
36.96319385011965
 20
2.327965604747689
 30
0.0
 10
37.01293802470697
 20
2.41568960462962
 30
0.0
 10
37.07517433935335
 20
2.451339779670235
 30
0.0
 10
37.10947073909544
 20
2.443497999999991
 30
0.0
  0
SPLINE
  5
1B1
330
1F
100
AcDbEntity
  8
DEFAULT
100
AcDbSpline
210
0.0
220
0.0
230
1.0
 70
    24
 71
     2
 72
     6
 73
     3
 74
     0
 42
0.0000000001
 43
0.0000000001
 40
0.0
 40
0.0
 40
0.0
 40
1.0
 40
1.0
 40
1.0
 10
47.60472773909542
 20
1.632709999999989
 30
0.0
 10
47.62346073909544
 20
2.169149499999989
 30
0.0
 10
47.64219373909545
 20
2.705588999999989
 30
0.0
  0
SPLINE
  5
1B2
330
1F
100
AcDbEntity
  8
DEFAULT
100
AcDbSpline
210
0.0
220
0.0
230
1.0
 70
     8
 71
     3
 72
     9
 73
     5
 74
     0
 42
0.0000000001
 43
0.0000000001
 40
0.0
 40
0.0
 40
0.0
 40
0.0
 40
1.0
 40
2.0
 40
2.0
 40
2.0
 40
2.0
 10
36.11940228511544
 20
4.289667635103001
 30
0.0
 10
36.08198347120909
 20
4.29273710935432
 30
0.0
 10
36.00685793335525
 20
4.293024460417243
 30
0.0
 10
35.93181601118978
 20
4.291477952912444
 30
0.0
 10
35.89431836561543
 20
4.289667635103001
 30
0.0
  0
ARC
  5
1B3
330
1F
100
AcDbEntity
  8
DEFAULT
100
AcDbCircle
 10
27.33442589051633
 20
1.634804006800664
 30
0.0
 40
0.0599998623429707
100
AcDbArc
 50
182.5715586997539
 51
270.0041525966931
  0
SPLINE
  5
1B4
330
1F
100
AcDbEntity
  8
DEFAULT
100
AcDbSpline
210
0.0
220
0.0
230
1.0
 70
    24
 71
     2
 72
     6
 73
     3
 74
     0
 42
0.0000000001
 43
0.0000000001
 40
0.0
 40
0.0
 40
0.0
 40
1.0
 40
1.0
 40
1.0
 10
27.33443023909543
 20
1.574804144615271
 30
0.0
 10
27.78789048909543
 20
1.574804072307636
 30
0.0
 10
28.24135073909544
 20
1.574804
 30
0.0
  0
SPLINE
  5
1B5
330
1F
100
AcDbEntity
  8
DEFAULT
100
AcDbSpline
210
0.0
220
0.0
230
1.0
 70
     8
 71
     3
 72
     9
 73
     5
 74
     0
 42
0.0000000001
 43
0.0000000001
 40
-2.0
 40
-2.0
 40
-2.0
 40
-2.0
 40
-1.0
 40
0.0
 40
0.0
 40
0.0
 40
0.0
 10
24.18250394150719
 20
34.05837183386609
 30
0.0
 10
24.47669560787385
 20
34.12320243357178
 30
0.0
 10
25.07985073423693
 20
34.16060785545089
 30
0.0
 10
25.68187796665894
 20
34.11665495887475
 30
0.0
 10
25.97545206478718
 20
34.04710821406609
 30
0.0
  0
LINE
  5
1B6
330
1F
100
AcDbEntity
  8
DEFAULT
100
AcDbLine
 10
25.97545206478718
 20
34.04710821406609
 30
0.0
 11
25.97713987016634
 21
34.04670837848542
 31
0.0
  0
LINE
  5
1B7
330
1F
100
AcDbEntity
  8
DEFAULT
100
AcDbLine
 10
25.97713987016634
 20
34.04670837848542
 30
0.0
 11
25.9945147390972
 21
34.04374386707609
 31
0.0
  0
SPLINE
  5
1B8
330
1F
100
AcDbEntity
  8
DEFAULT
100
AcDbSpline
210
0.0
220
0.0
230
1.0
 70
     8
 71
     3
 72
     9
 73
     5
 74
     0
 42
0.0000000001
 43
0.0000000001
 40
-2.0
 40
-2.0
 40
-2.0
 40
-2.0
 40
-0.9999429395690957
 40
0.0
 40
0.0
 40
0.0
 40
0.0
 10
25.9945147390972
 20
34.04374386707609
 30
0.0
 10
26.29340327284784
 20
33.99274731153675
 30
0.0
 10
26.8727269324459
 20
33.81329795280328
 30
0.0
 10
27.43381836237135
 20
33.58557600229446
 30
0.0
 10
27.71154773909718
 20
33.46545336707609
 30
0.0
  0
SPLINE
  5
1B9
330
1F
100
AcDbEntity
  8
DEFAULT
100
AcDbSpline
210
0.0
220
0.0
230
1.0
 70
     8
 71
     3
 72
     9
 73
     5
 74
     0
 42
0.0000000001
 43
0.0000000001
 40
-2.0
 40
-2.0
 40
-2.0
 40
-2.0
 40
-1.00005893379362
 40
0.0
 40
0.0
 40
0.0
 40
0.0
 10
27.71154773909718
 20
33.46545336707609
 30
0.0
 10
27.9812692432436
 20
33.34654202224496
 30
0.0
 10
28.48195628214201
 20
32.99560976139837
 30
0.0
 10
28.72042960879035
 20
32.42335615123322
 30
0.0
 10
28.7331882390972
 20
32.12683686707609
 30
0.0
  0
SPLINE
  5
1BA
330
1F
100
AcDbEntity
  8
DEFAULT
100
AcDbSpline
210
0.0
220
0.0
230
1.0
 70
     8
 71
     3
 72
     9
 73
     5
 74
     0
 42
0.0000000001
 43
0.0000000001
 40
-2.0
 40
-2.0
 40
-2.0
 40
-2.0
 40
-0.9999994986387554
 40
0.0
 40
0.0
 40
0.0
 40
0.0
 10
28.7331882390972
 20
32.12683686707609
 30
0.0
 10
28.75463434942527
 20
31.70210210091899
 30
0.0
 10
28.79729906617423
 20
30.85236497742527
 30
0.0
 10
28.88013885579123
 20
30.00560351477117
 30
0.0
 10
28.91271273909719
 20
29.58157286707609
 30
0.0
  0
SPLINE
  5
1BB
330
1F
100
AcDbEntity
  8
DEFAULT
100
AcDbSpline
210
0.0
220
0.0
230
1.0
 70
     8
 71
     3
 72
     9
 73
     5
 74
     0
 42
0.0000000001
 43
0.0000000001
 40
-2.0
 40
-2.0
 40
-2.0
 40
-2.0
 40
-1.0
 40
0.0
 40
0.0
 40
0.0
 40
0.0
 10
28.91271273909719
 20
29.58157286707609
 30
0.0
 10
28.92065724827795
 20
29.41935170671381
 30
0.0
 10
28.92977016570451
 20
29.07790861470521
 30
0.0
 10
28.73588115987754
 20
28.79265117490891
 30
0.0
 10
28.60705773909719
 20
28.69047286707608
 30
0.0
  0
LINE
  5
1BC
330
1F
100
AcDbEntity
  8
DEFAULT
100
AcDbLine
 10
28.60705773909719
 20
28.69047286707608
 30
0.0
 11
28.56191562723934
 21
28.6546676961398
 31
0.0
  0
LINE
  5
1BD
330
1F
100
AcDbEntity
  8
DEFAULT
100
AcDbLine
 10
28.56191562723934
 20
28.6546676961398
 30
0.0
 11
28.53946996334717
 21
28.63287609750608
 31
0.0
  0
SPLINE
  5
1BE
330
1F
100
AcDbEntity
  8
DEFAULT
100
AcDbSpline
210
0.0
220
0.0
230
1.0
 70
     8
 71
     3
 72
     9
 73
     5
 74
     0
 42
0.0000000001
 43
0.0000000001
 40
-2.0
 40
-2.0
 40
-2.0
 40
-2.0
 40
-1.0
 40
0.0
 40
0.0
 40
0.0
 40
0.0
 10
28.53946996334717
 20
28.63287609750608
 30
0.0
 10
28.33152343232022
 20
28.43098911554013
 30
0.0
 10
27.78367460257742
 20
28.19835012247935
 30
0.0
 10
27.20295223762029
 20
28.19914284056128
 30
0.0
 10
26.91611167207718
 20
28.21213203028609
 30
0.0
  0
SPLINE
  5
1BF
330
1F
100
AcDbEntity
  8
DEFAULT
100
AcDbSpline
210
0.0
220
0.0
230
1.0
 70
     8
 71
     3
 72
     9
 73
     5
 74
     0
 42
0.0000000001
 43
0.0000000001
 40
-2.0
 40
-2.0
 40
-2.0
 40
-2.0
 40
-1.0
 40
0.0
 40
0.0
 40
0.0
 40
0.0
 10
25.8468107384672
 20
23.49749952873609
 30
0.0
 10
25.80506240882143
 20
23.51598167439977
 30
0.0
 10
25.78472141696265
 20
23.60990786947383
 30
0.0
 10
25.77506236517864
 20
23.69357252693362
 30
0.0
 10
25.77503687114718
 20
23.74296170762608
 30
0.0
  0
SPLINE
  5
1C0
330
1F
100
AcDbEntity
  8
DEFAULT
100
AcDbSpline
210
0.0
220
0.0
230
1.0
 70
     8
 71
     3
 72
     9
 73
     5
 74
     0
 42
0.0000000001
 43
0.0000000001
 40
0.0
 40
0.0
 40
0.0
 40
0.0
 40
1.000000508007676
 40
2.0
 40
2.0
 40
2.0
 40
2.0
 10
25.77503687114718
 20
23.74296170762608
 30
0.0
 10
25.814804591346
 20
24.53069782916846
 30
0.0
 10
25.90093209792788
 20
26.08767985919697
 30
0.0
 10
26.3324265565342
 20
27.65807858703093
 30
0.0
 10
26.91610819817218
 20
28.21213212696108
 30
0.0
  0
SPLINE
  5
1C1
330
1F
100
AcDbEntity
  8
DEFAULT
100
AcDbSpline
210
0.0
220
0.0
230
1.0
 70
     8
 71
     3
 72
     9
 73
     5
 74
     0
 42
0.0000000001
 43
0.0000000001
 40
0.0
 40
0.0
 40
0.0
 40
0.0
 40
0.9999985642876146
 40
2.0
 40
2.0
 40
2.0
 40
2.0
 10
26.91610819817218
 20
28.21213212696108
 30
0.0
 10
27.09010723774348
 20
28.37367139402052
 30
0.0
 10
27.61738276523563
 20
28.56478597450149
 30
0.0
 10
27.6138132651249
 20
29.1414600220476
 30
0.0
 10
27.64842526338718
 20
29.36943775506609
 30
0.0
  0
SPLINE
  5
1C2
330
1F
100
AcDbEntity
  8
DEFAULT
100
AcDbSpline
210
0.0
220
0.0
230
1.0
 70
     8
 71
     3
 72
     9
 73
     5
 74
     0
 42
0.0000000001
 43
0.0000000001
 40
0.0
 40
0.0
 40
0.0
 40
0.0
 40
0.9999999089585676
 40
2.0
 40
2.0
 40
2.0
 40
2.0
 10
27.64842526338718
 20
29.36943775506609
 30
0.0
 10
27.65764235731136
 20
29.82436453359973
 30
0.0
 10
27.63487809900384
 20
30.73472280737938
 30
0.0
 10
27.59092035486161
 20
31.64382996477771
 30
0.0
 10
27.56841833192219
 20
32.09842133625109
 30
0.0
  0
SPLINE
  5
1C3
330
1F
100
AcDbEntity
  8
DEFAULT
100
AcDbSpline
210
0.0
220
0.0
230
1.0
 70
     8
 71
     3
 72
     9
 73
     5
 74
     0
 42
0.0000000001
 43
0.0000000001
 40
0.0
 40
0.0
 40
0.0
 40
0.0
 40
1.000022730311798
 40
2.0
 40
2.0
 40
2.0
 40
2.0
 10
27.56841833192219
 20
32.09842133625109
 30
0.0
 10
27.54486923466622
 20
32.39238540861162
 30
0.0
 10
27.51597088795621
 20
33.00362437594902
 30
0.0
 10
27.11871604137885
 20
33.5057977140399
 30
0.0
 10
26.81998903363719
 20
33.58425496680108
 30
0.0
  0
SPLINE
  5
1C4
330
1F
100
AcDbEntity
  8
DEFAULT
100
AcDbSpline
210
0.0
220
0.0
230
1.0
 70
     8
 71
     3
 72
     9
 73
     5
 74
     0
 42
0.0000000001
 43
0.0000000001
 40
0.0
 40
0.0
 40
0.0
 40
0.0
 40
0.9999825116577769
 40
2.0
 40
2.0
 40
2.0
 40
2.0
 10
26.81998903363719
 20
33.58425496680108
 30
0.0
 10
26.39092064127816
 20
33.71097125086953
 30
0.0
 10
25.51372369462509
 20
33.89121881386335
 30
0.0
 10
24.62489594884447
 20
33.99371347586029
 30
0.0
 10
24.1825039408872
 20
34.05837183370608
 30
0.0
  0
ARC
  5
1C5
330
1F
100
AcDbEntity
  8
DEFAULT
100
AcDbCircle
 10
35.47891273909543
 20
10.84173399999999
 30
0.0
 40
0.1000000000000005
100
AcDbArc
 50
90.0
 51
180.0
  0
SPLINE
  5
1C6
330
1F
100
AcDbEntity
  8
DEFAULT
100
AcDbSpline
210
0.0
220
0.0
230
1.0
 70
    24
 71
     2
 72
     6
 73
     3
 74
     0
 42
0.0000000001
 43
0.0000000001
 40
0.0
 40
0.0
 40
0.0
 40
1.0
 40
1.0
 40
1.0
 10
28.78015673909543
 20
19.73399936806274
 30
0.0
 10
28.80105270931277
 20
19.70055884945253
 30
0.0
 10
28.82194867953011
 20
19.66711833084231
 30
0.0
  0
ARC
  5
1C7
330
1F
100
AcDbEntity
  8
DEFAULT
100
AcDbCircle
 10
29.01699986580807
 20
19.78899929782462
 30
0.0
 40
0.2299998595238275
100
AcDbArc
 50
211.9998856292887
 51
269.9999684343338
  0
SPLINE
  5
1C8
330
1F
100
AcDbEntity
  8
DEFAULT
100
AcDbSpline
210
0.0
220
0.0
230
1.0
 70
    24
 71
     2
 72
     6
 73
     3
 74
     0
 42
0.0000000001
 43
0.0000000001
 40
-1.0
 40
-1.0
 40
-1.0
 40
0.0
 40
0.0
 40
0.0
 10
29.01699973909543
 20
19.55899943830083
 30
0.0
 10
36.45391323909543
 20
19.55899943830083
 30
0.0
 10
43.89082673909543
 20
19.55899943830083
 30
0.0
  0
ARC
  5
1C9
330
1F
100
AcDbEntity
  8
DEFAULT
100
AcDbCircle
 10
43.89082661238281
 20
19.78899929782463
 30
0.0
 40
0.2299998595238402
100
AcDbArc
 50
270.0000315656679
 51
328.0001143707092
  0
SPLINE
  5
1CA
330
1F
100
AcDbEntity
  8
DEFAULT
100
AcDbSpline
210
0.0
220
0.0
230
1.0
 70
    24
 71
     2
 72
     6
 73
     3
 74
     0
 42
0.0000000001
 43
0.0000000001
 40
-1.0
 40
-1.0
 40
-1.0
 40
0.0
 40
0.0
 40
0.0
 10
44.08587779866077
 20
19.66711833084231
 30
0.0
 10
44.1067737688781
 20
19.70055884945253
 30
0.0
 10
44.12766973909542
 20
19.73399936806274
 30
0.0
  0
SPLINE
  5
1CB
330
1F
100
AcDbEntity
  8
DEFAULT
100
AcDbSpline
210
0.0
220
0.0
230
1.0
 70
    24
 71
     2
 72
     6
 73
     3
 74
     0
 42
0.0000000001
 43
0.0000000001
 40
0.0
 40
0.0
 40
0.0
 40
1.0
 40
1.0
 40
1.0
 10
37.75716073909543
 20
0.6637339999999909
 30
0.0
 10
34.42550873909542
 20
0.6637339999999909
 30
0.0
 10
31.09385673909541
 20
0.6637339999999909
 30
0.0
  0
ARC
  5
1CC
330
1F
100
AcDbEntity
  8
DEFAULT
100
AcDbCircle
 10
37.42891273909542
 20
10.84173399999999
 30
0.0
 40
0.1000000000000005
100
AcDbArc
 50
0.0
 51
90.0
  0
SPLINE
  5
1CD
330
1F
100
AcDbEntity
  8
DEFAULT
100
AcDbSpline
210
0.0
220
0.0
230
1.0
 70
     8
 71
     3
 72
     9
 73
     5
 74
     0
 42
0.0000000001
 43
0.0000000001
 40
0.0
 40
0.0
 40
0.0
 40
0.0
 40
1.0
 40
2.0
 40
2.0
 40
2.0
 40
2.0
 10
27.31865073909545
 20
2.797449999999998
 30
0.0
 10
27.29751005801849
 20
2.790469611421017
 30
0.0
 10
27.25154851267818
 20
2.779062543245416
 30
0.0
 10
27.22509034096102
 20
2.737346548889931
 30
0.0
 10
27.22612673909542
 20
2.714154999999991
 30
0.0
  0
SPLINE
  5
1CE
330
1F
100
AcDbEntity
  8
DEFAULT
100
AcDbSpline
210
0.0
220
0.0
230
1.0
 70
    24
 71
     2
 72
     6
 73
     3
 74
     0
 42
0.0000000001
 43
0.0000000001
 40
0.0
 40
0.0
 40
0.0
 40
1.0
 40
1.0
 40
1.0
 10
27.22612673909542
 20
2.714154999999991
 30
0.0
 10
27.25030423909543
 20
2.173133499999992
 30
0.0
 10
27.27448173909544
 20
1.632111999999992
 30
0.0
  0
ARC
  5
1CF
330
1F
100
AcDbEntity
  8
DEFAULT
100
AcDbCircle
 10
46.27871573909543
 20
0.0
 30
0.0
 40
1.279527939310224
100
AcDbArc
 50
15.76206956729274
 51
18.5756033351671
  0
SPLINE
  5
1D0
330
1F
100
AcDbEntity
  8
DEFAULT
100
AcDbSpline
210
0.0
220
0.0
230
1.0
 70
    24
 71
     2
 72
     6
 73
     3
 74
     0
 42
0.0000000001
 43
0.0000000001
 40
0.0
 40
0.0
 40
0.0
 40
1.0
 40
1.0
 40
1.0
 10
47.51887273909544
 20
0.3149609999999967
 30
0.0
 10
47.53855823909544
 20
0.3149609999999967
 30
0.0
 10
47.55824373909543
 20
0.3149609999999967
 30
0.0
  0
SPLINE
  5
1D1
330
1F
100
AcDbEntity
  8
DEFAULT
100
AcDbSpline
210
0.0
220
0.0
230
1.0
 70
     8
 71
     3
 72
     9
 73
     5
 74
     0
 42
0.0000000001
 43
0.0000000001
 40
0.0
 40
0.0
 40
0.0
 40
0.0
 40
1.0
 40
2.0
 40
2.0
 40
2.0
 40
2.0
 10
28.76872125633243
 20
1.948920408199996
 30
0.0
 10
29.75914549766013
 20
2.081840037062804
 30
0.0
 10
31.74670933144633
 20
2.297689413371472
 30
0.0
 10
33.74266581111966
 20
2.412459896694187
 30
0.0
 10
34.74145937615545
 20
2.444418629514999
 30
0.0
  0
CIRCLE
  5
1D2
330
1F
100
AcDbEntity
  8
DEFAULT
100
AcDbCircle
 10
46.27871573909543
 20
0.0
 30
0.0
 40
1.0
  0
ARC
  5
1D3
330
1F
100
AcDbEntity
  8
DEFAULT
100
AcDbCircle
 10
47.50411073909542
 20
0.5448949999999968
 30
0.0
 40
0.2362201456744931
100
AcDbArc
 50
283.2478113805395
 51
359.9999999999999
  0
SPLINE
  5
1D4
330
1F
100
AcDbEntity
  8
DEFAULT
100
AcDbSpline
210
0.0
220
0.0
230
1.0
 70
     8
 71
     3
 72
     8
 73
     4
 74
     0
 42
0.0000000001
 43
0.0000000001
 40
0.0
 40
0.0
 40
0.0
 40
0.0
 40
0.9854228229731457
 40
0.9854228229731457
 40
0.9854228229731457
 40
0.9854228229731457
 10
42.61679884173243
 20
19.55780300489074
 30
0.0
 10
41.32383195711061
 20
19.53721208291989
 30
0.0
 10
39.5356865715621
 20
19.23901927697121
 30
0.0
 10
37.32716993803042
 20
17.75319599999999
 30
0.0
  0
SPLINE
  5
1D5
330
1F
100
AcDbEntity
  8
DEFAULT
100
AcDbSpline
210
0.0
220
0.0
230
1.0
 70
    24
 71
     2
 72
     6
 73
     3
 74
     0
 42
0.0000000001
 43
0.0000000001
 40
0.0
 40
0.0
 40
0.0
 40
1.0
 40
1.0
 40
1.0
 10
40.09080573909544
 20
0.3149609999999967
 30
0.0
 10
40.11049123909544
 20
0.3149609999999967
 30
0.0
 10
40.13017673909543
 20
0.3149609999999967
 30
0.0
  0
SPLINE
  5
1D6
330
1F
100
AcDbEntity
  8
DEFAULT
100
AcDbSpline
210
0.0
220
0.0
230
1.0
 70
    24
 71
     2
 72
     6
 73
     3
 74
     0
 42
0.0000000001
 43
0.0000000001
 40
0.0
 40
0.0
 40
0.0
 40
1.0
 40
1.0
 40
1.0
 10
37.32891273909543
 20
17.75319599999999
 30
0.0
 10
37.32891273909543
 20
14.34746499999999
 30
0.0
 10
37.32891273909543
 20
10.941734
 30
0.0
  0
SPLINE
  5
1D7
330
1F
100
AcDbEntity
  8
DEFAULT
100
AcDbSpline
210
0.0
220
0.0
230
1.0
 70
    24
 71
     2
 72
     6
 73
     3
 74
     0
 42
0.0000000001
 43
0.0000000001
 40
0.0
 40
0.0
 40
0.0
 40
1.0
 40
1.0
 40
1.0
 10
35.57891273909543
 20
17.75319599999999
 30
0.0
 10
35.57891273909543
 20
14.34746499999999
 30
0.0
 10
35.57891273909543
 20
10.941734
 30
0.0
  0
SPLINE
  5
1D8
330
1F
100
AcDbEntity
  8
DEFAULT
100
AcDbSpline
210
0.0
220
0.0
230
1.0
 70
    24
 71
     2
 72
     6
 73
     3
 74
     0
 42
0.0000000001
 43
0.0000000001
 40
0.0
 40
0.0
 40
0.0
 40
1.0
 40
1.0
 40
1.0
 10
35.37891273909541
 20
10.84173399999999
 30
0.0
 10
35.37891273909541
 20
10.504234
 30
0.0
 10
35.37891273909541
 20
10.16673400000001
 30
0.0
  0
SPLINE
  5
1D9
330
1F
100
AcDbEntity
  8
DEFAULT
100
AcDbSpline
210
0.0
220
0.0
230
1.0
 70
    24
 71
     2
 72
     6
 73
     3
 74
     0
 42
0.0000000001
 43
0.0000000001
 40
0.0
 40
0.0
 40
0.0
 40
1.0
 40
1.0
 40
1.0
 10
38.31877173909542
 20
1.163733999999991
 30
0.0
 10
34.77950923909542
 20
1.163733999999991
 30
0.0
 10
31.24024673909541
 20
1.163733999999991
 30
0.0
  0
SPLINE
  5
1DA
330
1F
100
AcDbEntity
  8
DEFAULT
100
AcDbSpline
210
0.0
220
0.0
230
1.0
 70
    24
 71
     2
 72
     6
 73
     3
 74
     0
 42
0.0000000001
 43
0.0000000001
 40
0.0
 40
0.0
 40
0.0
 40
1.0
 40
1.0
 40
1.0
 10
37.45391273909543
 20
4.307419999999993
 30
0.0
 10
37.45391273909543
 20
7.199576999999991
 30
0.0
 10
37.45391273909543
 20
10.09173399999999
 30
0.0
  0
SPLINE
  5
1DB
330
1F
100
AcDbEntity
  8
DEFAULT
100
AcDbSpline
210
0.0
220
0.0
230
1.0
 70
    24
 71
     2
 72
     6
 73
     3
 74
     0
 42
0.0000000001
 43
0.0000000001
 40
0.0
 40
0.0
 40
0.0
 40
1.0
 40
1.0
 40
1.0
 10
28.07194073909544
 20
0.3149609999999967
 30
0.0
 10
28.09162623909543
 20
0.3149609999999967
 30
0.0
 10
28.11131173909543
 20
0.3149609999999967
 30
0.0
  0
SPLINE
  5
1DC
330
1F
100
AcDbEntity
  8
DEFAULT
100
AcDbSpline
210
0.0
220
0.0
230
1.0
 70
    24
 71
     2
 72
     6
 73
     3
 74
     0
 42
0.0000000001
 43
0.0000000001
 40
0.0
 40
0.0
 40
0.0
 40
1.0
 40
1.0
 40
1.0
 10
35.45391273909543
 20
10.09173399999999
 30
0.0
 10
35.41641273909542
 20
10.129234
 30
0.0
 10
35.37891273909541
 20
10.16673400000001
 30
0.0
  0
SPLINE
  5
1DD
330
1F
100
AcDbEntity
  8
DEFAULT
100
AcDbSpline
210
0.0
220
0.0
230
1.0
 70
    24
 71
     2
 72
     6
 73
     3
 74
     0
 42
0.0000000001
 43
0.0000000001
 40
0.0
 40
0.0
 40
0.0
 40
1.0
 40
1.0
 40
1.0
 10
35.45391273909543
 20
4.308027999999993
 30
0.0
 10
35.45391273909543
 20
7.199880999999991
 30
0.0
 10
35.45391273909543
 20
10.09173399999999
 30
0.0
  0
ARC
  5
1DE
330
1F
100
AcDbEntity
  8
DEFAULT
100
AcDbCircle
 10
26.83178373909543
 20
0.0
 30
0.0
 40
1.279527939310224
100
AcDbArc
 50
15.7620695672927
 51
18.57560333516714
  0
SPLINE
  5
1DF
330
1F
100
AcDbEntity
  8
DEFAULT
100
AcDbSpline
210
0.0
220
0.0
230
1.0
 70
    24
 71
     2
 72
     6
 73
     3
 74
     0
 42
0.0000000001
 43
0.0000000001
 40
0.0
 40
0.0
 40
0.0
 40
1.0
 40
1.0
 40
1.0
 10
39.23942873909543
 20
1.430233000000001
 30
0.0
 10
39.12189573909542
 20
1.460414499999999
 30
0.0
 10
39.00436273909541
 20
1.490595999999996
 30
0.0
  0
SPLINE
  5
1E0
330
1F
100
AcDbEntity
  8
DEFAULT
100
AcDbSpline
210
0.0
220
0.0
230
1.0
 70
    24
 71
     2
 72
     6
 73
     3
 74
     0
 42
0.0000000001
 43
0.0000000001
 40
1.0
 40
1.0
 40
1.0
 40
2.0
 40
2.0
 40
2.0
 10
39.00436273909541
 20
1.490595999999996
 30
0.0
 10
38.87732573909541
 20
1.523238999999997
 30
0.0
 10
38.75028873909541
 20
1.555881999999997
 30
0.0
  0
SPLINE
  5
1E1
330
1F
100
AcDbEntity
  8
DEFAULT
100
AcDbSpline
210
0.0
220
0.0
230
1.0
 70
    24
 71
     2
 72
     6
 73
     3
 74
     0
 42
0.0000000001
 43
0.0000000001
 40
2.0
 40
2.0
 40
2.0
 40
3.0
 40
3.0
 40
3.0
 10
38.75028873909541
 20
1.555881999999997
 30
0.0
 10
38.63017123909542
 20
1.586403999999995
 30
0.0
 10
38.51005373909543
 20
1.616925999999992
 30
0.0
  0
SPLINE
  5
1E2
330
1F
100
AcDbEntity
  8
DEFAULT
100
AcDbSpline
210
0.0
220
0.0
230
1.0
 70
    24
 71
     2
 72
     6
 73
     3
 74
     0
 42
0.0000000001
 43
0.0000000001
 40
3.0
 40
3.0
 40
3.0
 40
4.0
 40
4.0
 40
4.0
 10
38.51005373909543
 20
1.616925999999992
 30
0.0
 10
38.39649373909542
 20
1.644906499999991
 30
0.0
 10
38.28293373909541
 20
1.672886999999989
 30
0.0
  0
SPLINE
  5
1E3
330
1F
100
AcDbEntity
  8
DEFAULT
100
AcDbSpline
210
0.0
220
0.0
230
1.0
 70
    24
 71
     2
 72
     6
 73
     3
 74
     0
 42
0.0000000001
 43
0.0000000001
 40
4.0
 40
4.0
 40
4.0
 40
5.0
 40
5.0
 40
5.0
 10
38.28293373909541
 20
1.672886999999989
 30
0.0
 10
38.17555373909542
 20
1.697690999999992
 30
0.0
 10
38.06817373909543
 20
1.722494999999995
 30
0.0
  0
SPLINE
  5
1E4
330
1F
100
AcDbEntity
  8
DEFAULT
100
AcDbSpline
210
0.0
220
0.0
230
1.0
 70
    24
 71
     2
 72
     6
 73
     3
 74
     0
 42
0.0000000001
 43
0.0000000001
 40
5.0
 40
5.0
 40
5.0
 40
6.0
 40
6.0
 40
6.0
 10
38.06817373909543
 20
1.722494999999995
 30
0.0
 10
38.05287323909542
 20
1.725825499999992
 30
0.0
 10
38.03757273909541
 20
1.729155999999989
 30
0.0
  0
ARC
  5
1E5
330
1F
100
AcDbEntity
  8
DEFAULT
100
AcDbCircle
 10
35.37906225591671
 20
-10.48418723611678
 30
0.0
 40
12.49933722212385
100
AcDbArc
 50
77.7198360494219
 51
79.19955087541653
  0
ARC
  5
1E6
330
1F
100
AcDbEntity
  8
DEFAULT
100
AcDbCircle
 10
-1.043052999939675
 20
56.70154214847643
 30
0.0
 40
0.2362210042417925
100
AcDbArc
 50
94.6604298632043
 51
180.0
  0
SPLINE
  5
1E7
330
1F
100
AcDbEntity
  8
DEFAULT
100
AcDbSpline
210
0.0
220
0.0
230
1.0
 70
    24
 71
     2
 72
     6
 73
     3
 74
     0
 42
0.0000000001
 43
0.0000000001
 40
0.0
 40
0.0
 40
0.0
 40
1.0
 40
1.0
 40
1.0
 10
10.95661900006034
 20
40.39443314847644
 30
0.0
 10
11.52359000006034
 20
40.39443314847644
 30
0.0
 10
12.09056100006033
 20
40.39443314847644
 30
0.0
  0
CIRCLE
  5
1E8
330
1F
100
AcDbEntity
  8
DEFAULT
100
AcDbCircle
 10
9.622384000060336
 20
49.63481014847643
 30
0.0
 40
8.099999999999998
  0
SPLINE
  5
1E9
330
1F
100
AcDbEntity
  8
DEFAULT
100
AcDbSpline
210
0.0
220
0.0
230
1.0
 70
     8
 71
     3
 72
     8
 73
     4
 74
     0
 42
0.0000000001
 43
0.0000000001
 40
0.0
 40
0.0
 40
0.0
 40
0.0
 40
1.0
 40
1.0
 40
1.0
 40
1.0
 10
20.78910328939035
 20
49.34210513728642
 30
0.0
 10
20.78824608013035
 20
49.33633581858645
 30
0.0
 10
20.78711885853035
 20
49.33059613349643
 30
0.0
 10
20.78572991444035
 20
49.32491400573643
 30
0.0
  0
SPLINE
  5
1EA
330
1F
100
AcDbEntity
  8
DEFAULT
100
AcDbSpline
210
0.0
220
0.0
230
1.0
 70
    24
 71
     2
 72
     6
 73
     3
 74
     0
 42
0.0000000001
 43
0.0000000001
 40
0.0
 40
0.0
 40
0.0
 40
1.0
 40
1.0
 40
1.0
 10
10.73959200006034
 20
39.77032314847644
 30
0.0
 10
10.73959200006034
 20
39.41095264847644
 30
0.0
 10
10.73959200006034
 20
39.05158214847644
 30
0.0
  0
ARC
  5
1EB
330
1F
100
AcDbEntity
  8
DEFAULT
100
AcDbCircle
 10
0.9254510000603204
 20
43.31611914847643
 30
0.0
 40
0.5364172172617838
100
AcDbArc
 50
97.96885089089
 51
161.6593900687278
  0
ARC
  5
1EC
330
1F
100
AcDbEntity
  8
DEFAULT
100
AcDbCircle
 10
20.37238400006034
 20
49.63481014847643
 30
0.0
 40
0.5364170468547508
100
AcDbArc
 50
315.8309065085173
 51
44.16916791581688
  0
ARC
  5
1ED
330
1F
100
AcDbEntity
  8
DEFAULT
100
AcDbCircle
 10
20.49049400006034
 20
48.88676914847643
 30
0.0
 40
0.2362200058949277
100
AcDbArc
 50
274.6604495706473
 51
0.0
  0
SPLINE
  5
1EE
330
1F
100
AcDbEntity
  8
DEFAULT
100
AcDbSpline
210
0.0
220
0.0
230
1.0
 70
    24
 71
     2
 72
     6
 73
     3
 74
     0
 42
0.0000000001
 43
0.0000000001
 40
0.0
 40
0.0
 40
0.0
 40
1.0
 40
1.0
 40
1.0
 10
18.38468700006034
 20
50.61829114847644
 30
0.0
 10
19.44718700006034
 20
50.61829114847644
 30
0.0
 10
20.50968700006034
 20
50.61829114847644
 30
0.0
  0
SPLINE
  5
1EF
330
1F
100
AcDbEntity
  8
DEFAULT
100
AcDbSpline
210
0.0
220
0.0
230
1.0
 70
     8
 71
     3
 72
     8
 73
     4
 74
     0
 42
0.0000000001
 43
0.0000000001
 40
0.0
 40
0.0
 40
0.0
 40
0.0
 40
1.0
 40
1.0
 40
1.0
 40
1.0
 10
0.4547941782433327
 20
43.53547620238645
 30
0.0
 10
0.4588539035113399
 20
43.53927070390644
 30
0.0
 10
0.4630768096023417
 20
43.54288172927643
 30
0.0
 10
0.4674452956633388
 20
43.54629050054645
 30
0.0
  0
SPLINE
  5
1F0
330
1F
100
AcDbEntity
  8
DEFAULT
100
AcDbSpline
210
0.0
220
0.0
230
1.0
 70
     8
 71
     3
 72
    11
 73
     7
 74
     0
 42
0.0000000001
 43
0.0000000001
 40
0.0
 40
0.0
 40
0.0
 40
0.0
 40
0.2500394730186
 40
0.5003140864778
 40
0.7504418471957
 40
1.0
 40
1.0
 40
1.0
 40
1.0
 10
13.45012836564034
 20
39.32800425505643
 30
0.0
 10
13.45499096227034
 20
39.31109359322643
 30
0.0
 10
13.45995346278035
 20
39.27568206076644
 30
0.0
 10
13.45244327815034
 20
39.22274494737643
 30
0.0
 10
13.43068808564034
 20
39.17389731522644
 30
0.0
 10
13.40788176454033
 20
39.14657339353643
 30
0.0
 10
13.39482702049035
 20
39.13472194957644
 30
0.0
  0
SPLINE
  5
1F1
330
1F
100
AcDbEntity
  8
DEFAULT
100
AcDbSpline
210
0.0
220
0.0
230
1.0
 70
     8
 71
     3
 72
     8
 73
     4
 74
     0
 42
0.0000000001
 43
0.0000000001
 40
0.0
 40
0.0
 40
0.0
 40
0.0
 40
1.0
 40
1.0
 40
1.0
 40
1.0
 10
12.59025404709034
 20
39.03111647876644
 30
0.0
 10
12.58789991362532
 20
39.03614978043505
 30
0.0
 10
12.58577068044711
 20
39.04128156977967
 30
0.0
 10
12.58387884476535
 20
39.04648933752644
 30
0.0
  0
SPLINE
  5
1F2
330
1F
100
AcDbEntity
  8
DEFAULT
100
AcDbSpline
210
0.0
220
0.0
230
1.0
 70
    24
 71
     2
 72
     6
 73
     3
 74
     0
 42
0.0000000001
 43
0.0000000001
 40
0.0
 40
0.0
 40
0.0
 40
1.0
 40
1.0
 40
1.0
 10
12.58387884476535
 20
39.04648933752644
 30
0.0
 10
12.08404292241285
 20
40.41224674300143
 30
0.0
 10
11.58420700006035
 20
41.77800414847643
 30
0.0
  0
SPLINE
  5
1F3
330
1F
100
AcDbEntity
  8
DEFAULT
100
AcDbSpline
210
0.0
220
0.0
230
1.0
 70
    24
 71
     2
 72
     6
 73
     3
 74
     0
 42
0.0000000001
 43
0.0000000001
 40
0.0
 40
0.0
 40
0.0
 40
1.0
 40
1.0
 40
1.0
 10
3.416489000060324
 20
44.43122714847642
 30
0.0
 10
2.209678000060322
 20
43.62032864847643
 30
0.0
 10
1.00286700006032
 20
42.80943014847644
 30
0.0
  0
SPLINE
  5
1F4
330
1F
100
AcDbEntity
  8
DEFAULT
100
AcDbSpline
210
0.0
220
0.0
230
1.0
 70
    24
 71
     2
 72
     6
 73
     3
 74
     0
 42
0.0000000001
 43
0.0000000001
 40
0.0
 40
0.0
 40
0.0
 40
1.0
 40
1.0
 40
1.0
 10
12.54607400006033
 20
39.05158214847644
 30
0.0
 10
11.64283300006034
 20
39.05158214847644
 30
0.0
 10
10.73959200006034
 20
39.05158214847644
 30
0.0
  0
SPLINE
  5
1F5
330
1F
100
AcDbEntity
  8
DEFAULT
100
AcDbSpline
210
0.0
220
0.0
230
1.0
 70
    24
 71
     2
 72
     6
 73
     3
 74
     0
 42
0.0000000001
 43
0.0000000001
 40
0.0
 40
0.0
 40
0.0
 40
1.0
 40
1.0
 40
1.0
 10
-1.22021699993968
 20
42.92241814847644
 30
0.0
 10
-0.3295529999396791
 20
42.92241814847644
 30
0.0
 10
0.5611110000603219
 20
42.92241814847644
 30
0.0
  0
SPLINE
  5
1F6
330
1F
100
AcDbEntity
  8
DEFAULT
100
AcDbSpline
210
0.0
220
0.0
230
1.0
 70
    24
 71
     2
 72
     6
 73
     3
 74
     0
 42
0.0000000001
 43
0.0000000001
 40
0.0
 40
0.0
 40
0.0
 40
1.0
 40
1.0
 40
1.0
 10
20.72671400006034
 20
50.38285114847643
 30
0.0
 10
20.72671400006034
 20
50.23520864847643
 30
0.0
 10
20.72671400006034
 20
50.08756614847643
 30
0.0
  0
SPLINE
  5
1F7
330
1F
100
AcDbEntity
  8
DEFAULT
100
AcDbSpline
210
0.0
220
0.0
230
1.0
 70
    24
 71
     2
 72
     6
 73
     3
 74
     0
 42
0.0000000001
 43
0.0000000001
 40
0.0
 40
0.0
 40
0.0
 40
1.0
 40
1.0
 40
1.0
 10
-1.062245999939677
 20
44.29959914847645
 30
0.0
 10
0.0002540000603233
 20
44.29959914847645
 30
0.0
 10
1.062754000060323
 20
44.29959914847645
 30
0.0
  0
ARC
  5
1F8
330
1F
100
AcDbEntity
  8
DEFAULT
100
AcDbCircle
 10
1.220726000060324
 20
56.40625714847643
 30
0.0
 40
0.0590554617686651
100
AcDbArc
 50
319.6785243044491
 51
0.0
  0
ARC
  5
1F9
330
1F
100
AcDbEntity
  8
DEFAULT
100
AcDbCircle
 10
10.79864700006034
 20
39.86370814847645
 30
0.0
 40
0.0590549999999981
100
AcDbArc
 50
180.0
 51
270.0
  0
ARC
  5
1FA
330
1F
100
AcDbEntity
  8
DEFAULT
100
AcDbCircle
 10
-1.043052999939675
 20
44.06415914847643
 30
0.0
 40
0.2362210042417907
100
AcDbArc
 50
94.6604298632045
 51
180.0
  0
ARC
  5
1FB
330
1F
100
AcDbEntity
  8
DEFAULT
100
AcDbCircle
 10
0.9254510000603204
 20
55.95350214847643
 30
0.0
 40
0.5364172571777788
100
AcDbArc
 50
99.74285866402742
 51
188.1418695196075
  0
SPLINE
  5
1FC
330
1F
100
AcDbEntity
  8
DEFAULT
100
AcDbSpline
210
0.0
220
0.0
230
1.0
 70
    24
 71
     2
 72
     6
 73
     3
 74
     0
 42
0.0000000001
 43
0.0000000001
 40
0.0
 40
0.0
 40
0.0
 40
1.0
 40
1.0
 40
1.0
 10
0.5272090000603384
 20
56.31287214847644
 30
0.0
 10
-0.3760324999396687
 20
56.31287214847644
 30
0.0
 10
-1.279273999939676
 20
56.31287214847644
 30
0.0
  0
SPLINE
  5
1FD
330
1F
100
AcDbEntity
  8
DEFAULT
100
AcDbSpline
210
0.0
220
0.0
230
1.0
 70
     8
 71
     3
 72
     9
 73
     5
 74
     0
 42
0.0000000001
 43
0.0000000001
 40
0.0
 40
0.0
 40
0.0
 40
0.0
 40
0.3275075815359
 40
1.0
 40
1.0
 40
1.0
 40
1.0
 10
12.61969997553034
 20
38.98615712236644
 30
0.0
 10
12.61581017586035
 20
38.99057122957645
 30
0.0
 10
12.60455672857033
 20
39.00460480897644
 30
0.0
 10
12.59536995903035
 20
39.02017830192644
 30
0.0
 10
12.59025404709034
 20
39.03111647876644
 30
0.0
  0
ARC
  5
1FE
330
1F
100
AcDbEntity
  8
DEFAULT
100
AcDbCircle
 10
20.49049400006034
 20
50.38285114847643
 30
0.0
 40
0.2362200058949277
100
AcDbArc
 50
0.0
 51
85.33955042935268
  0
SPLINE
  5
1FF
330
1F
100
AcDbEntity
  8
DEFAULT
100
AcDbSpline
210
0.0
220
0.0
230
1.0
 70
    24
 71
     2
 72
     6
 73
     3
 74
     0
 42
0.0000000001
 43
0.0000000001
 40
0.0
 40
0.0
 40
0.0
 40
1.0
 40
1.0
 40
1.0
 10
0.4674450000603372
 20
43.54629014847644
 30
0.0
 10
1.611701500060335
 20
44.44354964847643
 30
0.0
 10
2.755958000060332
 20
45.34080914847642
 30
0.0
  0
ARC
  5
200
330
1F
100
AcDbEntity
  8
DEFAULT
100
AcDbCircle
 10
10.79864700006034
 20
38.95819714847643
 30
0.0
 40
0.0590549999999981
100
AcDbArc
 50
90.0
 51
180.0
  0
ARC
  5
201
330
1F
100
AcDbEntity
  8
DEFAULT
100
AcDbCircle
 10
12.94431600006034
 20
39.41095314847644
 30
0.0
 40
0.5364171269626883
100
AcDbArc
 50
169.9322926763974
 51
233.7404372445395
  0
ARC
  5
202
330
1F
100
AcDbEntity
  8
DEFAULT
100
AcDbCircle
 10
18.40388000006034
 20
48.88676914847643
 30
0.0
 40
0.2362200175715418
100
AcDbArc
 50
261.1583505459553
 51
265.3395504293518
  0
SPLINE
  5
203
330
1F
100
AcDbEntity
  8
DEFAULT
100
AcDbSpline
210
0.0
220
0.0
230
1.0
 70
     8
 71
     3
 72
    11
 73
     7
 74
     0
 42
0.0000000001
 43
0.0000000001
 40
0.0
 40
0.0
 40
0.0
 40
0.0
 40
0.2716450853917
 40
0.5444638113227
 40
0.8177469840014
 40
1.0
 40
1.0
 40
1.0
 40
1.0
 10
12.79471166692035
 20
38.92417794187644
 30
0.0
 10
12.77745533355035
 20
38.92127506437645
 30
0.0
 10
12.74187126937035
 20
38.92025457490645
 30
0.0
 10
12.69016994607036
 20
38.93328693933644
 30
0.0
 10
12.64899907093034
 20
38.95705394807645
 30
0.0
 10
12.62748775915036
 20
38.97731962053645
 30
0.0
 10
12.61969997553034
 20
38.98615712236644
 30
0.0
  0
SPLINE
  5
204
330
1F
100
AcDbEntity
  8
DEFAULT
100
AcDbSpline
210
0.0
220
0.0
230
1.0
 70
     8
 71
     3
 72
     9
 73
     5
 74
     0
 42
0.0000000001
 43
0.0000000001
 40
0.0
 40
0.0
 40
0.0
 40
0.0
 40
0.2503757633505
 40
1.0
 40
1.0
 40
1.0
 40
1.0
 10
0.8176144802103238
 20
42.79427534309643
 30
0.0
 10
0.8122771128923318
 20
42.79670675007644
 30
0.0
 10
0.7913999809563279
 20
42.80739874903644
 30
0.0
 10
0.7726311869953406
 20
42.82186965538644
 30
0.0
 10
0.7603739775703389
 20
42.83436463490644
 30
0.0
  0
ARC
  5
205
330
1F
100
AcDbEntity
  8
DEFAULT
100
AcDbCircle
 10
1.220726000060324
 20
42.86336314847644
 30
0.0
 40
0.0590554617686662
100
AcDbArc
 50
0.0
 51
40.3214756955514
  0
SPLINE
  5
206
330
1F
100
AcDbEntity
  8
DEFAULT
100
AcDbSpline
210
0.0
220
0.0
230
1.0
 70
    24
 71
     2
 72
     6
 73
     3
 74
     0
 42
0.0000000001
 43
0.0000000001
 40
0.0
 40
0.0
 40
0.0
 40
1.0
 40
1.0
 40
1.0
 10
0.5272090000603384
 20
43.67548914847644
 30
0.0
 10
-0.3760324999396687
 20
43.67548914847644
 30
0.0
 10
-1.279273999939676
 20
43.67548914847644
 30
0.0
  0
ARC
  5
207
330
1F
100
AcDbEntity
  8
DEFAULT
100
AcDbCircle
 10
-1.043052999939675
 20
55.20546114847643
 30
0.0
 40
0.2362210042417925
100
AcDbArc
 50
180.0
 51
265.3395701367957
  0
SPLINE
  5
208
330
1F
100
AcDbEntity
  8
DEFAULT
100
AcDbSpline
210
0.0
220
0.0
230
1.0
 70
     8
 71
     3
 72
    10
 73
     6
 74
     0
 42
0.0000000001
 43
0.0000000001
 40
0.0
 40
0.0
 40
0.0
 40
0.0
 40
0.4281270848459
 40
0.8569829541399
 40
1.0
 40
1.0
 40
1.0
 40
1.0
 10
20.77432131348034
 20
49.29173401506644
 30
0.0
 10
20.76708168279033
 20
49.27564347619644
 30
0.0
 10
20.74813511650034
 20
49.24549595959643
 30
0.0
 10
20.71722815800034
 20
49.21766414057645
 30
0.0
 10
20.69710416238034
 20
49.20539558255645
 30
0.0
 10
20.69193974069036
 20
49.20256698187644
 30
0.0
  0
ARC
  5
209
330
1F
100
AcDbEntity
  8
DEFAULT
100
AcDbCircle
 10
1.043561000060322
 20
44.06415914847643
 30
0.0
 40
0.2362208002419703
100
AcDbArc
 50
25.37306874266321
 51
85.3395701367955
  0
SPLINE
  5
20A
330
1F
100
AcDbEntity
  8
DEFAULT
100
AcDbSpline
210
0.0
220
0.0
230
1.0
 70
     8
 71
     3
 72
    10
 73
     6
 74
     0
 42
0.0000000001
 43
0.0000000001
 40
0.0
 40
0.0
 40
0.0
 40
0.0
 40
0.1429075397063
 40
0.5715247627706
 40
1.0
 40
1.0
 40
1.0
 40
1.0
 10
0.8857333420113207
 20
56.49223217610644
 30
0.0
 10
0.8916119442233423
 20
56.49257674363643
 30
0.0
 10
0.9151840055463367
 20
56.49286949535643
 30
0.0
 10
0.9561439923243427
 20
56.48570110209643
 30
0.0
 10
0.9882842634383167
 20
56.47004173588643
 30
0.0
 10
1.002866777495342
 20
56.46019003909645
 30
0.0
  0
SPLINE
  5
20B
330
1F
100
AcDbEntity
  8
DEFAULT
100
AcDbSpline
210
0.0
220
0.0
230
1.0
 70
    24
 71
     2
 72
     6
 73
     3
 74
     0
 42
0.0000000001
 43
0.0000000001
 40
0.0
 40
0.0
 40
0.0
 40
1.0
 40
1.0
 40
1.0
 10
-1.062245999939677
 20
54.97002114847645
 30
0.0
 10
0.0002540000603233
 20
54.97002114847645
 30
0.0
 10
1.062754000060323
 20
54.97002114847645
 30
0.0
  0
SPLINE
  5
20C
330
1F
100
AcDbEntity
  8
DEFAULT
100
AcDbSpline
210
0.0
220
0.0
230
1.0
 70
    24
 71
     2
 72
     6
 73
     3
 74
     0
 42
0.0000000001
 43
0.0000000001
 40
0.0
 40
0.0
 40
0.0
 40
1.0
 40
1.0
 40
1.0
 10
-1.062245999939677
 20
42.33263814847645
 30
0.0
 10
0.0002540000603233
 20
42.33263814847645
 30
0.0
 10
1.062754000060323
 20
42.33263814847645
 30
0.0
  0
ARC
  5
20D
330
1F
100
AcDbEntity
  8
DEFAULT
100
AcDbCircle
 10
13.06242600006034
 20
38.66291214847645
 30
0.0
 40
0.236221004241791
100
AcDbArc
 50
274.6604298632046
 51
0.0
  0
SPLINE
  5
20E
330
1F
100
AcDbEntity
  8
DEFAULT
100
AcDbSpline
210
0.0
220
0.0
230
1.0
 70
     8
 71
     3
 72
     8
 73
     4
 74
     0
 42
0.0000000001
 43
0.0000000001
 40
0.0
 40
0.0
 40
0.0
 40
0.0
 40
1.0
 40
1.0
 40
1.0
 40
1.0
 10
13.39482702049035
 20
39.13472194957644
 30
0.0
 10
13.38181607854035
 20
39.12291027032644
 30
0.0
 10
13.36715170575035
 20
39.11288150943643
 30
0.0
 10
13.35148074439034
 20
39.10508540584145
 30
0.0
  0
SPLINE
  5
20F
330
1F
100
AcDbEntity
  8
DEFAULT
100
AcDbSpline
210
0.0
220
0.0
230
1.0
 70
     8
 71
     3
 72
    10
 73
     6
 74
     0
 42
0.0000000001
 43
0.0000000001
 40
0.0
 40
0.0
 40
0.0
 40
0.0
 40
0.3750985454465
 40
0.7499960074013
 40
1.0
 40
1.0
 40
1.0
 40
1.0
 10
13.35148074439034
 20
39.10508540584145
 30
0.0
 10
13.29303103768034
 20
39.07604069961643
 30
0.0
 10
13.17323227985035
 20
39.02365306881644
 30
0.0
 10
13.00750595793035
 20
38.96980513876643
 30
0.0
 10
12.90157068293034
 20
38.94473032563643
 30
0.0
 10
12.85891871461034
 20
38.93609275119644
 30
0.0
  0
SPLINE
  5
210
330
1F
100
AcDbEntity
  8
DEFAULT
100
AcDbSpline
210
0.0
220
0.0
230
1.0
 70
     8
 71
     3
 72
     8
 73
     4
 74
     0
 42
0.0000000001
 43
0.0000000001
 40
0.0
 40
0.0
 40
0.0
 40
0.0
 40
1.0
 40
1.0
 40
1.0
 40
1.0
 10
12.85891871461034
 20
38.93609275119644
 30
0.0
 10
12.83757951359034
 20
38.93177128739644
 30
0.0
 10
12.81617260392035
 20
38.92779877889645
 30
0.0
 10
12.79471166821035
 20
38.92417793601645
 30
0.0
  0
SPLINE
  5
211
330
1F
100
AcDbEntity
  8
DEFAULT
100
AcDbSpline
210
0.0
220
0.0
230
1.0
 70
     8
 71
     3
 72
     8
 73
     4
 74
     0
 42
0.0000000001
 43
0.0000000001
 40
0.0
 40
0.0
 40
0.0
 40
0.0
 40
1.0
 40
1.0
 40
1.0
 40
1.0
 10
20.78572991444035
 20
49.32491400573643
 30
0.0
 10
20.78295191343035
 20
49.31354928861644
 30
0.0
 10
20.77912693745036
 20
49.30241481947643
 30
0.0
 10
20.77432131348034
 20
49.29173401506644
 30
0.0
  0
SPLINE
  5
212
330
1F
100
AcDbEntity
  8
DEFAULT
100
AcDbSpline
210
0.0
220
0.0
230
1.0
 70
    24
 71
     2
 72
     6
 73
     3
 74
     0
 42
0.0000000001
 43
0.0000000001
 40
0.0
 40
0.0
 40
0.0
 40
1.0
 40
1.0
 40
1.0
 10
-1.22021699993968
 20
55.55980114847644
 30
0.0
 10
-0.3295529999396791
 20
55.55980114847644
 30
0.0
 10
0.5611110000603219
 20
55.55980114847644
 30
0.0
  0
SPLINE
  5
213
330
1F
100
AcDbEntity
  8
DEFAULT
100
AcDbSpline
210
0.0
220
0.0
230
1.0
 70
    24
 71
     2
 72
     6
 73
     3
 74
     0
 42
0.0000000001
 43
0.0000000001
 40
0.0
 40
0.0
 40
0.0
 40
1.0
 40
1.0
 40
1.0
 10
13.29864700006034
 20
38.95819714847643
 30
0.0
 10
13.29864700006034
 20
38.81055464847644
 30
0.0
 10
13.29864700006034
 20
38.66291214847645
 30
0.0
  0
ARC
  5
214
330
1F
100
AcDbEntity
  8
DEFAULT
100
AcDbCircle
 10
1.043561000060322
 20
55.20546114847643
 30
0.0
 40
0.2362208002419728
100
AcDbArc
 50
274.6604298632045
 51
334.6269312573353
  0
SPLINE
  5
215
330
1F
100
AcDbEntity
  8
DEFAULT
100
AcDbSpline
210
0.0
220
0.0
230
1.0
 70
    24
 71
     2
 72
     6
 73
     3
 74
     0
 42
0.0000000001
 43
0.0000000001
 40
0.0
 40
0.0
 40
0.0
 40
1.0
 40
1.0
 40
1.0
 10
-1.279273999939676
 20
44.06415914847643
 30
0.0
 10
-1.279273999939676
 20
43.91651714847643
 30
0.0
 10
-1.279273999939676
 20
43.76887514847643
 30
0.0
  0
SPLINE
  5
216
330
1F
100
AcDbEntity
  8
DEFAULT
100
AcDbSpline
210
0.0
220
0.0
230
1.0
 70
    24
 71
     2
 72
     6
 73
     3
 74
     0
 42
0.0000000001
 43
0.0000000001
 40
0.0
 40
0.0
 40
0.0
 40
1.0
 40
1.0
 40
1.0
 10
20.72671400006034
 20
49.18205414847644
 30
0.0
 10
20.72671400006034
 20
49.03441164847644
 30
0.0
 10
20.72671400006034
 20
48.88676914847643
 30
0.0
  0
LINE
  5
217
330
1F
100
AcDbEntity
  8
DEFAULT
100
AcDbLine
 10
20.60762800006036
 20
49.17938814847643
 30
0.0
 11
17.7028633197596
 21
49.07280128385538
 31
0.0
  0
ARC
  5
218
330
1F
100
AcDbEntity
  8
DEFAULT
100
AcDbCircle
 10
10.97581200006034
 20
38.66291214847645
 30
0.0
 40
0.2362205042417904
100
AcDbArc
 50
180.0
 51
265.3395701367958
  0
ARC
  5
219
330
1F
100
AcDbEntity
  8
DEFAULT
100
AcDbCircle
 10
13.06242600006034
 20
40.15899314847644
 30
0.0
 40
0.2362212158982621
100
AcDbArc
 50
0.0
 51
67.93618295879983
  0
ARC
  5
21A
330
1F
100
AcDbEntity
  8
DEFAULT
100
AcDbCircle
 10
-1.220217999939678
 20
43.76887514847643
 30
0.0
 40
0.0590560000000009
100
AcDbArc
 50
180.0
 51
270.0
  0
SPLINE
  5
21B
330
1F
100
AcDbEntity
  8
DEFAULT
100
AcDbSpline
210
0.0
220
0.0
230
1.0
 70
    24
 71
     2
 72
     6
 73
     3
 74
     0
 42
0.0000000001
 43
0.0000000001
 40
0.0
 40
0.0
 40
0.0
 40
1.0
 40
1.0
 40
1.0
 10
12.31897200006036
 20
39.77032314847644
 30
0.0
 10
11.52928200006035
 20
39.77032314847644
 30
0.0
 10
10.73959200006034
 20
39.77032314847644
 30
0.0
  0
SPLINE
  5
21C
330
1F
100
AcDbEntity
  8
DEFAULT
100
AcDbSpline
210
0.0
220
0.0
230
1.0
 70
     8
 71
     3
 72
     8
 73
     4
 74
     0
 42
0.0000000001
 43
0.0000000001
 40
0.0
 40
0.0
 40
0.0
 40
0.0
 40
1.0
 40
1.0
 40
1.0
 40
1.0
 10
0.4674843988053397
 20
55.72329942456643
 30
0.0
 10
0.4631058762913369
 20
55.72671508425644
 30
0.0
 10
0.4588732734483187
 20
55.73033362520643
 30
0.0
 10
0.4548044094143222
 20
55.73413627131644
 30
0.0
  0
SPLINE
  5
21D
330
1F
100
AcDbEntity
  8
DEFAULT
100
AcDbSpline
210
0.0
220
0.0
230
1.0
 70
    24
 71
     2
 72
     6
 73
     3
 74
     0
 42
0.0000000001
 43
0.0000000001
 40
0.0
 40
0.0
 40
0.0
 40
1.0
 40
1.0
 40
1.0
 10
13.29864700006034
 20
40.15899314847644
 30
0.0
 10
13.29864700006034
 20
40.01135064847644
 30
0.0
 10
13.29864700006034
 20
39.86370814847645
 30
0.0
  0
SPLINE
  5
21E
330
1F
100
AcDbEntity
  8
DEFAULT
100
AcDbSpline
210
0.0
220
0.0
230
1.0
 70
    24
 71
     2
 72
     6
 73
     3
 74
     0
 42
0.0000000001
 43
0.0000000001
 40
0.0
 40
0.0
 40
0.0
 40
1.0
 40
1.0
 40
1.0
 10
10.95661900006034
 20
38.42747214847644
 30
0.0
 10
12.01911900006034
 20
38.42747214847644
 30
0.0
 10
13.08161900006034
 20
38.42747214847644
 30
0.0
  0
SPLINE
  5
21F
330
1F
100
AcDbEntity
  8
DEFAULT
100
AcDbSpline
210
0.0
220
0.0
230
1.0
 70
     8
 71
     3
 72
    10
 73
     6
 74
     0
 42
0.0000000001
 43
0.0000000001
 40
0.0
 40
0.0
 40
0.0
 40
0.0
 40
0.4283511036586
 40
0.8571038310804
 40
1.0
 40
1.0
 40
1.0
 40
1.0
 10
1.002866774662323
 20
42.80943041406644
 30
0.0
 10
0.9882863703303428
 20
42.79958009485644
 30
0.0
 10
0.9561414572773401
 20
42.78391768635645
 30
0.0
 10
0.9151747479643291
 20
42.77674919148645
 30
0.0
 10
0.8915940572523198
 20
42.77704418834644
 30
0.0
 10
0.8857150832433263
 20
42.77738933265644
 30
0.0
  0
ARC
  5
220
330
1F
100
AcDbEntity
  8
DEFAULT
100
AcDbCircle
 10
1.043561000060322
 20
56.70154214847643
 30
0.0
 40
0.2362210042417925
100
AcDbArc
 50
0.0
 51
85.33957013679564
  0
SPLINE
  5
221
330
1F
100
AcDbEntity
  8
DEFAULT
100
AcDbSpline
210
0.0
220
0.0
230
1.0
 70
    24
 71
     2
 72
     6
 73
     3
 74
     0
 42
0.0000000001
 43
0.0000000001
 40
0.3122363361840776
 40
0.3122363361840776
 40
0.3122363361840776
 40
1.0
 40
1.0
 40
1.0
 10
18.16766000006034
 20
49.08985644194631
 30
0.0
 10
18.16766000006034
 20
48.98831329521137
 30
0.0
 10
18.16766000006034
 20
48.88677014847643
 30
0.0
  0
SPLINE
  5
222
330
1F
100
AcDbEntity
  8
DEFAULT
100
AcDbSpline
210
0.0
220
0.0
230
1.0
 70
    24
 71
     2
 72
     6
 73
     3
 74
     0
 42
0.0000000001
 43
0.0000000001
 40
0.0
 40
0.0
 40
0.0
 40
1.0
 40
1.0
 40
1.0
 10
1.279782000060322
 20
42.86336314847644
 30
0.0
 10
1.279782000060322
 20
42.71572064847643
 30
0.0
 10
1.279782000060322
 20
42.56807814847643
 30
0.0
  0
ARC
  5
223
330
1F
100
AcDbEntity
  8
DEFAULT
100
AcDbCircle
 10
13.23959200006034
 20
38.95819714847643
 30
0.0
 40
0.0590545805575144
100
AcDbArc
 50
0.0
 51
40.32210350398974
  0
SPLINE
  5
224
330
1F
100
AcDbEntity
  8
DEFAULT
100
AcDbSpline
210
0.0
220
0.0
230
1.0
 70
     8
 71
     3
 72
     8
 73
     4
 74
     0
 42
0.0000000001
 43
0.0000000001
 40
0.0
 40
0.0
 40
0.0
 40
0.0
 40
1.0
 40
1.0
 40
1.0
 40
1.0
 10
20.60762728574035
 20
50.09023197274642
 30
0.0
 10
20.61934257370034
 20
50.08982996845644
 30
0.0
 10
20.63106278095036
 20
50.08831266120644
 30
0.0
 10
20.64254861878034
 20
50.08572596348644
 30
0.0
  0
SPLINE
  5
225
330
1F
100
AcDbEntity
  8
DEFAULT
100
AcDbSpline
210
0.0
220
0.0
230
1.0
 70
    24
 71
     2
 72
     6
 73
     3
 74
     0
 42
0.0000000001
 43
0.0000000001
 40
0.0
 40
0.0
 40
0.0
 40
1.0
 40
1.0
 40
1.0
 10
-1.279273999939676
 20
42.86336314847644
 30
0.0
 10
-1.279273999939676
 20
42.71572064847643
 30
0.0
 10
-1.279273999939676
 20
42.56807814847643
 30
0.0
  0
SPLINE
  5
226
330
1F
100
AcDbEntity
  8
DEFAULT
100
AcDbSpline
210
0.0
220
0.0
230
1.0
 70
    24
 71
     2
 72
     6
 73
     3
 74
     0
 42
0.0000000001
 43
0.0000000001
 40
0.0
 40
0.0
 40
0.0
 40
1.0
 40
1.0
 40
1.0
 10
-1.279273999939676
 20
56.31287214847644
 30
0.0
 10
-1.279273999939676
 20
55.95350164847645
 30
0.0
 10
-1.279273999939676
 20
55.59413114847645
 30
0.0
  0
SPLINE
  5
227
330
1F
100
AcDbEntity
  8
DEFAULT
100
AcDbSpline
210
0.0
220
0.0
230
1.0
 70
     8
 71
     3
 72
     9
 73
     5
 74
     0
 42
0.0000000001
 43
0.0000000001
 40
0.0
 40
0.0
 40
0.0
 40
0.0
 40
0.5003465925173
 40
1.0
 40
1.0
 40
1.0
 40
1.0
 10
0.8857150832433263
 20
42.77738933265644
 30
0.0
 10
0.8739648121943162
 20
42.77807917057645
 30
0.0
 10
0.850604591903334
 20
42.78162478135643
 30
0.0
 10
0.828310867177322
 20
42.78940266553643
 30
0.0
 10
0.8176144802103238
 20
42.79427534309643
 30
0.0
  0
SPLINE
  5
228
330
1F
100
AcDbEntity
  8
DEFAULT
100
AcDbSpline
210
0.0
220
0.0
230
1.0
 70
     8
 71
     3
 72
     9
 73
     5
 74
     0
 42
0.0000000001
 43
0.0000000001
 40
0.0
 40
0.0
 40
0.0
 40
0.0
 40
0.400659934113
 40
1.0
 40
1.0
 40
1.0
 40
1.0
 10
0.3946396528713194
 20
55.87722873372643
 30
0.0
 10
0.394890663599341
 20
55.88896139068645
 30
0.0
 10
0.3982085680703165
 20
55.91819111728644
 30
0.0
 10
0.408168264042331
 20
55.94611078163645
 30
0.0
 10
0.4162641911683238
 20
55.96162951750644
 30
0.0
  0
SPLINE
  5
229
330
1F
100
AcDbEntity
  8
DEFAULT
100
AcDbSpline
210
0.0
220
0.0
230
1.0
 70
     8
 71
     3
 72
    10
 73
     6
 74
     0
 42
0.0000000001
 43
0.0000000001
 40
0.0
 40
0.0
 40
0.0
 40
0.0
 40
0.3333963920218
 40
0.6666152796276
 40
1.0
 40
1.0
 40
1.0
 40
1.0
 10
0.7603739703513384
 20
42.83436462845644
 30
0.0
 10
0.7146890499833205
 20
42.88097812810643
 30
0.0
 10
0.6278458091423147
 20
42.97872467954643
 30
0.0
 10
0.512610006016331
 20
43.13733280359644
 30
0.0
 10
0.4464838835063176
 20
43.25012850885643
 30
0.0
 10
0.4162700659943255
 20
43.30797967365645
 30
0.0
  0
SPLINE
  5
22A
330
1F
100
AcDbEntity
  8
DEFAULT
100
AcDbSpline
210
0.0
220
0.0
230
1.0
 70
    24
 71
     2
 72
     6
 73
     3
 74
     0
 42
0.0000000001
 43
0.0000000001
 40
0.0
 40
0.0
 40
0.0
 40
1.0
 40
1.0
 40
1.0
 10
0.5611110000603219
 20
43.70981914847643
 30
0.0
 10
-0.3295529999396791
 20
43.70981914847643
 30
0.0
 10
-1.22021699993968
 20
43.70981914847643
 30
0.0
  0
SPLINE
  5
22B
330
1F
100
AcDbEntity
  8
DEFAULT
100
AcDbSpline
210
0.0
220
0.0
230
1.0
 70
    24
 71
     2
 72
     6
 73
     3
 74
     0
 42
0.0000000001
 43
0.0000000001
 40
0.0
 40
0.0
 40
0.0
 40
1.0
 40
1.0
 40
1.0
 10
12.65332600006035
 20
42.12547314847644
 30
0.0
 10
13.05172700006034
 20
40.72673864847644
 30
0.0
 10
13.45012800006033
 20
39.32800414847644
 30
0.0
  0
SPLINE
  5
22C
330
1F
100
AcDbEntity
  8
DEFAULT
100
AcDbSpline
210
0.0
220
0.0
230
1.0
 70
     8
 71
     3
 72
    10
 73
     6
 74
     0
 42
0.0000000001
 43
0.0000000001
 40
0.0
 40
0.0
 40
0.0
 40
0.0
 40
0.3335870131841
 40
0.8335356046255
 40
1.0
 40
1.0
 40
1.0
 40
1.0
 10
0.4211326360513397
 20
55.77604470236643
 30
0.0
 10
0.4151320398843268
 20
55.78618627227645
 30
0.0
 10
0.4025063093473307
 20
55.81291057135643
 30
0.0
 10
0.395093635996318
 20
55.84780445320645
 30
0.0
 10
0.3945139273143354
 20
55.87135211307644
 30
0.0
 10
0.3946396528713194
 20
55.87722873372643
 30
0.0
  0
ARC
  5
22D
330
1F
100
AcDbEntity
  8
DEFAULT
100
AcDbCircle
 10
20.66765900006034
 20
49.18205414847644
 30
0.0
 40
0.0590553617749413
100
AcDbArc
 50
0.0
 51
36.98709771682563
  0
SPLINE
  5
22E
330
1F
100
AcDbEntity
  8
DEFAULT
100
AcDbSpline
210
0.0
220
0.0
230
1.0
 70
    24
 71
     2
 72
     6
 73
     3
 74
     0
 42
0.0000000001
 43
0.0000000001
 40
0.0
 40
0.0
 40
0.0
 40
1.0
 40
1.0
 40
1.0
 10
0.0002540000603233
 20
42.95674914847645
 30
0.0
 10
0.0002540000603233
 20
43.31611914847645
 30
0.0
 10
0.0002540000603233
 20
43.67548914847644
 30
0.0
  0
SPLINE
  5
22F
330
1F
100
AcDbEntity
  8
DEFAULT
100
AcDbSpline
210
0.0
220
0.0
230
1.0
 70
     8
 71
     3
 72
    10
 73
     6
 74
     0
 42
0.0000000001
 43
0.0000000001
 40
0.0
 40
0.0
 40
0.0
 40
0.0
 40
0.3333977887844
 40
0.6666153179594
 40
1.0
 40
1.0
 40
1.0
 40
1.0
 10
20.78910120501034
 20
49.92752944009645
 30
0.0
 10
20.79866246319035
 20
49.86296486232645
 30
0.0
 10
20.81146628683034
 20
49.73284050854643
 30
0.0
 10
20.81146648530036
 20
49.53678909577643
 30
0.0
 10
20.79866391944036
 20
49.40666721449644
 30
0.0
 10
20.78910329561033
 20
49.34210513666643
 30
0.0
  0
SPLINE
  5
230
330
1F
100
AcDbEntity
  8
DEFAULT
100
AcDbSpline
210
0.0
220
0.0
230
1.0
 70
     8
 71
     3
 72
     9
 73
     5
 74
     0
 42
0.0000000001
 43
0.0000000001
 40
0.0
 40
0.0
 40
0.0
 40
0.0
 40
0.4935380173814
 40
1.0
 40
1.0
 40
1.0
 40
1.0
 10
20.69193974069036
 20
49.20256698187644
 30
0.0
 10
20.68161791333036
 20
49.19691362325644
 30
0.0
 10
20.65963798221036
 20
49.18739801254644
 30
0.0
 10
20.63620191422034
 20
49.18218672860642
 30
0.0
 10
20.62421829282034
 20
49.18070128810645
 30
0.0
  0
SPLINE
  5
231
330
1F
100
AcDbEntity
  8
DEFAULT
100
AcDbSpline
210
0.0
220
0.0
230
1.0
 70
    24
 71
     2
 72
     6
 73
     3
 74
     0
 42
0.0000000001
 43
0.0000000001
 40
0.0
 40
0.0
 40
0.0
 40
1.0
 40
1.0
 40
1.0
 10
10.73959200006034
 20
38.95819714847643
 30
0.0
 10
10.73959200006034
 20
38.81055464847644
 30
0.0
 10
10.73959200006034
 20
38.66291214847645
 30
0.0
  0
SPLINE
  5
232
330
1F
100
AcDbEntity
  8
DEFAULT
100
AcDbSpline
210
0.0
220
0.0
230
1.0
 70
    24
 71
     2
 72
     6
 73
     3
 74
     0
 42
0.0000000001
 43
0.0000000001
 40
0.0
 40
0.0
 40
0.0
 40
1.0
 40
1.0
 40
1.0
 10
18.38468700006034
 20
48.65133014847645
 30
0.0
 10
19.44718700006034
 20
48.65133014847645
 30
0.0
 10
20.50968700006034
 20
48.65133014847645
 30
0.0
  0
SPLINE
  5
233
330
1F
100
AcDbEntity
  8
DEFAULT
100
AcDbSpline
210
0.0
220
0.0
230
1.0
 70
     8
 71
     3
 72
    10
 73
     6
 74
     0
 42
0.0000000001
 43
0.0000000001
 40
0.0
 40
0.0
 40
0.0
 40
0.0
 40
0.1665696722804
 40
0.6665577656833
 40
1.0
 40
1.0
 40
1.0
 40
1.0
 10
0.3946395933763256
 20
43.39238959689645
 30
0.0
 10
0.3945137553453151
 20
43.39827026324643
 30
0.0
 10
0.3950942775743158
 20
43.42182441998644
 30
0.0
 10
0.4025094945213255
 20
43.45671960301642
 30
0.0
 10
0.4151359242153205
 20
43.48344050838644
 30
0.0
 10
0.4211343212353427
 20
43.49357805185643
 30
0.0
  0
ARC
  5
234
330
1F
100
AcDbEntity
  8
DEFAULT
100
AcDbCircle
 10
0.9254510000603204
 20
55.95350214847643
 30
0.0
 40
0.5207924728214128
100
AcDbArc
 50
204.5899815201698
 51
258.9297129242994
  0
ARC
  5
235
330
1F
100
AcDbEntity
  8
DEFAULT
100
AcDbCircle
 10
12.94431600006034
 20
39.41095314847644
 30
0.0
 40
0.5364179440413006
100
AcDbArc
 50
243.7810279463982
 51
332.2933208849746
  0
SPLINE
  5
236
330
1F
100
AcDbEntity
  8
DEFAULT
100
AcDbSpline
210
0.0
220
0.0
230
1.0
 70
    24
 71
     2
 72
     6
 73
     3
 74
     0
 42
0.0000000001
 43
0.0000000001
 40
0.0
 40
0.0
 40
0.0
 40
1.0
 40
1.0
 40
1.0
 10
0.0002540000603233
 20
55.59413114847645
 30
0.0
 10
0.0002540000603233
 20
55.95350164847645
 30
0.0
 10
0.0002540000603233
 20
56.31287214847644
 30
0.0
  0
SPLINE
  5
237
330
1F
100
AcDbEntity
  8
DEFAULT
100
AcDbSpline
210
0.0
220
0.0
230
1.0
 70
    24
 71
     2
 72
     6
 73
     3
 74
     0
 42
0.0000000001
 43
0.0000000001
 40
0.0
 40
0.0
 40
0.0
 40
1.0
 40
1.0
 40
1.0
 10
-1.279273999939676
 20
56.70154214847643
 30
0.0
 10
-1.279273999939676
 20
56.55389964847643
 30
0.0
 10
-1.279273999939676
 20
56.40625714847643
 30
0.0
  0
SPLINE
  5
238
330
1F
100
AcDbEntity
  8
DEFAULT
100
AcDbSpline
210
0.0
220
0.0
230
1.0
 70
     8
 71
     3
 72
     9
 73
     5
 74
     0
 42
0.0000000001
 43
0.0000000001
 40
0.0
 40
0.0
 40
0.0
 40
0.0
 40
0.4997935423101
 40
1.0
 40
1.0
 40
1.0
 40
1.0
 10
0.8175983800873325
 20
56.47533798898642
 30
0.0
 10
0.8283027431683365
 20
56.48021550587644
 30
0.0
 10
0.8506080776083422
 20
56.48799762979642
 30
0.0
 10
0.8739804006163183
 20
56.49154329091643
 30
0.0
 10
0.8857333420113207
 20
56.49223217610644
 30
0.0
  0
SPLINE
  5
239
330
1F
100
AcDbEntity
  8
DEFAULT
100
AcDbSpline
210
0.0
220
0.0
230
1.0
 70
    24
 71
     2
 72
     6
 73
     3
 74
     0
 42
0.0000000001
 43
0.0000000001
 40
0.0
 40
0.0
 40
0.0
 40
1.0
 40
1.0
 40
1.0
 10
-1.062245999939677
 20
56.93698214847645
 30
0.0
 10
0.0002540000603233
 20
56.93698214847645
 30
0.0
 10
1.062754000060323
 20
56.93698214847645
 30
0.0
  0
ARC
  5
23A
330
1F
100
AcDbEntity
  8
DEFAULT
100
AcDbCircle
 10
0.9254510000603204
 20
55.95350214847643
 30
0.0
 40
0.5364169213292546
100
AcDbArc
 50
25.95700397527346
 51
89.76415820922506
  0
ARC
  5
23B
330
1F
100
AcDbEntity
  8
DEFAULT
100
AcDbCircle
 10
13.23959200006034
 20
39.86370814847645
 30
0.0
 40
0.0590549402928861
100
AcDbArc
 50
356.8209233279792
 51
0.0
  0
ARC
  5
23C
330
1F
100
AcDbEntity
  8
DEFAULT
100
AcDbCircle
 10
0.9254510000603204
 20
55.95350214847643
 30
0.0
 40
0.5364174957656088
100
AcDbArc
 50
198.3405085450712
 51
262.0320249683487
  0
SPLINE
  5
23D
330
1F
100
AcDbEntity
  8
DEFAULT
100
AcDbSpline
210
0.0
220
0.0
230
1.0
 70
    24
 71
     2
 72
     6
 73
     3
 74
     0
 42
0.0000000001
 43
0.0000000001
 40
0.0
 40
0.0
 40
0.0
 40
1.0
 40
1.0
 40
1.0
 10
1.279782000060322
 20
56.70154214847643
 30
0.0
 10
1.279782000060322
 20
56.55389964847643
 30
0.0
 10
1.279782000060322
 20
56.40625714847643
 30
0.0
  0
SPLINE
  5
23E
330
1F
100
AcDbEntity
  8
DEFAULT
100
AcDbSpline
210
0.0
220
0.0
230
1.0
 70
    24
 71
     2
 72
     6
 73
     3
 74
     0
 42
0.0000000001
 43
0.0000000001
 40
0.0
 40
0.0
 40
0.0
 40
0.6877655044809186
 40
0.6877655044809186
 40
0.6877655044809186
 10
18.16766000006034
 20
50.38285114847643
 30
0.0
 10
18.16766000006034
 20
50.28130807386387
 30
0.0
 10
18.16766000006034
 20
50.1797649992513
 30
0.0
  0
SPLINE
  5
23F
330
1F
100
AcDbEntity
  8
DEFAULT
100
AcDbSpline
210
0.0
220
0.0
230
1.0
 70
    24
 71
     2
 72
     6
 73
     3
 74
     0
 42
0.0000000001
 43
0.0000000001
 40
0.0
 40
0.0
 40
0.0
 40
1.0
 40
1.0
 40
1.0
 10
10.73959200006034
 20
40.15899314847644
 30
0.0
 10
10.73959200006034
 20
40.01135064847644
 30
0.0
 10
10.73959200006034
 20
39.86370814847645
 30
0.0
  0
LINE
  5
240
330
1F
100
AcDbEntity
  8
DEFAULT
100
AcDbLine
 10
17.70286322428565
 20
50.19682038580613
 30
0.0
 11
20.60762700006033
 21
50.09023214847643
 31
0.0
  0
SPLINE
  5
241
330
1F
100
AcDbEntity
  8
DEFAULT
100
AcDbSpline
210
0.0
220
0.0
230
1.0
 70
    24
 71
     2
 72
     6
 73
     3
 74
     0
 42
0.0000000001
 43
0.0000000001
 40
0.0
 40
0.0
 40
0.0
 40
1.0
 40
1.0
 40
1.0
 10
-1.279273999939676
 20
55.50074614847644
 30
0.0
 10
-1.279273999939676
 20
55.35310364847643
 30
0.0
 10
-1.279273999939676
 20
55.20546114847643
 30
0.0
  0
ARC
  5
242
330
1F
100
AcDbEntity
  8
DEFAULT
100
AcDbCircle
 10
0.9254510000603204
 20
43.31611914847643
 30
0.0
 40
0.5364176929571642
100
AcDbArc
 50
171.8583419509514
 51
260.257054140064
  0
SPLINE
  5
243
330
1F
100
AcDbEntity
  8
DEFAULT
100
AcDbSpline
210
0.0
220
0.0
230
1.0
 70
    24
 71
     2
 72
     6
 73
     3
 74
     0
 42
0.0000000001
 43
0.0000000001
 40
0.0
 40
0.0
 40
0.0
 40
1.0
 40
1.0
 40
1.0
 10
8.247130000000013
 20
23.49749986707612
 30
0.0
 10
8.247130000000013
 20
22.84348036707612
 30
0.0
 10
8.247130000000013
 20
22.18946086707612
 30
0.0
  0
SPLINE
  5
244
330
1F
100
AcDbEntity
  8
DEFAULT
100
AcDbSpline
210
0.0
220
0.0
230
1.0
 70
    12
 71
     3
 72
    17
 73
    13
 74
     0
 42
0.0000000001
 43
0.0000000001
 40
4.71238898038469
 40
4.71238898038469
 40
4.71238898038469
 40
4.71238898038469
 40
6.268549515538309
 40
6.268549515538309
 40
6.268549515538309
 40
7.268550056865641
 40
8.268551175845978
 40
9.268552294826314
 40
10.26855341380665
 40
11.26855453278699
 40
12.26855565176732
 40
13.26855677074766
 40
13.26855677074766
 40
13.26855677074766
 40
13.26855677074766
 10
12.87348400000002
 20
23.49749992988713
 30
0.0
 41
0.9999967205545754
 10
13.0182365424857
 20
23.49750115072474
 30
0.0
 41
0.8081740759577278
 10
13.12133757703543
 20
23.59910551525039
 30
0.0
 41
0.8081751691062027
 10
13.12345556280432
 20
23.74384236615731
 30
0.0
 41
1.0
 10
13.13031016231544
 20
24.02553074093611
 30
0.0
 41
1.0
 10
13.1744625785493
 20
24.58823098538201
 30
0.0
 41
1.0
 10
13.33226679913965
 20
25.4203393884236
 30
0.0
 41
1.0
 10
13.62371278417326
 20
26.21767080450077
 30
0.0
 41
1.0
 10
14.05366855760194
 20
26.94998482792221
 30
0.0
 41
1.0
 10
14.64005343399096
 20
27.5691078651445
 30
0.0
 41
1.0
 10
15.35091461988019
 20
28.02920629203649
 30
0.0
 41
1.0
 10
15.90224559298626
 20
28.21310903390027
 30
0.0
 41
1.0
 10
16.14934291022
 20
28.29054958889611
 30
0.0
 41
1.0
  0
SPLINE
  5
245
330
1F
100
AcDbEntity
  8
DEFAULT
100
AcDbSpline
210
0.0
220
0.0
230
1.0
 70
     8
 71
     3
 72
    32
 73
    28
 74
     0
 42
0.0000000001
 43
0.0000000001
 40
-7.0
 40
-7.0
 40
-7.0
 40
-7.0
 40
-6.0
 40
-5.0
 40
-4.0
 40
-3.0
 40
-2.0
 40
-1.0
 40
0.0
 40
0.0
 40
0.0
 40
1.0
 40
2.0
 40
3.0
 40
4.0
 40
5.0
 40
6.0
 40
7.0
 40
7.0
 40
7.0
 40
8.0
 40
9.0
 40
10.0
 40
11.0
 40
12.0
 40
13.0
 40
14.0
 40
14.0
 40
14.0
 40
14.0
 10
16.14934291022
 20
28.29054958889611
 30
0.0
 10
16.25872742436623
 20
28.32402445978424
 30
0.0
 10
16.47065426673596
 20
28.38508811848756
 30
0.0
 10
16.79346677599601
 20
28.45685920281984
 30
0.0
 10
17.11033150251252
 20
28.55365794130387
 30
0.0
 10
17.4029523305848
 20
28.713902594318
 30
0.0
 10
17.63392428973519
 20
28.95713664818746
 30
0.0
 10
17.77255989332265
 20
29.260651895169
 30
0.0
 10
17.82260863337383
 20
29.47645006334211
 30
0.0
 10
17.82698301909001
 20
29.58820639142111
 30
0.0
 10
17.83315506515818
 20
29.71443908077357
 30
0.0
 10
17.82908568868122
 20
29.96477816685363
 30
0.0
 10
17.82831792694456
 20
30.34019193238461
 30
0.0
 10
17.8177728271891
 20
30.71551080278216
 30
0.0
 10
17.80333325301258
 20
31.0906596590639
 30
0.0
 10
17.78655572036293
 20
31.46572605043896
 30
0.0
 10
17.76855401624194
 20
31.84070451571561
 30
0.0
 10
17.76176096663785
 20
32.09099646152634
 30
0.0
 10
17.75084200000002
 20
32.21566586707611
 30
0.0
 10
17.74029949715863
 20
32.31134717131167
 30
0.0
 10
17.70116873721399
 20
32.50091536539894
 30
0.0
 10
17.58920554225166
 20
32.76822746630032
 30
0.0
 10
17.43359571893633
 20
33.01360505686866
 30
0.0
 10
17.22118444791171
 20
33.21257660201788
 30
0.0
 10
16.97370901937281
 20
33.36360027323938
 30
0.0
 10
16.70633496089248
 20
33.47461418070797
 30
0.0
 10
16.52082687720871
 20
33.52728376996772
 30
0.0
 10
16.42691620883001
 20
33.54854218052112
 30
0.0
  0
SPLINE
  5
246
330
1F
100
AcDbEntity
  8
DEFAULT
100
AcDbSpline
210
0.0
220
0.0
230
1.0
 70
     8
 71
     3
 72
    14
 73
    10
 74
     0
 42
0.0000000001
 43
0.0000000001
 40
0.0
 40
0.0
 40
0.0
 40
0.0
 40
1.0
 40
2.0
 40
3.0
 40
4.0
 40
5.0
 40
6.0
 40
7.0
 40
7.0
 40
7.0
 40
7.0
 10
16.42691620883001
 20
33.54854218052112
 30
0.0
 10
15.78752800415556
 20
33.67199393788054
 30
0.0
 10
14.49937090796622
 20
33.87372741372019
 30
0.0
 10
12.5506347221713
 20
34.02667337253581
 30
0.0
 10
10.59983599641522
 20
34.14257180742995
 30
0.0
 10
8.644761523723346
 20
34.14258258723815
 30
0.0
 10
6.69396175359806
 20
34.02670040836676
 30
0.0
 10
4.745224485859168
 20
33.87376286260829
 30
0.0
 10
3.457066355609683
 20
33.67204401820007
 30
0.0
 10
2.817524791170015
 20
33.54857968052112
 30
0.0
  0
SPLINE
  5
247
330
1F
100
AcDbEntity
  8
DEFAULT
100
AcDbSpline
210
0.0
220
0.0
230
1.0
 70
     8
 71
     3
 72
    32
 73
    28
 74
     0
 42
0.0000000001
 43
0.0000000001
 40
-14.0
 40
-14.0
 40
-14.0
 40
-14.0
 40
-13.0
 40
-12.0
 40
-11.0
 40
-10.0
 40
-9.0
 40
-8.0
 40
-7.0
 40
-7.0
 40
-7.0
 40
-6.0
 40
-5.0
 40
-4.0
 40
-3.0
 40
-2.0
 40
-1.0
 40
0.0
 40
0.0
 40
0.0
 40
1.0
 40
2.0
 40
3.0
 40
4.0
 40
5.0
 40
6.0
 40
7.0
 40
7.0
 40
7.0
 40
7.0
 10
2.817524791170015
 20
33.54857968052112
 30
0.0
 10
2.723466122791322
 20
33.52728376996772
 30
0.0
 10
2.537958039107551
 20
33.47461418070797
 30
0.0
 10
2.270583980627208
 20
33.36360027323938
 30
0.0
 10
2.023108552088317
 20
33.21257660201788
 30
0.0
 10
1.810697281063696
 20
33.01360505686866
 30
0.0
 10
1.655087457748365
 20
32.76822746630032
 30
0.0
 10
1.543124262786037
 20
32.50091536539894
 30
0.0
 10
1.503993502841396
 20
32.31134717131167
 30
0.0
 10
1.493451000000007
 20
32.21566586707611
 30
0.0
 10
1.482532033362176
 20
32.09099646152634
 30
0.0
 10
1.475738983758092
 20
31.84070451571561
 30
0.0
 10
1.457737279637101
 20
31.46572605043896
 30
0.0
 10
1.440959746987446
 20
31.0906596590639
 30
0.0
 10
1.42652017281091
 20
30.71551080278216
 30
0.0
 10
1.415975073055463
 20
30.34019193238461
 30
0.0
 10
1.41520731131881
 20
29.96477816685363
 30
0.0
 10
1.411137934841832
 20
29.71443908077357
 30
0.0
 10
1.417309980910019
 20
29.58820639142111
 30
0.0
 10
1.421684366626195
 20
29.47645006334211
 30
0.0
 10
1.471733106677377
 20
29.260651895169
 30
0.0
 10
1.610368710264837
 20
28.95713664818746
 30
0.0
 10
1.841340669415231
 20
28.713902594318
 30
0.0
 10
2.133961497487491
 20
28.55365794130387
 30
0.0
 10
2.450826224004032
 20
28.45685920281984
 30
0.0
 10
2.773638733264065
 20
28.38508811848756
 30
0.0
 10
2.985565575633785
 20
28.32402445978424
 30
0.0
 10
3.094950089780014
 20
28.29054958889611
 30
0.0
  0
SPLINE
  5
248
330
1F
100
AcDbEntity
  8
DEFAULT
100
AcDbSpline
210
0.0
220
0.0
230
1.0
 70
    12
 71
     3
 72
    17
 73
    13
 74
     0
 42
0.0000000001
 43
0.0000000001
 40
-13.26855677074766
 40
-13.26855677074766
 40
-13.26855677074766
 40
-13.26855677074766
 40
-12.26855461531053
 40
-11.2685524598734
 40
-10.26855030443627
 40
-9.268548148999137
 40
-8.268545993562007
 40
-7.268543838124877
 40
-6.268542260341349
 40
-6.268542260341349
 40
-6.268542260341349
 40
-4.71238898038469
 40
-4.71238898038469
 40
-4.71238898038469
 40
-4.71238898038469
 10
3.094950089780014
 20
28.29054958889611
 30
0.0
 41
1.0
 10
3.342047407013766
 20
28.21310903390027
 30
0.0
 41
1.0
 10
3.893378380119827
 20
28.02920629203649
 30
0.0
 41
1.0
 10
4.60423956600907
 20
27.5691078651445
 30
0.0
 41
1.0
 10
5.190624442398089
 20
26.94998482792221
 30
0.0
 41
1.0
 10
5.620580215826763
 20
26.21767080450077
 30
0.0
 41
1.0
 10
5.912026200860382
 20
25.4203393884236
 30
0.0
 41
1.0
 10
6.069830421450746
 20
24.58823098538201
 30
0.0
 41
1.0
 10
6.113982837684574
 20
24.02553074093611
 30
0.0
 41
1.0
 10
6.120837437195704
 20
23.74384236615731
 30
0.0
 41
1.0
 10
6.122955408030047
 20
23.59910653583307
 30
0.0
 41
0.808176262256774
 10
6.226055282433181
 20
23.49750230875351
 30
0.0
 41
0.8081740759764163
 10
6.370807000000013
 20
23.49749986707611
 30
0.0
 41
0.999993441158927
  0
SPLINE
  5
249
330
1F
100
AcDbEntity
  8
DEFAULT
100
AcDbSpline
210
0.0
220
0.0
230
1.0
 70
    24
 71
     2
 72
     6
 73
     3
 74
     0
 42
0.0000000001
 43
0.0000000001
 40
-1.0
 40
-1.0
 40
-1.0
 40
0.0
 40
0.0
 40
0.0
 10
6.370807000000013
 20
23.49749986707612
 30
0.0
 10
9.62214550000001
 20
23.49749989848163
 30
0.0
 10
12.873484
 20
23.49749992988714
 30
0.0
  0
SPLINE
  5
24A
330
1F
100
AcDbEntity
  8
DEFAULT
100
AcDbSpline
210
0.0
220
0.0
230
1.0
 70
    24
 71
     2
 72
     6
 73
     3
 74
     0
 42
0.0000000001
 43
0.0000000001
 40
0.0
 40
0.0
 40
0.0
 40
1.0
 40
1.0
 40
1.0
 10
10.99713000000001
 20
23.49749986707612
 30
0.0
 10
10.99713000000001
 20
22.84348036707612
 30
0.0
 10
10.99713000000001
 20
22.18946086707612
 30
0.0
  0
SPLINE
  5
24B
330
1F
100
AcDbEntity
  8
DEFAULT
100
AcDbSpline
210
0.0
220
0.0
230
1.0
 70
     8
 71
     3
 72
     8
 73
     4
 74
     0
 42
0.0000000001
 43
0.0000000001
 40
0.0
 40
0.0
 40
0.0
 40
0.0
 40
1.0
 40
1.0
 40
1.0
 40
1.0
 10
40.26292773909545
 20
2.785667000000004
 30
0.0
 10
39.46450794204985
 20
3.439487860998085
 30
0.0
 10
38.58479419491873
 20
4.066708017702254
 30
0.0
 10
37.56131873909543
 20
4.289094999999989
 30
0.0
  0
ARC
  5
24C
330
1F
100
AcDbEntity
  8
DEFAULT
100
AcDbCircle
 10
28.17099073909544
 20
1.63480398705731
 30
0.0
 40
0.0599999624739702
100
AcDbArc
 50
270.0
 51
357.1168156066991
  0
SPLINE
  5
24D
330
1F
100
AcDbEntity
  8
DEFAULT
100
AcDbSpline
210
0.0
220
0.0
230
1.0
 70
    24
 71
     2
 72
     6
 73
     3
 74
     0
 42
0.0000000001
 43
0.0000000001
 40
0.0
 40
0.0
 40
0.0
 40
1.0
 40
1.0
 40
1.0
 10
28.23091475137154
 20
1.631785999381719
 30
0.0
 10
28.25065974523349
 20
2.023581499690856
 30
0.0
 10
28.27040473909544
 20
2.415376999999992
 30
0.0
  0
SPLINE
  5
24E
330
1F
100
AcDbEntity
  8
DEFAULT
100
AcDbSpline
210
0.0
220
0.0
230
1.0
 70
     8
 71
     3
 72
     9
 73
     5
 74
     0
 42
0.0000000001
 43
0.0000000001
 40
0.0
 40
0.0
 40
0.0
 40
0.0
 40
1.0
 40
2.0
 40
2.0
 40
2.0
 40
2.0
 10
28.27040473909544
 20
2.415376999999992
 30
0.0
 10
28.27273632690465
 20
2.451708179137867
 30
0.0
 10
28.29211414357839
 20
2.524269628192812
 30
0.0
 10
28.34842648445967
 20
2.576963854766205
 30
0.0
 10
28.38402873909543
 20
2.587097999999997
 30
0.0
  0
SPLINE
  5
24F
330
1F
100
AcDbEntity
  8
DEFAULT
100
AcDbSpline
210
0.0
220
0.0
230
1.0
 70
    24
 71
     2
 72
     6
 73
     3
 74
     0
 42
0.0000000001
 43
0.0000000001
 40
0.0
 40
0.0
 40
0.0
 40
1.0
 40
1.0
 40
1.0
 10
41.89120273909542
 20
0.797506999999996
 30
0.0
 10
41.85258573909542
 20
0.7306204999999935
 30
0.0
 10
41.81396873909542
 20
0.6637339999999909
 30
0.0
  0
SPLINE
  5
250
330
1F
100
AcDbEntity
  8
DEFAULT
100
AcDbSpline
210
0.0
220
0.0
230
1.0
 70
     8
 71
     3
 72
    10
 73
     6
 74
     0
 42
0.0000000001
 43
0.0000000001
 40
0.0
 40
0.0
 40
0.0
 40
0.0
 40
0.3745727208191
 40
0.7379583218834
 40
1.0
 40
1.0
 40
1.0
 40
1.0
 10
36.06758393948543
 20
4.007722273420001
 30
0.0
 10
36.06787392010544
 20
3.99243018450899
 30
0.0
 10
36.07594492659543
 20
3.961870459536996
 30
0.0
 10
36.10557984621543
 20
3.931178062312
 30
0.0
 10
36.13084078007545
 20
3.922819848800998
 30
0.0
 10
36.14156679190545
 20
3.921513614136003
 30
0.0
  0
SPLINE
  5
251
330
1F
100
AcDbEntity
  8
DEFAULT
100
AcDbSpline
210
0.0
220
0.0
230
1.0
 70
     8
 71
     3
 72
     8
 73
     4
 74
     0
 42
0.0000000001
 43
0.0000000001
 40
0.0
 40
0.0
 40
0.0
 40
0.0
 40
1.0
 40
1.0
 40
1.0
 40
1.0
 10
39.49044742590543
 20
1.575258484239995
 30
0.0
 10
39.49271344403543
 20
1.574957836099998
 30
0.0
 10
39.49499045116544
 20
1.574803805160002
 30
0.0
 10
39.49725735286545
 20
1.574803632299989
 30
0.0
  0
SPLINE
  5
252
330
1F
100
AcDbEntity
  8
DEFAULT
100
AcDbSpline
210
0.0
220
0.0
230
1.0
 70
     8
 71
     3
 72
    10
 73
     6
 74
     0
 42
0.0000000001
 43
0.0000000001
 40
0.0
 40
0.0
 40
0.0
 40
0.0
 40
0.4051007004553
 40
0.7475947607501
 40
1.0
 40
1.0
 40
1.0
 40
1.0
 10
35.92895110329543
 20
4.227643939370992
 30
0.0
 10
35.92880694745544
 20
4.237904861774993
 30
0.0
 10
35.92575621768545
 20
4.25689137114999
 30
0.0
 10
35.91480192577542
 20
4.280221349089999
 30
0.0
 10
35.90070498971544
 20
4.289363065583998
 30
0.0
 10
35.89431836562544
 20
4.289667634490996
 30
0.0
  0
SPLINE
  5
253
330
1F
100
AcDbEntity
  8
DEFAULT
100
AcDbSpline
210
0.0
220
0.0
230
1.0
 70
    24
 71
     2
 72
     6
 73
     3
 74
     0
 42
0.0000000001
 43
0.0000000001
 40
0.0
 40
0.0
 40
0.0
 40
1.0
 40
1.0
 40
1.0
 10
46.85810473909542
 20
2.41677
 30
0.0
 10
46.87227373909543
 20
2.024739999999994
 30
0.0
 10
46.88644273909544
 20
1.632709999999989
 30
0.0
  0
SPLINE
  5
254
330
1F
100
AcDbEntity
  8
DEFAULT
100
AcDbSpline
210
0.0
220
0.0
230
1.0
 70
    24
 71
     2
 72
     6
 73
     3
 74
     0
 42
0.0000000001
 43
0.0000000001
 40
0.0
 40
0.0
 40
0.0
 40
1.0
 40
1.0
 40
1.0
 10
27.22056273909543
 20
1.441068000000001
 30
0.0
 10
27.22056273909543
 20
1.360298
 30
0.0
 10
27.22056273909543
 20
1.279527999999999
 30
0.0
  0
SPLINE
  5
255
330
1F
100
AcDbEntity
  8
DEFAULT
100
AcDbSpline
210
0.0
220
0.0
230
1.0
 70
    24
 71
     2
 72
     6
 73
     3
 74
     0
 42
0.0000000001
 43
0.0000000001
 40
0.0
 40
0.0
 40
0.0
 40
1.0
 40
1.0
 40
1.0
 10
47.74032973909543
 20
1.441068000000001
 30
0.0
 10
47.74032973909543
 20
0.9929814999999991
 30
0.0
 10
47.74032973909543
 20
0.5448949999999968
 30
0.0
  0
ARC
  5
256
330
1F
100
AcDbEntity
  8
DEFAULT
100
AcDbCircle
 10
36.24956673909544
 20
-87.525449
 30
0.0
 40
90.00000008861713
100
AcDbArc
 50
83.77635464235605
 51
87.43672945249743
  0
ARC
  5
257
330
1F
100
AcDbEntity
  8
DEFAULT
100
AcDbCircle
 10
28.05717873909542
 20
0.5448949999999968
 30
0.0
 40
0.2362201456744931
100
AcDbArc
 50
283.2478113805403
 51
359.9999999999999
  0
CIRCLE
  5
258
330
1F
100
AcDbEntity
  8
DEFAULT
100
AcDbCircle
 10
38.85064873909543
 20
0.0
 30
0.0
 40
1.0625
  0
SPLINE
  5
259
330
1F
100
AcDbEntity
  8
DEFAULT
100
AcDbSpline
210
0.0
220
0.0
230
1.0
 70
     8
 71
     3
 72
    11
 73
     7
 74
     0
 42
0.0000000001
 43
0.0000000001
 40
0.0
 40
0.0
 40
0.0
 40
0.0
 40
0.2489561854195
 40
0.4983553878348
 40
0.7485815498319
 40
1.0
 40
1.0
 40
1.0
 40
1.0
 10
46.71669026969543
 20
2.58616831510399
 30
0.0
 10
46.73583712255542
 20
2.581919862759989
 30
0.0
 10
46.77304130951545
 20
2.566992837329991
 30
0.0
 10
46.81858108666545
 20
2.527931543175001
 30
0.0
 10
46.84925512780545
 20
2.476119547018996
 30
0.0
 10
46.85737368674545
 20
2.436563151535992
 30
0.0
 10
46.85810468461544
 20
2.416770141019995
 30
0.0
  0
ARC
  5
25A
330
1F
100
AcDbEntity
  8
DEFAULT
100
AcDbCircle
 10
47.72470473909543
 20
1.441068000000001
 30
0.0
 40
0.015625
100
AcDbArc
 50
0.0
 51
90.0
  0
SPLINE
  5
25B
330
1F
100
AcDbEntity
  8
DEFAULT
100
AcDbSpline
210
0.0
220
0.0
230
1.0
 70
    24
 71
     2
 72
     6
 73
     3
 74
     0
 42
0.0000000001
 43
0.0000000001
 40
0.0
 40
0.0
 40
0.0
 40
1.0
 40
1.0
 40
1.0
 10
46.55417773909544
 20
1.606985999999992
 30
0.0
 10
46.55425423909544
 20
1.606846999999995
 30
0.0
 10
46.55433073909545
 20
1.606707999999998
 30
0.0
  0
ARC
  5
25C
330
1F
100
AcDbEntity
  8
DEFAULT
100
AcDbCircle
 10
46.61305573909543
 20
1.644803999999993
 30
0.0
 40
0.0700001724710036
100
AcDbArc
 50
212.9717794996485
 51
270.0
  0
SPLINE
  5
25D
330
1F
100
AcDbEntity
  8
DEFAULT
100
AcDbSpline
210
0.0
220
0.0
230
1.0
 70
    24
 71
     2
 72
     6
 73
     3
 74
     0
 42
0.0000000001
 43
0.0000000001
 40
0.0
 40
0.0
 40
0.0
 40
1.0
 40
1.0
 40
1.0
 10
39.23942773909543
 20
1.441068000000001
 30
0.0
 10
39.23942773909543
 20
1.360298
 30
0.0
 10
39.23942773909543
 20
1.279527999999999
 30
0.0
  0
ARC
  5
25E
330
1F
100
AcDbEntity
  8
DEFAULT
100
AcDbCircle
 10
46.68311973909543
 20
1.441068000000001
 30
0.0
 40
0.015625
100
AcDbArc
 50
90.0
 51
180.0
  0
SPLINE
  5
25F
330
1F
100
AcDbEntity
  8
DEFAULT
100
AcDbSpline
210
0.0
220
0.0
230
1.0
 70
    24
 71
     2
 72
     6
 73
     3
 74
     0
 42
0.0000000001
 43
0.0000000001
 40
0.0
 40
0.0
 40
0.0
 40
1.0
 40
1.0
 40
1.0
 10
35.93280473909543
 20
4.007722000000001
 30
0.0
 10
35.93087373909543
 20
4.117682500000001
 30
0.0
 10
35.92894273909543
 20
4.227643
 30
0.0
  0
SPLINE
  5
260
330
1F
100
AcDbEntity
  8
DEFAULT
100
AcDbSpline
210
0.0
220
0.0
230
1.0
 70
    24
 71
     2
 72
     6
 73
     3
 74
     0
 42
0.0000000001
 43
0.0000000001
 40
0.0
 40
0.0
 40
0.0
 40
1.0
 40
1.0
 40
1.0
 10
12.30640800006033
 20
39.80465314847645
 30
0.0
 10
11.55252850006033
 20
39.80465314847645
 30
0.0
 10
10.79864900006034
 20
39.80465314847645
 30
0.0
  0
SPLINE
  5
261
330
1F
100
AcDbEntity
  8
DEFAULT
100
AcDbSpline
210
0.0
220
0.0
230
1.0
 70
     8
 71
     3
 72
     9
 73
     5
 74
     0
 42
0.0000000001
 43
0.0000000001
 40
0.0
 40
0.0
 40
0.0
 40
0.0
 40
0.3275070810799
 40
1.0
 40
1.0
 40
1.0
 40
1.0
 10
0.4211343212353427
 20
43.49357805185643
 30
0.0
 10
0.4241303862253289
 20
43.49864152780644
 30
0.0
 10
0.4339996734083229
 20
43.51368089161643
 30
0.0
 10
0.445972184323324
 20
43.52723055346642
 30
0.0
 10
0.4547941782433327
 20
43.53547620238645
 30
0.0
  0
ARC
  5
262
330
1F
100
AcDbEntity
  8
DEFAULT
100
AcDbCircle
 10
-1.220217999939678
 20
55.50074614847644
 30
0.0
 40
0.0590555000000004
100
AcDbArc
 50
90.0
 51
180.0
  0
SPLINE
  5
263
330
1F
100
AcDbEntity
  8
DEFAULT
100
AcDbSpline
210
0.0
220
0.0
230
1.0
 70
     8
 71
     3
 72
    10
 73
     6
 74
     0
 42
0.0000000001
 43
0.0000000001
 40
0.0
 40
0.0
 40
0.0
 40
0.0
 40
0.3333954294379
 40
0.6666145814545
 40
1.0
 40
1.0
 40
1.0
 40
1.0
 10
0.4162641829983329
 20
55.96162952227643
 30
0.0
 10
0.4464787380273378
 20
56.01948260848643
 30
0.0
 10
0.5126051085593417
 20
56.13228055419644
 30
0.0
 10
0.6278404772983208
 20
56.29088880040645
 30
0.0
 10
0.7146815408353291
 20
56.38863432326643
 30
0.0
 10
0.7603647495993187
 20
56.43524641992643
 30
0.0
  0
SPLINE
  5
264
330
1F
100
AcDbEntity
  8
DEFAULT
100
AcDbSpline
210
0.0
220
0.0
230
1.0
 70
     8
 71
     3
 72
     9
 73
     5
 74
     0
 42
0.0000000001
 43
0.0000000001
 40
0.0
 40
0.0
 40
0.0
 40
0.0
 40
0.7494677026309
 40
1.0
 40
1.0
 40
1.0
 40
1.0
 10
0.7603647495993187
 20
56.43524641992643
 30
0.0
 10
0.7726189741913174
 20
56.44773769933643
 30
0.0
 10
0.7913836881533314
 20
56.46221070170644
 30
0.0
 10
0.8122582106073253
 20
56.47290470391643
 30
0.0
 10
0.8175983800873325
 20
56.47533798898642
 30
0.0
  0
ARC
  5
265
330
1F
100
AcDbEntity
  8
DEFAULT
100
AcDbCircle
 10
20.66765900006034
 20
50.08756614847643
 30
0.0
 40
0.0590553617749403
100
AcDbArc
 50
323.0129022831764
 51
0.0
  0
SPLINE
  5
266
330
1F
100
AcDbEntity
  8
DEFAULT
100
AcDbSpline
210
0.0
220
0.0
230
1.0
 70
     8
 71
     3
 72
     8
 73
     4
 74
     0
 42
0.0000000001
 43
0.0000000001
 40
0.0
 40
0.0
 40
0.0
 40
0.0
 40
1.0
 40
1.0
 40
1.0
 40
1.0
 10
20.62421829282034
 20
49.18070128810645
 30
0.0
 10
20.61870412242034
 20
49.18001777418642
 30
0.0
 10
20.61316578423033
 20
49.17957857159645
 30
0.0
 10
20.60762854679034
 20
49.17938853224645
 30
0.0
  0
ENDSEC
  0
SECTION
  2
OBJECTS
  0
DICTIONARY
  5
C
330
0
100
AcDbDictionary
281
     1
  3
ACAD_GROUP
350
D
  3
ACAD_LAYOUT
350
1A
  3
ACAD_MLEADERSTYLE
350
268
  3
ACAD_MLINESTYLE
350
17
  3
ACAD_PLOTSETTINGS
350
19
  3
ACAD_PLOTSTYLENAME
350
E
  3
ACAD_SCALELIST
350
3B
  3
ACAD_TABLESTYLE
350
267
  3
ACAD_VISUALSTYLE
350
2A
  0
DICTIONARY
  5
D
102
{ACAD_REACTORS
330
C
102
}
330
C
100
AcDbDictionary
281
     1
  0
DICTIONARY
  5
1A
102
{ACAD_REACTORS
330
C
102
}
330
C
100
AcDbDictionary
281
     1
  3
Layout1
350
1E
  3
Layout2
350
26
  3
Model
350
22
  0
DICTIONARY
  5
268
102
{ACAD_REACTORS
330
C
102
}
330
C
100
AcDbDictionary
281
     1
  0
DICTIONARY
  5
17
102
{ACAD_REACTORS
330
C
102
}
330
C
100
AcDbDictionary
281
     1
  3
Standard
350
18
  0
DICTIONARY
  5
19
102
{ACAD_REACTORS
330
C
102
}
330
C
100
AcDbDictionary
281
     1
  0
ACDBDICTIONARYWDFLT
  5
E
102
{ACAD_REACTORS
330
C
102
}
330
C
100
AcDbDictionary
281
     1
  3
Normal
350
F
100
AcDbDictionaryWithDefault
340
F
  0
DICTIONARY
  5
3B
102
{ACAD_REACTORS
330
C
102
}
330
C
100
AcDbDictionary
281
     1
  3
A0
350
3C
  3
A1
350
3D
  3
A2
350
3E
  3
A3
350
3F
  3
A4
350
40
  3
A5
350
41
  3
A6
350
42
  3
A7
350
43
  3
A8
350
44
  3
A9
350
45
  3
B0
350
46
  3
B1
350
47
  3
B2
350
48
  3
B3
350
49
  3
B4
350
4A
  3
B5
350
4B
  3
B6
350
4C
  3
B7
350
4D
  3
B8
350
4E
  3
B9
350
4F
  3
C0
350
50
  3
C1
350
51
  3
C2
350
52
  3
C3
350
53
  3
C4
350
54
  3
C5
350
55
  3
C6
350
56
  3
C7
350
57
  3
C8
350
58
  3
C9
350
59
  3
D0
350
5A
  3
D1
350
5B
  3
D2
350
5C
  0
DICTIONARY
  5
267
102
{ACAD_REACTORS
330
C
102
}
330
C
100
AcDbDictionary
281
     1
  0
DICTIONARY
  5
2A
102
{ACAD_REACTORS
330
C
102
}
330
C
100
AcDbDictionary
281
     1
  3
2dWireframe
350
2F
  3
3D Hidden
350
31
  3
3dWireframe
350
30
  3
Basic
350
32
  3
Brighten
350
36
  3
ColorChange
350
3A
  3
Conceptual
350
34
  3
Dim
350
35
  3
Facepattern
350
39
  3
Flat
350
2B
  3
FlatWithEdges
350
2C
  3
Gouraud
350
2D
  3
GouraudWithEdges
350
2E
  3
Linepattern
350
38
  3
Realistic
350
33
  3
Thicken
350
37
  0
LAYOUT
  5
1E
102
{ACAD_REACTORS
330
1A
102
}
330
1A
100
AcDbPlotSettings
  1

  2
none_device
  4

  6

 40
0.0
 41
0.0
 42
0.0
 43
0.0
 44
0.0
 45
0.0
 46
0.0
 47
0.0
 48
0.0
 49
0.0
140
0.0
141
0.0
142
1.0
143
1.0
 70
   688
 72
     0
 73
     0
 74
     5
  7

 75
    16
 76
     0
 77
     2
 78
   300
147
1.0
148
0.0
149
0.0
100
AcDbLayout
  1
Layout1
 70
     1
 71
     1
 10
0.0
 20
0.0
 11
12.0
 21
9.0
 12
0.0
 22
0.0
 32
0.0
 14
1.000000000000000E+20
 24
1.000000000000000E+20
 34
1.000000000000000E+20
 15
-1.000000000000000E+20
 25
-1.000000000000000E+20
 35
-1.000000000000000E+20
146
0.0
 13
0.0
 23
0.0
 33
0.0
 16
1.0
 26
0.0
 36
0.0
 17
0.0
 27
1.0
 37
0.0
 76
     0
330
1B
  0
LAYOUT
  5
26
102
{ACAD_REACTORS
330
1A
102
}
330
1A
100
AcDbPlotSettings
  1

  2
none_device
  4

  6

 40
0.0
 41
0.0
 42
0.0
 43
0.0
 44
0.0
 45
0.0
 46
0.0
 47
0.0
 48
0.0
 49
0.0
140
0.0
141
0.0
142
1.0
143
1.0
 70
   688
 72
     0
 73
     0
 74
     5
  7

 75
    16
 76
     0
 77
     2
 78
   300
147
1.0
148
0.0
149
0.0
100
AcDbLayout
  1
Layout2
 70
     1
 71
     2
 10
0.0
 20
0.0
 11
0.0
 21
0.0
 12
0.0
 22
0.0
 32
0.0
 14
0.0
 24
0.0
 34
0.0
 15
0.0
 25
0.0
 35
0.0
146
0.0
 13
0.0
 23
0.0
 33
0.0
 16
1.0
 26
0.0
 36
0.0
 17
0.0
 27
1.0
 37
0.0
 76
     0
330
23
  0
LAYOUT
  5
22
102
{ACAD_REACTORS
330
1A
102
}
330
1A
100
AcDbPlotSettings
  1

  2
none_device
  4

  6

 40
0.0
 41
0.0
 42
0.0
 43
0.0
 44
0.0
 45
0.0
 46
0.0
 47
0.0
 48
0.0
 49
0.0
140
0.0
141
0.0
142
1.0
143
1.0
 70
  1712
 72
     0
 73
     0
 74
     0
  7

 75
     0
 76
     0
 77
     2
 78
   300
147
1.0
148
0.0
149
0.0
100
AcDbLayout
  1
Model
 70
     1
 71
     0
 10
0.0
 20
0.0
 11
12.0
 21
9.0
 12
0.0
 22
0.0
 32
0.0
 14
-1.279528000000001
 24
-1.279528000000001
 34
0.0
 15
47.74033088476992
 25
62.01772914847645
 35
0.0
146
0.0
 13
0.0
 23
0.0
 33
0.0
 16
1.0
 26
0.0
 36
0.0
 17
0.0
 27
1.0
 37
0.0
 76
     0
330
1F
331
29
  0
MLINESTYLE
  5
18
102
{ACAD_REACTORS
330
17
102
}
330
17
100
AcDbMlineStyle
  2
Standard
 70
     0
  3

 62
   256
 51
90.0
 52
90.0
 71
     2
 49
0.5
 62
   256
  6
BYLAYER
 49
-0.5
 62
   256
  6
BYLAYER
  0
ACDBPLACEHOLDER
  5
F
102
{ACAD_REACTORS
330
E
102
}
330
E
  0
SCALE
  5
3C
102
{ACAD_REACTORS
330
3B
102
}
330
3B
100
AcDbScale
 70
     0
300
1:1
140
1.0
141
1.0
290
     1
  0
SCALE
  5
3D
102
{ACAD_REACTORS
330
3B
102
}
330
3B
100
AcDbScale
 70
     0
300
1:2
140
1.0
141
2.0
290
     0
  0
SCALE
  5
3E
102
{ACAD_REACTORS
330
3B
102
}
330
3B
100
AcDbScale
 70
     0
300
1:4
140
1.0
141
4.0
290
     0
  0
SCALE
  5
3F
102
{ACAD_REACTORS
330
3B
102
}
330
3B
100
AcDbScale
 70
     0
300
1:5
140
1.0
141
5.0
290
     0
  0
SCALE
  5
40
102
{ACAD_REACTORS
330
3B
102
}
330
3B
100
AcDbScale
 70
     0
300
1:8
140
1.0
141
8.0
290
     0
  0
SCALE
  5
41
102
{ACAD_REACTORS
330
3B
102
}
330
3B
100
AcDbScale
 70
     0
300
1:10
140
1.0
141
10.0
290
     0
  0
SCALE
  5
42
102
{ACAD_REACTORS
330
3B
102
}
330
3B
100
AcDbScale
 70
     0
300
1:16
140
1.0
141
16.0
290
     0
  0
SCALE
  5
43
102
{ACAD_REACTORS
330
3B
102
}
330
3B
100
AcDbScale
 70
     0
300
1:20
140
1.0
141
20.0
290
     0
  0
SCALE
  5
44
102
{ACAD_REACTORS
330
3B
102
}
330
3B
100
AcDbScale
 70
     0
300
1:30
140
1.0
141
30.0
290
     0
  0
SCALE
  5
45
102
{ACAD_REACTORS
330
3B
102
}
330
3B
100
AcDbScale
 70
     0
300
1:40
140
1.0
141
40.0
290
     0
  0
SCALE
  5
46
102
{ACAD_REACTORS
330
3B
102
}
330
3B
100
AcDbScale
 70
     0
300
1:50
140
1.0
141
50.0
290
     0
  0
SCALE
  5
47
102
{ACAD_REACTORS
330
3B
102
}
330
3B
100
AcDbScale
 70
     0
300
1:100
140
1.0
141
100.0
290
     0
  0
SCALE
  5
48
102
{ACAD_REACTORS
330
3B
102
}
330
3B
100
AcDbScale
 70
     0
300
2:1
140
2.0
141
1.0
290
     0
  0
SCALE
  5
49
102
{ACAD_REACTORS
330
3B
102
}
330
3B
100
AcDbScale
 70
     0
300
4:1
140
4.0
141
1.0
290
     0
  0
SCALE
  5
4A
102
{ACAD_REACTORS
330
3B
102
}
330
3B
100
AcDbScale
 70
     0
300
8:1
140
8.0
141
1.0
290
     0
  0
SCALE
  5
4B
102
{ACAD_REACTORS
330
3B
102
}
330
3B
100
AcDbScale
 70
     0
300
10:1
140
10.0
141
1.0
290
     0
  0
SCALE
  5
4C
102
{ACAD_REACTORS
330
3B
102
}
330
3B
100
AcDbScale
 70
     0
300
100:1
140
100.0
141
1.0
290
     0
  0
SCALE
  5
4D
102
{ACAD_REACTORS
330
3B
102
}
330
3B
100
AcDbScale
 70
     0
300
1/128" = 1'-0"
140
0.0078125
141
12.0
290
     0
  0
SCALE
  5
4E
102
{ACAD_REACTORS
330
3B
102
}
330
3B
100
AcDbScale
 70
     0
300
1/64" = 1'-0"
140
0.015625
141
12.0
290
     0
  0
SCALE
  5
4F
102
{ACAD_REACTORS
330
3B
102
}
330
3B
100
AcDbScale
 70
     0
300
1/32" = 1'-0"
140
0.03125
141
12.0
290
     0
  0
SCALE
  5
50
102
{ACAD_REACTORS
330
3B
102
}
330
3B
100
AcDbScale
 70
     0
300
1/16" = 1'-0"
140
0.0625
141
12.0
290
     0
  0
SCALE
  5
51
102
{ACAD_REACTORS
330
3B
102
}
330
3B
100
AcDbScale
 70
     0
300
3/32" = 1'-0"
140
0.09375
141
12.0
290
     0
  0
SCALE
  5
52
102
{ACAD_REACTORS
330
3B
102
}
330
3B
100
AcDbScale
 70
     0
300
1/8" = 1'-0"
140
0.125
141
12.0
290
     0
  0
SCALE
  5
53
102
{ACAD_REACTORS
330
3B
102
}
330
3B
100
AcDbScale
 70
     0
300
3/16" = 1'-0"
140
0.1875
141
12.0
290
     0
  0
SCALE
  5
54
102
{ACAD_REACTORS
330
3B
102
}
330
3B
100
AcDbScale
 70
     0
300
1/4" = 1'-0"
140
0.25
141
12.0
290
     0
  0
SCALE
  5
55
102
{ACAD_REACTORS
330
3B
102
}
330
3B
100
AcDbScale
 70
     0
300
3/8" = 1'-0"
140
0.375
141
12.0
290
     0
  0
SCALE
  5
56
102
{ACAD_REACTORS
330
3B
102
}
330
3B
100
AcDbScale
 70
     0
300
1/2" = 1'-0"
140
0.5
141
12.0
290
     0
  0
SCALE
  5
57
102
{ACAD_REACTORS
330
3B
102
}
330
3B
100
AcDbScale
 70
     0
300
3/4" = 1'-0"
140
0.75
141
12.0
290
     0
  0
SCALE
  5
58
102
{ACAD_REACTORS
330
3B
102
}
330
3B
100
AcDbScale
 70
     0
300
1" = 1'-0"
140
1.0
141
12.0
290
     0
  0
SCALE
  5
59
102
{ACAD_REACTORS
330
3B
102
}
330
3B
100
AcDbScale
 70
     0
300
1-1/2" = 1'-0"
140
1.5
141
12.0
290
     0
  0
SCALE
  5
5A
102
{ACAD_REACTORS
330
3B
102
}
330
3B
100
AcDbScale
 70
     0
300
3" = 1'-0"
140
3.0
141
12.0
290
     0
  0
SCALE
  5
5B
102
{ACAD_REACTORS
330
3B
102
}
330
3B
100
AcDbScale
 70
     0
300
6" = 1'-0"
140
6.0
141
12.0
290
     0
  0
SCALE
  5
5C
102
{ACAD_REACTORS
330
3B
102
}
330
3B
100
AcDbScale
 70
     0
300
1'-0" = 1'-0"
140
12.0
141
12.0
290
     0
  0
VISUALSTYLE
  5
2F
102
{ACAD_REACTORS
330
2A
102
}
330
2A
100
AcDbVisualStyle
  2
2dWireframe
 70
     4
 71
     0
 72
     2
 73
     0
 90
        0
 40
-0.6
 41
-30.0
 62
     5
 63
     7
421
 16777215
 74
     1
 91
        4
 64
     7
 65
   257
 75
     1
175
     1
 42
1.0
 92
        0
 66
   257
 43
1.0
 76
     1
 77
     6
 78
     2
 67
     7
 79
     5
170
     0
171
     0
290
     0
174
     0
 93
        1
 44
0.0
173
     0
291
     0
 45
0.0
1001
ACAD
1000
AcDbSavedByObjectVersion
1070
     0
  0
VISUALSTYLE
  5
31
102
{ACAD_REACTORS
330
2A
102
}
330
2A
100
AcDbVisualStyle
  2
3D Hidden
 70
     6
 71
     1
 72
     2
 73
     2
 90
        0
 40
-0.6
 41
-30.0
 62
     5
 63
     7
421
 16777215
 74
     2
 91
        2
 64
     7
 65
   257
 75
     2
175
     1
 42
40.0
 92
        0
 66
   257
 43
1.0
 76
     1
 77
     6
 78
     2
 67
     7
 79
     3
170
     0
171
     0
290
     0
174
     0
 93
        1
 44
0.0
173
     0
291
     0
 45
0.0
1001
ACAD
1000
AcDbSavedByObjectVersion
1070
     0
  0
VISUALSTYLE
  5
30
102
{ACAD_REACTORS
330
2A
102
}
330
2A
100
AcDbVisualStyle
  2
3dWireframe
 70
     5
 71
     0
 72
     2
 73
     0
 90
        0
 40
-0.6
 41
-30.0
 62
     5
 63
     7
421
 16777215
 74
     1
 91
        4
 64
     7
 65
   257
 75
     1
175
     1
 42
1.0
 92
        0
 66
   257
 43
1.0
 76
     1
 77
     6
 78
     2
 67
     7
 79
     5
170
     0
171
     0
290
     0
174
     0
 93
        1
 44
0.0
173
     0
291
     0
 45
0.0
1001
ACAD
1000
AcDbSavedByObjectVersion
1070
     0
  0
VISUALSTYLE
  5
32
102
{ACAD_REACTORS
330
2A
102
}
330
2A
100
AcDbVisualStyle
  2
Basic
 70
     7
 71
     1
 72
     0
 73
     1
 90
        0
 40
-0.6
 41
-30.0
 62
     5
 63
     7
421
 16777215
 74
     0
 91
        4
 64
     7
 65
   257
 75
     1
175
     1
 42
1.0
 92
        8
 66
     7
 43
1.0
 76
     1
 77
     6
 78
     2
 67
     7
 79
     5
170
     0
171
     0
290
     0
174
     0
 93
        1
 44
0.0
173
     0
291
     1
 45
0.0
1001
ACAD
1000
AcDbSavedByObjectVersion
1070
     0
  0
VISUALSTYLE
  5
36
102
{ACAD_REACTORS
330
2A
102
}
330
2A
100
AcDbVisualStyle
  2
Brighten
 70
    12
 71
     2
 72
     2
 73
     0
 90
        0
 40
-0.6
 41
-30.0
 62
     5
 63
     7
421
 16777215
 74
     1
 91
        4
 64
     7
 65
   257
 75
     1
175
     1
 42
1.0
 92
        8
 66
     7
 43
1.0
 76
     1
 77
     6
 78
     2
 67
     7
 79
     5
170
     0
171
     0
290
     0
174
     0
 93
        1
 44
50.0
173
     0
291
     1
 45
0.0
1001
ACAD
1000
AcDbSavedByObjectVersion
1070
     0
  0
VISUALSTYLE
  5
3A
102
{ACAD_REACTORS
330
2A
102
}
330
2A
100
AcDbVisualStyle
  2
ColorChange
 70
    16
 71
     2
 72
     2
 73
     3
 90
        0
 40
-0.6
 41
-30.0
 62
     5
 63
     8
421
  8421504
 74
     1
 91
        4
 64
     7
 65
   257
 75
     1
175
     1
 42
1.0
 92
        8
 66
     8
424
  8421504
 43
1.0
 76
     1
 77
     6
 78
     2
 67
     7
 79
     5
170
     0
171
     0
290
     0
174
     0
 93
        1
 44
0.0
173
     0
291
     1
 45
0.0
1001
ACAD
1000
AcDbSavedByObjectVersion
1070
     0
  0
VISUALSTYLE
  5
34
102
{ACAD_REACTORS
330
2A
102
}
330
2A
100
AcDbVisualStyle
  2
Conceptual
 70
     9
 71
     3
 72
     2
 73
     0
 90
        0
 40
-0.6
 41
-30.0
 62
     5
 63
     7
421
 16777215
 74
     2
 91
        2
 64
     7
 65
   257
 75
     1
175
     1
 42
40.0
 92
        8
 66
     7
 43
1.0
 76
     1
 77
     6
 78
     2
 67
     7
 79
     3
170
     0
171
     0
290
     0
174
     0
 93
        1
 44
0.0
173
     0
291
     0
 45
0.0
1001
ACAD
1000
AcDbSavedByObjectVersion
1070
     0
  0
VISUALSTYLE
  5
35
102
{ACAD_REACTORS
330
2A
102
}
330
2A
100
AcDbVisualStyle
  2
Dim
 70
    11
 71
     2
 72
     2
 73
     0
 90
        0
 40
-0.6
 41
-30.0
 62
     5
 63
     7
421
 16777215
 74
     1
 91
        4
 64
     7
 65
   257
 75
     1
175
     1
 42
1.0
 92
        8
 66
     7
 43
1.0
 76
     1
 77
     6
 78
     2
 67
     7
 79
     5
170
     0
171
     0
290
     0
174
     0
 93
        1
 44
-50.0
173
     0
291
     1
 45
0.0
1001
ACAD
1000
AcDbSavedByObjectVersion
1070
     0
  0
VISUALSTYLE
  5
39
102
{ACAD_REACTORS
330
2A
102
}
330
2A
100
AcDbVisualStyle
  2
Facepattern
 70
    15
 71
     2
 72
     2
 73
     0
 90
        0
 40
-0.6
 41
-30.0
 62
     5
 63
     7
421
 16777215
 74
     1
 91
        4
 64
     7
 65
   257
 75
     1
175
     1
 42
1.0
 92
        8
 66
     7
 43
1.0
 76
     1
 77
     6
 78
     2
 67
     7
 79
     5
170
     0
171
     0
290
     0
174
     0
 93
        1
 44
0.0
173
     0
291
     1
 45
0.0
1001
ACAD
1000
AcDbSavedByObjectVersion
1070
     0
  0
VISUALSTYLE
  5
2B
102
{ACAD_REACTORS
330
2A
102
}
330
2A
100
AcDbVisualStyle
  2
Flat
 70
     0
 71
     2
 72
     1
 73
     1
 90
        2
 40
-0.6
 41
30.0
 62
     5
 63
     7
421
 16777215
 74
     0
 91
        4
 64
     7
 65
   257
 75
     1
175
     1
 42
1.0
 92
        8
 66
     7
 43
1.0
 76
     1
 77
     6
 78
     2
 67
     7
 79
     5
170
     0
171
     0
290
     0
174
     0
 93
       13
 44
0.0
173
     0
291
     1
 45
0.0
1001
ACAD
1000
AcDbSavedByObjectVersion
1070
     0
  0
VISUALSTYLE
  5
2C
102
{ACAD_REACTORS
330
2A
102
}
330
2A
100
AcDbVisualStyle
  2
FlatWithEdges
 70
     1
 71
     2
 72
     1
 73
     1
 90
        2
 40
-0.6
 41
30.0
 62
     5
 63
     7
421
 16777215
 74
     1
 91
        4
 64
     7
 65
   257
 75
     1
175
     1
 42
1.0
 92
        0
 66
   257
 43
1.0
 76
     1
 77
     6
 78
     2
 67
     7
 79
     5
170
     0
171
     0
290
     0
174
     0
 93
       13
 44
0.0
173
     0
291
     1
 45
0.0
1001
ACAD
1000
AcDbSavedByObjectVersion
1070
     0
  0
VISUALSTYLE
  5
2D
102
{ACAD_REACTORS
330
2A
102
}
330
2A
100
AcDbVisualStyle
  2
Gouraud
 70
     2
 71
     2
 72
     2
 73
     1
 90
        2
 40
-0.6
 41
30.0
 62
     5
 63
     7
421
 16777215
 74
     0
 91
        4
 64
     7
 65
   257
 75
     1
175
     1
 42
1.0
 92
        0
 66
     7
 43
1.0
 76
     1
 77
     6
 78
     2
 67
     7
 79
     5
170
     0
171
     0
290
     0
174
     0
 93
       13
 44
0.0
173
     0
291
     1
 45
0.0
1001
ACAD
1000
AcDbSavedByObjectVersion
1070
     0
  0
VISUALSTYLE
  5
2E
102
{ACAD_REACTORS
330
2A
102
}
330
2A
100
AcDbVisualStyle
  2
GouraudWithEdges
 70
     3
 71
     2
 72
     2
 73
     1
 90
        2
 40
-0.6
 41
30.0
 62
     5
 63
     7
421
 16777215
 74
     1
 91
        4
 64
     7
 65
   257
 75
     1
175
     1
 42
1.0
 92
        0
 66
   257
 43
1.0
 76
     1
 77
     6
 78
     2
 67
     7
 79
     5
170
     0
171
     0
290
     0
174
     0
 93
       13
 44
0.0
173
     0
291
     1
 45
0.0
1001
ACAD
1000
AcDbSavedByObjectVersion
1070
     0
  0
VISUALSTYLE
  5
38
102
{ACAD_REACTORS
330
2A
102
}
330
2A
100
AcDbVisualStyle
  2
Linepattern
 70
    14
 71
     2
 72
     2
 73
     0
 90
        0
 40
-0.6
 41
-30.0
 62
     5
 63
     7
421
 16777215
 74
     1
 91
        4
 64
     7
 65
   257
 75
     7
175
     7
 42
1.0
 92
        8
 66
     7
 43
1.0
 76
     1
 77
     6
 78
     2
 67
     7
 79
     5
170
     0
171
     0
290
     0
174
     0
 93
        1
 44
0.0
173
     0
291
     1
 45
0.0
1001
ACAD
1000
AcDbSavedByObjectVersion
1070
     0
  0
VISUALSTYLE
  5
33
102
{ACAD_REACTORS
330
2A
102
}
330
2A
100
AcDbVisualStyle
  2
Realistic
 70
     8
 71
     2
 72
     2
 73
     0
 90
        0
 40
-0.6
 41
-30.0
 62
     5
 63
     7
421
 16777215
 74
     1
 91
        0
 64
     7
 65
   257
 75
     1
175
     1
 42
1.0
 92
        8
 66
     8
424
  7895160
 43
1.0
 76
     1
 77
     6
 78
     2
 67
     7
 79
     5
170
     0
171
     0
290
     0
174
     0
 93
       13
 44
0.0
173
     0
291
     0
 45
0.0
1001
ACAD
1000
AcDbSavedByObjectVersion
1070
     0
  0
VISUALSTYLE
  5
37
102
{ACAD_REACTORS
330
2A
102
}
330
2A
100
AcDbVisualStyle
  2
Thicken
 70
    13
 71
     2
 72
     2
 73
     0
 90
        0
 40
-0.6
 41
-30.0
 62
     5
 63
     7
421
 16777215
 74
     1
 91
        4
 64
     7
 65
   257
 75
     1
175
     1
 42
1.0
 92
       12
 66
     7
 43
1.0
 76
     1
 77
     6
 78
     2
 67
     7
 79
     5
170
     0
171
     0
290
     0
174
     0
 93
        1
 44
0.0
173
     0
291
     1
 45
0.0
1001
ACAD
1000
AcDbSavedByObjectVersion
1070
     0
  0
ENDSEC
  0
EOF
