  0
SECTION
  2
HEADER
  9
$ACADVER
  1
AC1018
  9
$ACADMAINTVER
 70
     0
  9
$DWGCODEPAGE
  3
ANSI_1252
  9
$INSBASE
 10
0.0
 20
0.0
 30
0.0
  9
$EXTMIN
 10
-1.284274004192434
 20
-1.279528000000001
 30
0.0
  9
$EXTMAX
 10
47.74033088476988
 20
55.6730862814003
 30
0.0
  9
$LIMMIN
 10
0.0
 20
0.0
  9
$LIMMAX
 10
12.0
 20
9.0
  9
$ORTHOMODE
 70
     0
  9
$REGENMODE
 70
     1
  9
$FILLMODE
 70
     1
  9
$QTEXTMODE
 70
     0
  9
$MIRRTEXT
 70
     1
  9
$LTSCALE
 40
1.0
  9
$ATTMODE
 70
     1
  9
$TEXTSIZE
 40
0.2
  9
$TRACEWID
 40
0.05
  9
$TEXTSTYLE
  7
Standard
  9
$CLAYER
  8
DEFAULT
  9
$CELTYPE
  6
ByLayer
  9
$CECOLOR
 62
   256
  9
$CELTSCALE
 40
1.0
  9
$DISPSILH
 70
     0
  9
$DIMSCALE
 40
1.0
  9
$DIMASZ
 40
0.18
  9
$DIMEXO
 40
0.0625
  9
$DIMDLI
 40
0.38
  9
$DIMRND
 40
0.0
  9
$DIMDLE
 40
0.0
  9
$DIMEXE
 40
0.18
  9
$DIMTP
 40
0.0
  9
$DIMTM
 40
0.0
  9
$DIMTXT
 40
0.18
  9
$DIMCEN
 40
0.09
  9
$DIMTSZ
 40
0.0
  9
$DIMTOL
 70
     0
  9
$DIMLIM
 70
     0
  9
$DIMTIH
 70
     1
  9
$DIMTOH
 70
     1
  9
$DIMSE1
 70
     0
  9
$DIMSE2
 70
     0
  9
$DIMTAD
 70
     0
  9
$DIMZIN
 70
     0
  9
$DIMBLK
  1

  9
$DIMASO
 70
     1
  9
$DIMSHO
 70
     1
  9
$DIMPOST
  1

  9
$DIMAPOST
  1

  9
$DIMALT
 70
     0
  9
$DIMALTD
 70
     2
  9
$DIMALTF
 40
25.4
  9
$DIMLFAC
 40
1.0
  9
$DIMTOFL
 70
     0
  9
$DIMTVP
 40
0.0
  9
$DIMTIX
 70
     0
  9
$DIMSOXD
 70
     0
  9
$DIMSAH
 70
     0
  9
$DIMBLK1
  1

  9
$DIMBLK2
  1

  9
$DIMSTYLE
  2
Standard
  9
$DIMCLRD
 70
     0
  9
$DIMCLRE
 70
     0
  9
$DIMCLRT
 70
     0
  9
$DIMTFAC
 40
1.0
  9
$DIMGAP
 40
0.09
  9
$DIMJUST
 70
     0
  9
$DIMSD1
 70
     0
  9
$DIMSD2
 70
     0
  9
$DIMTOLJ
 70
     1
  9
$DIMTZIN
 70
     0
  9
$DIMALTZ
 70
     0
  9
$DIMALTTZ
 70
     0
  9
$DIMUPT
 70
     0
  9
$DIMDEC
 70
     4
  9
$DIMTDEC
 70
     4
  9
$DIMALTU
 70
     2
  9
$DIMALTTD
 70
     2
  9
$DIMTXSTY
  7
Standard
  9
$DIMAUNIT
 70
     0
  9
$DIMADEC
 70
     0
  9
$DIMALTRND
 40
0.0
  9
$DIMAZIN
 70
     0
  9
$DIMDSEP
 70
    46
  9
$DIMATFIT
 70
     3
  9
$DIMFRAC
 70
     0
  9
$DIMLDRBLK
  1

  9
$DIMLUNIT
 70
     2
  9
$DIMLWD
 70
    -2
  9
$DIMLWE
 70
    -2
  9
$DIMTMOVE
 70
     0
  9
$LUNITS
 70
     2
  9
$LUPREC
 70
     3
  9
$SKETCHINC
 40
0.1
  9
$FILLETRAD
 40
0.5
  9
$AUNITS
 70
     0
  9
$AUPREC
 70
     0
  9
$MENU
  1
.
  9
$ELEVATION
 40
0.0
  9
$PELEVATION
 40
0.0
  9
$THICKNESS
 40
0.0
  9
$LIMCHECK
 70
     0
  9
$CHAMFERA
 40
0.5
  9
$CHAMFERB
 40
0.5
  9
$CHAMFERC
 40
1.0
  9
$CHAMFERD
 40
0.0
  9
$SKPOLY
 70
     0
  9
$TDCREATE
 40
2454651.640568044
  9
$TDUCREATE
 40
2454651.807234711
  9
$TDUPDATE
 40
2454651.640568056
  9
$TDUUPDATE
 40
2454651.807234722
  9
$TDINDWG
 40
0.0000000116
  9
$TDUSRTIMER
 40
0.0000000116
  9
$USRTIMER
 70
     1
  9
$ANGBASE
 50
0.0
  9
$ANGDIR
 70
     0
  9
$PDMODE
 70
     0
  9
$PDSIZE
 40
0.0
  9
$PLINEWID
 40
0.0
  9
$SPLFRAME
 70
     0
  9
$SPLINETYPE
 70
     6
  9
$SPLINESEGS
 70
     8
  9
$HANDSEED
  5
259
  9
$SURFTAB1
 70
     6
  9
$SURFTAB2
 70
     6
  9
$SURFTYPE
 70
     6
  9
$SURFU
 70
     6
  9
$SURFV
 70
     6
  9
$UCSBASE
  2

  9
$UCSNAME
  2

  9
$UCSORG
 10
0.0
 20
0.0
 30
0.0
  9
$UCSXDIR
 10
1.0
 20
0.0
 30
0.0
  9
$UCSYDIR
 10
0.0
 20
1.0
 30
0.0
  9
$UCSORTHOREF
  2

  9
$UCSORTHOVIEW
 70
     0
  9
$UCSORGTOP
 10
0.0
 20
0.0
 30
0.0
  9
$UCSORGBOTTOM
 10
0.0
 20
0.0
 30
0.0
  9
$UCSORGLEFT
 10
0.0
 20
0.0
 30
0.0
  9
$UCSORGRIGHT
 10
0.0
 20
0.0
 30
0.0
  9
$UCSORGFRONT
 10
0.0
 20
0.0
 30
0.0
  9
$UCSORGBACK
 10
0.0
 20
0.0
 30
0.0
  9
$PUCSBASE
  2

  9
$PUCSNAME
  2

  9
$PUCSORG
 10
0.0
 20
0.0
 30
0.0
  9
$PUCSXDIR
 10
1.0
 20
0.0
 30
0.0
  9
$PUCSYDIR
 10
0.0
 20
1.0
 30
0.0
  9
$PUCSORTHOREF
  2

  9
$PUCSORTHOVIEW
 70
     0
  9
$PUCSORGTOP
 10
0.0
 20
0.0
 30
0.0
  9
$PUCSORGBOTTOM
 10
0.0
 20
0.0
 30
0.0
  9
$PUCSORGLEFT
 10
0.0
 20
0.0
 30
0.0
  9
$PUCSORGRIGHT
 10
0.0
 20
0.0
 30
0.0
  9
$PUCSORGFRONT
 10
0.0
 20
0.0
 30
0.0
  9
$PUCSORGBACK
 10
0.0
 20
0.0
 30
0.0
  9
$USERI1
 70
     0
  9
$USERI2
 70
     0
  9
$USERI3
 70
     0
  9
$USERI4
 70
     0
  9
$USERI5
 70
     0
  9
$USERR1
 40
0.0
  9
$USERR2
 40
0.0
  9
$USERR3
 40
0.0
  9
$USERR4
 40
0.0
  9
$USERR5
 40
0.0
  9
$WORLDVIEW
 70
     1
  9
$SHADEDGE
 70
     3
  9
$SHADEDIF
 70
    70
  9
$TILEMODE
 70
     1
  9
$MAXACTVP
 70
    64
  9
$PINSBASE
 10
0.0
 20
0.0
 30
0.0
  9
$PLIMCHECK
 70
     0
  9
$PEXTMIN
 10
1.000000000000000E+20
 20
1.000000000000000E+20
 30
1.000000000000000E+20
  9
$PEXTMAX
 10
-1.000000000000000E+20
 20
-1.000000000000000E+20
 30
-1.000000000000000E+20
  9
$PLIMMIN
 10
0.0
 20
0.0
  9
$PLIMMAX
 10
12.0
 20
9.0
  9
$UNITMODE
 70
     0
  9
$VISRETAIN
 70
     1
  9
$PLINEGEN
 70
     0
  9
$PSLTSCALE
 70
     1
  9
$TREEDEPTH
 70
  3020
  9
$CMLSTYLE
  2
Standard
  9
$CMLJUST
 70
     0
  9
$CMLSCALE
 40
1.0
  9
$PROXYGRAPHICS
 70
     1
  9
$MEASUREMENT
 70
     0
  9
$CELWEIGHT
370
    -1
  9
$ENDCAPS
280
     0
  9
$JOINSTYLE
280
     0
  9
$LWDISPLAY
290
     0
  9
$INSUNITS
 70
     1
  9
$HYPERLINKBASE
  1

  9
$STYLESHEET
  1

  9
$XEDIT
290
     1
  9
$CEPSNTYPE
380
     0
  9
$PSTYLEMODE
290
     1
  9
$FINGERPRINTGUID
  2
{B1F7E9A0-4F98-4C95-8584-05BE7FB53689}
  9
$VERSIONGUID
  2
{FAEB1C32-E019-11D5-929B-00C0DF256EC4}
  9
$EXTNAMES
290
     1
  9
$PSVPSCALE
 40
0.0
  9
$OLESTARTUP
290
     0
  9
$SORTENTS
280
   127
  9
$INDEXCTL
280
     0
  9
$HIDETEXT
280
     1
  9
$XCLIPFRAME
290
     0
  9
$HALOGAP
280
     0
  9
$OBSCOLOR
 70
   257
  9
$OBSLTYPE
280
     0
  9
$INTERSECTIONDISPLAY
280
     0
  9
$INTERSECTIONCOLOR
 70
   257
  9
$DIMASSOC
280
     2
  9
$PROJECTNAME
  1

  0
ENDSEC
  0
SECTION
  2
CLASSES
  0
CLASS
  1
ACDBDICTIONARYWDFLT
  2
AcDbDictionaryWithDefault
  3
ObjectDBX Classes
 90
        0
 91
        3
280
     0
281
     0
  0
CLASS
  1
VISUALSTYLE
  2
AcDbVisualStyle
  3
ObjectDBX Classes
 90
     4095
 91
        3
280
     0
281
     0
  0
CLASS
  1
SCALE
  2
AcDbScale
  3
ObjectDBX Classes
 90
     1153
 91
        3
280
     0
281
     0
  0
ENDSEC
  0
SECTION
  2
TABLES
  0
TABLE
  2
VPORT
  5
8
330
0
100
AcDbSymbolTable
 70
     1
  0
VPORT
  5
29
330
8
100
AcDbSymbolTableRecord
100
AcDbViewportTableRecord
  2
*Active
 70
     0
 10
0.0
 20
0.0
 11
1.0
 21
1.0
 12
0.0
 22
0.0
 13
0.0
 23
0.0
 14
0.5
 24
0.5
 15
0.5
 25
0.5
 16
0.0
 26
0.0
 36
1.0
 17
23.22802844028872
 27
27.19677914070015
 37
0.0
 40
58.09166656702831
 41
0.8607963920099251
 42
50.0
 43
0.0
 44
0.0
 50
0.0
 51
0.0
 71
     0
 72
   100
 73
     1
 74
     3
 75
     0
 76
     0
 77
     0
 78
     0
281
     0
 65
     1
110
0.0
120
0.0
130
0.0
111
1.0
121
0.0
131
0.0
112
0.0
122
1.0
132
0.0
 79
     0
146
0.0
  0
ENDTAB
  0
TABLE
  2
LTYPE
  5
5
330
0
100
AcDbSymbolTable
 70
     1
  0
LTYPE
  5
14
330
5
100
AcDbSymbolTableRecord
100
AcDbLinetypeTableRecord
  2
ByBlock
 70
     0
  3

 72
    65
 73
     0
 40
0.0
  0
LTYPE
  5
15
330
5
100
AcDbSymbolTableRecord
100
AcDbLinetypeTableRecord
  2
ByLayer
 70
     0
  3

 72
    65
 73
     0
 40
0.0
  0
LTYPE
  5
16
330
5
100
AcDbSymbolTableRecord
100
AcDbLinetypeTableRecord
  2
Continuous
 70
     0
  3
Solid line
 72
    65
 73
     0
 40
0.0
  0
ENDTAB
  0
TABLE
  2
LAYER
  5
2
330
0
100
AcDbSymbolTable
 70
     2
  0
LAYER
  5
10
330
2
100
AcDbSymbolTableRecord
100
AcDbLayerTableRecord
  2
0
 70
     0
 62
     7
  6
Continuous
370
    -3
390
F
  0
LAYER
  5
5D
330
2
100
AcDbSymbolTableRecord
100
AcDbLayerTableRecord
  2
DEFAULT
 70
     0
 62
     7
  6
Continuous
370
    -3
390
F
  0
ENDTAB
  0
TABLE
  2
STYLE
  5
3
330
0
100
AcDbSymbolTable
 70
     1
  0
STYLE
  5
11
330
3
100
AcDbSymbolTableRecord
100
AcDbTextStyleTableRecord
  2
Standard
 70
     0
 40
0.0
 41
1.0
 50
0.0
 71
     0
 42
0.2
  3
txt
  4

  0
ENDTAB
  0
TABLE
  2
VIEW
  5
6
330
0
100
AcDbSymbolTable
 70
     0
  0
ENDTAB
  0
TABLE
  2
UCS
  5
7
330
0
100
AcDbSymbolTable
 70
     0
  0
ENDTAB
  0
TABLE
  2
APPID
  5
9
330
0
100
AcDbSymbolTable
 70
     1
  0
APPID
  5
12
330
9
100
AcDbSymbolTableRecord
100
AcDbRegAppTableRecord
  2
ACAD
 70
     0
  0
ENDTAB
  0
TABLE
  2
DIMSTYLE
  5
A
330
0
100
AcDbSymbolTable
 70
     1
100
AcDbDimStyleTable
  0
DIMSTYLE
105
27
330
A
100
AcDbSymbolTableRecord
100
AcDbDimStyleTableRecord
  2
Standard
 70
     0
340
11
  0
ENDTAB
  0
TABLE
  2
BLOCK_RECORD
  5
1
330
0
100
AcDbSymbolTable
 70
     1
  0
BLOCK_RECORD
  5
1F
330
1
100
AcDbSymbolTableRecord
100
AcDbBlockTableRecord
  2
*Model_Space
340
22
  0
BLOCK_RECORD
  5
1B
330
1
100
AcDbSymbolTableRecord
100
AcDbBlockTableRecord
  2
*Paper_Space
340
1E
  0
BLOCK_RECORD
  5
23
330
1
100
AcDbSymbolTableRecord
100
AcDbBlockTableRecord
  2
*Paper_Space0
340
26
  0
ENDTAB
  0
ENDSEC
  0
SECTION
  2
BLOCKS
  0
BLOCK
  5
20
330
1F
100
AcDbEntity
  8
0
100
AcDbBlockBegin
  2
*Model_Space
 70
     0
 10
0.0
 20
0.0
 30
0.0
  3
*Model_Space
  1

  0
ENDBLK
  5
21
330
1F
100
AcDbEntity
  8
0
100
AcDbBlockEnd
  0
BLOCK
  5
1C
330
1B
100
AcDbEntity
 67
     1
  8
0
100
AcDbBlockBegin
  2
*Paper_Space
 70
     0
 10
0.0
 20
0.0
 30
0.0
  3
*Paper_Space
  1

  0
ENDBLK
  5
1D
330
1B
100
AcDbEntity
 67
     1
  8
0
100
AcDbBlockEnd
  0
BLOCK
  5
24
330
23
100
AcDbEntity
  8
0
100
AcDbBlockBegin
  2
*Paper_Space0
 70
     0
 10
0.0
 20
0.0
 30
0.0
  3
*Paper_Space0
  1

  0
ENDBLK
  5
25
330
23
100
AcDbEntity
  8
0
100
AcDbBlockEnd
  0
ENDSEC
  0
SECTION
  2
ENTITIES
  0
CIRCLE
  5
5E
330
1F
100
AcDbEntity
  8
DEFAULT
100
AcDbCircle
 10
46.27871573909539
 20
0.0
 30
0.0
 40
1.0625
  0
ARC
  5
5F
330
1F
100
AcDbEntity
  8
DEFAULT
100
AcDbCircle
 10
8.856285999999983
 20
11.362458
 30
0.0
 40
0.0250000400499361
100
AcDbArc
 50
235.592278896954
 51
270.0
  0
SPLINE
  5
60
330
1F
100
AcDbEntity
  8
DEFAULT
100
AcDbSpline
210
0.0
220
0.0
230
1.0
 70
     8
 71
     3
 72
     9
 73
     5
 74
     0
 42
0.0000000001
 43
0.0000000001
 40
0.0
 40
0.0
 40
0.0
 40
0.0
 40
1.0
 40
2.0
 40
2.0
 40
2.0
 40
2.0
 10
12.38269699999995
 20
2.600594999999998
 30
0.0
 10
11.91151433088908
 20
2.907365886724548
 30
0.0
 10
10.92430310103896
 20
3.440933014300441
 30
0.0
 10
9.870679470064147
 20
3.854815095616431
 30
0.0
 10
9.30980199999999
 20
3.921478999999991
 30
0.0
  0
ARC
  5
61
330
1F
100
AcDbEntity
  8
DEFAULT
100
AcDbCircle
 10
13.46485399999997
 20
1.441068000000001
 30
0.0
 40
0.015625
100
AcDbArc
 50
0.0
 51
90.0
  0
SPLINE
  5
62
330
1F
100
AcDbEntity
  8
DEFAULT
100
AcDbSpline
210
0.0
220
0.0
230
1.0
 70
    24
 71
     2
 72
     6
 73
     3
 74
     0
 42
0.0000000001
 43
0.0000000001
 40
0.0
 40
0.0
 40
0.0
 40
1.0
 40
1.0
 40
1.0
 10
1.835872999999992
 20
13.389357
 30
0.0
 10
9.617129499999976
 20
13.389357
 30
0.0
 10
17.39838599999996
 20
13.389357
 30
0.0
  0
SPLINE
  5
63
330
1F
100
AcDbEntity
  8
DEFAULT
100
AcDbSpline
210
0.0
220
0.0
230
1.0
 70
     8
 71
     3
 72
     8
 73
     4
 74
     0
 42
0.0000000001
 43
0.0000000001
 40
0.0
 40
0.0
 40
0.0
 40
0.0
 40
1.0
 40
1.0
 40
1.0
 40
1.0
 10
15.78001510263698
 20
13.21316063682799
 30
0.0
 10
14.46792159873297
 20
13.19226511716799
 30
0.0
 10
12.64589106787798
 20
12.88549394029199
 30
0.0
 10
10.39209994424198
 20
11.34183250362399
 30
0.0
  0
SPLINE
  5
64
330
1F
100
AcDbEntity
  8
DEFAULT
100
AcDbSpline
210
0.0
220
0.0
230
1.0
 70
    24
 71
     2
 72
     6
 73
     3
 74
     0
 42
0.0000000001
 43
0.0000000001
 40
0.0
 40
0.0
 40
0.0
 40
1.0
 40
1.0
 40
1.0
 10
10.25337999999999
 20
11.24685699999999
 30
0.0
 10
9.617129999999975
 20
11.24685699999999
 30
0.0
 10
8.980879999999956
 20
11.24685699999999
 30
0.0
  0
SPLINE
  5
65
330
1F
100
AcDbEntity
  8
DEFAULT
100
AcDbSpline
210
0.0
220
0.0
230
1.0
 70
    24
 71
     2
 72
     6
 73
     3
 74
     0
 42
0.0000000001
 43
0.0000000001
 40
0.5735485145042899
 40
0.5735485145042899
 40
0.5735485145042899
 40
1.0
 40
1.0
 40
1.0
 10
10.5582364301597
 20
1.824804020800158
 30
0.0
 10
10.54284771507983
 20
1.211780010400076
 30
0.0
 10
10.52745899999996
 20
0.5987559999999945
 30
0.0
  0
ARC
  5
66
330
1F
100
AcDbEntity
  8
DEFAULT
100
AcDbCircle
 10
39.25505273909539
 20
1.441068000000001
 30
0.0
 40
0.015625
100
AcDbArc
 50
90.0
 51
180.0
  0
SPLINE
  5
67
330
1F
100
AcDbEntity
  8
DEFAULT
100
AcDbSpline
210
0.0
220
0.0
230
1.0
 70
    24
 71
     2
 72
     6
 73
     3
 74
     0
 42
0.0000000001
 43
0.0000000001
 40
0.0
 40
0.0
 40
0.0
 40
1.0
 40
1.0
 40
1.0
 10
39.37760373909538
 20
1.279527999999999
 30
0.0
 10
39.37760373909538
 20
1.222747499999997
 30
0.0
 10
39.37760373909538
 20
1.165966999999995
 30
0.0
  0
SPLINE
  5
68
330
1F
100
AcDbEntity
  8
DEFAULT
100
AcDbSpline
210
0.0
220
0.0
230
1.0
 70
    24
 71
     2
 72
     6
 73
     3
 74
     0
 42
0.0000000001
 43
0.0000000001
 40
0.0
 40
0.0
 40
0.0
 40
1.0
 40
1.0
 40
1.0
 10
40.13017673909539
 20
0.3149609999999967
 30
0.0
 10
40.13017673909539
 20
0.1574804999999984
 30
0.0
 10
40.13017673909539
 20
0.0
 30
0.0
  0
SPLINE
  5
69
330
1F
100
AcDbEntity
  8
DEFAULT
100
AcDbSpline
210
0.0
220
0.0
230
1.0
 70
    24
 71
     2
 72
     6
 73
     3
 74
     0
 42
0.0000000001
 43
0.0000000001
 40
0.0
 40
0.0
 40
0.0
 40
1.0
 40
1.0
 40
1.0
 10
39.25505273909539
 20
1.456693000000001
 30
0.0
 10
39.77584523909539
 20
1.456693000000001
 30
0.0
 10
40.29663773909539
 20
1.456693000000001
 30
0.0
  0
SPLINE
  5
6A
330
1F
100
AcDbEntity
  8
DEFAULT
100
AcDbSpline
210
0.0
220
0.0
230
1.0
 70
    24
 71
     2
 72
     6
 73
     3
 74
     0
 42
0.0000000001
 43
0.0000000001
 40
0.0
 40
0.0
 40
0.0
 40
1.0
 40
1.0
 40
1.0
 10
28.11131173909538
 20
0.3149609999999967
 30
0.0
 10
28.11131173909538
 20
0.1574804999999984
 30
0.0
 10
28.11131173909538
 20
0.0
 30
0.0
  0
CIRCLE
  5
6B
330
1F
100
AcDbEntity
  8
DEFAULT
100
AcDbCircle
 10
38.85064873909539
 20
0.0
 30
0.0
 40
1.0625
  0
SPLINE
  5
6C
330
1F
100
AcDbEntity
  8
DEFAULT
100
AcDbSpline
210
0.0
220
0.0
230
1.0
 70
    24
 71
     2
 72
     6
 73
     3
 74
     0
 42
0.0000000001
 43
0.0000000001
 40
0.0
 40
0.0
 40
0.0
 40
1.0
 40
1.0
 40
1.0
 10
-1.225216999950646
 20
49.21515828140032
 30
0.0
 10
-0.3345529999506454
 20
49.21515828140032
 30
0.0
 10
0.5561110000493557
 20
49.21515828140032
 30
0.0
  0
ARC
  5
6D
330
1F
100
AcDbEntity
  8
DEFAULT
100
AcDbCircle
 10
-1.225217999950644
 20
50.06161428140031
 30
0.0
 40
0.0590555000000004
100
AcDbArc
 50
180.0
 51
270.0
  0
SPLINE
  5
6E
330
1F
100
AcDbEntity
  8
DEFAULT
100
AcDbSpline
210
0.0
220
0.0
230
1.0
 70
    24
 71
     2
 72
     6
 73
     3
 74
     0
 42
0.0000000001
 43
0.0000000001
 40
0.0
 40
0.0
 40
0.0
 40
1.0
 40
1.0
 40
1.0
 10
-1.284273999950642
 20
49.9682292814003
 30
0.0
 10
-1.284273999950642
 20
49.60885878140031
 30
0.0
 10
-1.284273999950642
 20
49.24948828140032
 30
0.0
  0
SPLINE
  5
6F
330
1F
100
AcDbEntity
  8
DEFAULT
100
AcDbSpline
210
0.0
220
0.0
230
1.0
 70
     8
 71
     3
 72
     9
 73
     5
 74
     0
 42
0.0000000001
 43
0.0000000001
 40
0.0
 40
0.0
 40
0.0
 40
0.0
 40
0.6723904811073
 40
1.0
 40
1.0
 40
1.0
 40
1.0
 10
0.449804409403356
 20
49.38949340424031
 30
0.0
 10
0.4409806859663377
 20
49.39773980847032
 30
0.0
 10
0.4290029867183591
 20
49.41129177877032
 30
0.0
 10
0.4191304456023488
 20
49.42633525617032
 30
0.0
 10
0.416132636040345
 20
49.43140183529032
 30
0.0
  0
SPLINE
  5
70
330
1F
100
AcDbEntity
  8
DEFAULT
100
AcDbSpline
210
0.0
220
0.0
230
1.0
 70
    24
 71
     2
 72
     6
 73
     3
 74
     0
 42
0.0000000001
 43
0.0000000001
 40
0.0
 40
0.0
 40
0.0
 40
1.0
 40
1.0
 40
1.0
 10
12.64832600004934
 20
35.78083028140031
 30
0.0
 10
13.04672700004934
 20
34.38209578140032
 30
0.0
 10
13.44512800004935
 20
32.98336128140032
 30
0.0
  0
SPLINE
  5
71
330
1F
100
AcDbEntity
  8
DEFAULT
100
AcDbSpline
210
0.0
220
0.0
230
1.0
 70
    24
 71
     2
 72
     6
 73
     3
 74
     0
 42
0.0000000001
 43
0.0000000001
 40
0.0
 40
0.0
 40
0.0
 40
1.0
 40
1.0
 40
1.0
 10
12.30140800004935
 20
33.46001028140032
 30
0.0
 10
11.54752850004935
 20
33.46001028140032
 30
0.0
 10
10.79364900004936
 20
33.46001028140032
 30
0.0
  0
SPLINE
  5
72
330
1F
100
AcDbEntity
  8
DEFAULT
100
AcDbSpline
210
0.0
220
0.0
230
1.0
 70
    24
 71
     2
 72
     6
 73
     3
 74
     0
 42
0.0000000001
 43
0.0000000001
 40
0.0
 40
0.0
 40
0.0
 40
1.0
 40
1.0
 40
1.0
 10
10.95161900004936
 20
32.08282928140032
 30
0.0
 10
12.01411900004936
 20
32.08282928140032
 30
0.0
 10
13.07661900004936
 20
32.08282928140032
 30
0.0
  0
SPLINE
  5
73
330
1F
100
AcDbEntity
  8
DEFAULT
100
AcDbSpline
210
0.0
220
0.0
230
1.0
 70
    24
 71
     2
 72
     6
 73
     3
 74
     0
 42
0.0000000001
 43
0.0000000001
 40
0.0
 40
0.0
 40
0.0
 40
1.0
 40
1.0
 40
1.0
 10
8.242129999999975
 20
17.152857
 30
0.0
 10
8.242129999999975
 20
16.4988375
 30
0.0
 10
8.242129999999975
 20
15.844818
 30
0.0
  0
SPLINE
  5
74
330
1F
100
AcDbEntity
  8
DEFAULT
100
AcDbSpline
210
0.0
220
0.0
230
1.0
 70
    24
 71
     2
 72
     6
 73
     3
 74
     0
 42
0.0000000001
 43
0.0000000001
 40
0.0
 40
0.0
 40
0.0
 40
1.0
 40
1.0
 40
1.0
 10
10.73459200004936
 20
33.42568028140032
 30
0.0
 10
10.73459200004936
 20
33.06630978140031
 30
0.0
 10
10.73459200004936
 20
32.70693928140031
 30
0.0
  0
ARC
  5
75
330
1F
100
AcDbEntity
  8
DEFAULT
100
AcDbCircle
 10
0.9204510000493542
 20
49.60885928140031
 30
0.0
 40
0.5364172571777788
100
AcDbArc
 50
99.74285866402742
 51
188.1418695196075
  0
SPLINE
  5
76
330
1F
100
AcDbEntity
  8
DEFAULT
100
AcDbSpline
210
0.0
220
0.0
230
1.0
 70
     8
 71
     3
 72
    11
 73
     7
 74
     0
 42
0.0000000001
 43
0.0000000001
 40
0.0
 40
0.0
 40
0.0
 40
0.0
 40
0.2500394730186
 40
0.5003140864778
 40
0.7504418471957
 40
1.0
 40
1.0
 40
1.0
 40
1.0
 10
13.44512836562936
 20
32.98336138798031
 30
0.0
 10
13.44999096225936
 20
32.96645072615031
 30
0.0
 10
13.45495346276934
 20
32.93103919369031
 30
0.0
 10
13.44744327813936
 20
32.87810208030031
 30
0.0
 10
13.42568808562936
 20
32.82925444815031
 30
0.0
 10
13.40288176452935
 20
32.80193052646031
 30
0.0
 10
13.38982702047934
 20
32.79007908250031
 30
0.0
  0
SPLINE
  5
77
330
1F
100
AcDbEntity
  8
DEFAULT
100
AcDbSpline
210
0.0
220
0.0
230
1.0
 70
    24
 71
     2
 72
     6
 73
     3
 74
     0
 42
0.0000000001
 43
0.0000000001
 40
0.0
 40
0.0
 40
0.0
 40
1.0
 40
1.0
 40
1.0
 10
10.99212999999997
 20
17.152857
 30
0.0
 10
10.99212999999997
 20
16.4988375
 30
0.0
 10
10.99212999999997
 20
15.844818
 30
0.0
  0
SPLINE
  5
78
330
1F
100
AcDbEntity
  8
DEFAULT
100
AcDbSpline
210
0.0
220
0.0
230
1.0
 70
    24
 71
     2
 72
     6
 73
     3
 74
     0
 42
0.0000000001
 43
0.0000000001
 40
0.0
 40
0.0
 40
0.0
 40
1.0
 40
1.0
 40
1.0
 10
39.49041273909538
 20
1.574804
 30
0.0
 10
39.49041273909538
 20
1.515748500000001
 30
0.0
 10
39.49041273909538
 20
1.456693000000001
 30
0.0
  0
SPLINE
  5
79
330
1F
100
AcDbEntity
  8
DEFAULT
100
AcDbSpline
210
0.0
220
0.0
230
1.0
 70
    12
 71
     3
 72
    17
 73
    13
 74
     0
 42
0.0000000001
 43
0.0000000001
 40
4.71238898038469
 40
4.71238898038469
 40
4.71238898038469
 40
4.71238898038469
 40
6.268549515538309
 40
6.268549515538309
 40
6.268549515538309
 40
7.268550056865641
 40
8.268551175845978
 40
9.268552294826314
 40
10.26855341380665
 40
11.26855453278699
 40
12.26855565176732
 40
13.26855677074766
 40
13.26855677074766
 40
13.26855677074766
 40
13.26855677074766
 10
12.86848399999997
 20
17.15285706281102
 30
0.0
 41
0.9999967205545754
 10
13.01323654248565
 20
17.15285828364863
 30
0.0
 41
0.8081740759577278
 10
13.11633757703536
 20
17.25446264817428
 30
0.0
 41
0.8081751691062027
 10
13.11845556280429
 20
17.39919949908119
 30
0.0
 41
1.0
 10
13.1253101623154
 20
17.68088787385999
 30
0.0
 41
1.0
 10
13.16946257854923
 20
18.24358811830589
 30
0.0
 41
1.0
 10
13.32726679913961
 20
19.07569652134748
 30
0.0
 41
1.0
 10
13.61871278417323
 20
19.87302793742465
 30
0.0
 41
1.0
 10
14.0486685576019
 20
20.60534196084609
 30
0.0
 41
1.0
 10
14.63505343399089
 20
21.22446499806838
 30
0.0
 41
1.0
 10
15.34591461988015
 20
21.68456342496037
 30
0.0
 41
1.0
 10
15.8972455929862
 20
21.86846616682415
 30
0.0
 41
1.0
 10
16.14434291021996
 20
21.94590672181999
 30
0.0
 41
1.0
  0
SPLINE
  5
7A
330
1F
100
AcDbEntity
  8
DEFAULT
100
AcDbSpline
210
0.0
220
0.0
230
1.0
 70
     8
 71
     3
 72
    32
 73
    28
 74
     0
 42
0.0000000001
 43
0.0000000001
 40
-7.0
 40
-7.0
 40
-7.0
 40
-7.0
 40
-6.0
 40
-5.0
 40
-4.0
 40
-3.0
 40
-2.0
 40
-1.0
 40
0.0
 40
0.0
 40
0.0
 40
1.0
 40
2.0
 40
3.0
 40
4.0
 40
5.0
 40
6.0
 40
7.0
 40
7.0
 40
7.0
 40
8.0
 40
9.0
 40
10.0
 40
11.0
 40
12.0
 40
13.0
 40
14.0
 40
14.0
 40
14.0
 40
14.0
 10
16.14434291021996
 20
21.94590672181999
 30
0.0
 10
16.25372742436619
 20
21.97938159270812
 30
0.0
 10
16.46565426673592
 20
22.04044525141144
 30
0.0
 10
16.78846677599594
 20
22.11221633574372
 30
0.0
 10
17.10533150251248
 20
22.20901507422775
 30
0.0
 10
17.39795233058476
 20
22.36925972724188
 30
0.0
 10
17.62892428973515
 20
22.61249378111134
 30
0.0
 10
17.76755989332261
 20
22.91600902809289
 30
0.0
 10
17.81760863337379
 20
23.131807196266
 30
0.0
 10
17.82198301908997
 20
23.24356352434499
 30
0.0
 10
17.82815506515814
 20
23.36979621369746
 30
0.0
 10
17.82408568868118
 20
23.62013529977752
 30
0.0
 10
17.8233179269445
 20
23.9955490653085
 30
0.0
 10
17.81277282718906
 20
24.37086793570604
 30
0.0
 10
17.79833325301254
 20
24.74601679198778
 30
0.0
 10
17.78155572036286
 20
25.12108318336284
 30
0.0
 10
17.7635540162419
 20
25.4960616486395
 30
0.0
 10
17.75676096663781
 20
25.74635359445023
 30
0.0
 10
17.74584199999995
 20
25.87102299999999
 30
0.0
 10
17.73529949715859
 20
25.96670430423555
 30
0.0
 10
17.69616873721392
 20
26.15627249832282
 30
0.0
 10
17.58420554225162
 20
26.4235845992242
 30
0.0
 10
17.42859571893629
 20
26.66896218979254
 30
0.0
 10
17.21618444791164
 20
26.86793373494176
 30
0.0
 10
16.96870901937277
 20
27.01895740616327
 30
0.0
 10
16.70133496089244
 20
27.12997131363186
 30
0.0
 10
16.51582687720867
 20
27.18264090289161
 30
0.0
 10
16.42191620882997
 20
27.20389931344501
 30
0.0
  0
SPLINE
  5
7B
330
1F
100
AcDbEntity
  8
DEFAULT
100
AcDbSpline
210
0.0
220
0.0
230
1.0
 70
     8
 71
     3
 72
    14
 73
    10
 74
     0
 42
0.0000000001
 43
0.0000000001
 40
0.0
 40
0.0
 40
0.0
 40
0.0
 40
1.0
 40
2.0
 40
3.0
 40
4.0
 40
5.0
 40
6.0
 40
7.0
 40
7.0
 40
7.0
 40
7.0
 10
16.42191620882997
 20
27.20389931344501
 30
0.0
 10
15.78252800415552
 20
27.32735107080443
 30
0.0
 10
14.49437090796619
 20
27.52908454664407
 30
0.0
 10
12.54563472217126
 20
27.68203050545969
 30
0.0
 10
10.59483599641516
 20
27.79792894035383
 30
0.0
 10
8.63976152372328
 20
27.79793972016203
 30
0.0
 10
6.688961753598022
 20
27.68205754129065
 30
0.0
 10
4.74022448585913
 20
27.52911999553217
 30
0.0
 10
3.452066355609645
 20
27.32740115112395
 30
0.0
 10
2.812524791169977
 20
27.203936813445
 30
0.0
  0
SPLINE
  5
7C
330
1F
100
AcDbEntity
  8
DEFAULT
100
AcDbSpline
210
0.0
220
0.0
230
1.0
 70
     8
 71
     3
 72
    32
 73
    28
 74
     0
 42
0.0000000001
 43
0.0000000001
 40
-14.0
 40
-14.0
 40
-14.0
 40
-14.0
 40
-13.0
 40
-12.0
 40
-11.0
 40
-10.0
 40
-9.0
 40
-8.0
 40
-7.0
 40
-7.0
 40
-7.0
 40
-6.0
 40
-5.0
 40
-4.0
 40
-3.0
 40
-2.0
 40
-1.0
 40
0.0
 40
0.0
 40
0.0
 40
1.0
 40
2.0
 40
3.0
 40
4.0
 40
5.0
 40
6.0
 40
7.0
 40
7.0
 40
7.0
 40
7.0
 10
2.812524791169977
 20
27.203936813445
 30
0.0
 10
2.718466122791284
 20
27.18264090289161
 30
0.0
 10
2.532958039107513
 20
27.12997131363186
 30
0.0
 10
2.265583980627184
 20
27.01895740616327
 30
0.0
 10
2.018108552088279
 20
26.86793373494176
 30
0.0
 10
1.805697281063658
 20
26.66896218979254
 30
0.0
 10
1.650087457748327
 20
26.4235845992242
 30
0.0
 10
1.538124262785999
 20
26.15627249832282
 30
0.0
 10
1.498993502841358
 20
25.96670430423555
 30
0.0
 10
1.488450999999969
 20
25.87102299999999
 30
0.0
 10
1.477532033362138
 20
25.74635359445023
 30
0.0
 10
1.470738983758054
 20
25.4960616486395
 30
0.0
 10
1.452737279637063
 20
25.12108318336284
 30
0.0
 10
1.435959746987407
 20
24.74601679198778
 30
0.0
 10
1.421520172810858
 20
24.37086793570604
 30
0.0
 10
1.410975073055425
 20
23.9955490653085
 30
0.0
 10
1.410207311318771
 20
23.62013529977752
 30
0.0
 10
1.406137934841809
 20
23.36979621369746
 30
0.0
 10
1.412309980909981
 20
23.24356352434499
 30
0.0
 10
1.416684366626157
 20
23.131807196266
 30
0.0
 10
1.466733106677339
 20
22.91600902809289
 30
0.0
 10
1.605368710264798
 20
22.61249378111134
 30
0.0
 10
1.836340669415193
 20
22.36925972724188
 30
0.0
 10
2.128961497487467
 20
22.20901507422775
 30
0.0
 10
2.44582622400398
 20
22.11221633574372
 30
0.0
 10
2.768638733264027
 20
22.04044525141144
 30
0.0
 10
2.980565575633761
 20
21.97938159270812
 30
0.0
 10
3.089950089779961
 20
21.94590672181999
 30
0.0
  0
SPLINE
  5
7D
330
1F
100
AcDbEntity
  8
DEFAULT
100
AcDbSpline
210
0.0
220
0.0
230
1.0
 70
    12
 71
     3
 72
    17
 73
    13
 74
     0
 42
0.0000000001
 43
0.0000000001
 40
-13.26855677074766
 40
-13.26855677074766
 40
-13.26855677074766
 40
-13.26855677074766
 40
-12.26855461531053
 40
-11.2685524598734
 40
-10.26855030443627
 40
-9.268548148999137
 40
-8.268545993562007
 40
-7.268543838124877
 40
-6.268542260341349
 40
-6.268542260341349
 40
-6.268542260341349
 40
-4.71238898038469
 40
-4.71238898038469
 40
-4.71238898038469
 40
-4.71238898038469
 10
3.089950089779961
 20
21.94590672181999
 30
0.0
 41
1.0
 10
3.337047407013728
 20
21.86846616682415
 30
0.0
 41
1.0
 10
3.888378380119775
 20
21.68456342496037
 30
0.0
 41
1.0
 10
4.599239566009032
 20
21.22446499806838
 30
0.0
 41
1.0
 10
5.185624442398051
 20
20.60534196084609
 30
0.0
 41
1.0
 10
5.615580215826725
 20
19.87302793742465
 30
0.0
 41
1.0
 10
5.907026200860344
 20
19.07569652134748
 30
0.0
 41
1.0
 10
6.064830421450694
 20
18.24358811830589
 30
0.0
 41
1.0
 10
6.108982837684522
 20
17.68088787385999
 30
0.0
 41
1.0
 10
6.115837437195665
 20
17.39919949908119
 30
0.0
 41
1.0
 10
6.117955408030012
 20
17.25446366875696
 30
0.0
 41
0.808176262256774
 10
6.221055282433139
 20
17.15285944167739
 30
0.0
 41
0.8081740759764163
 10
6.365806999999961
 20
17.152857
 30
0.0
 41
0.999993441158927
  0
SPLINE
  5
7E
330
1F
100
AcDbEntity
  8
DEFAULT
100
AcDbSpline
210
0.0
220
0.0
230
1.0
 70
    24
 71
     2
 72
     6
 73
     3
 74
     0
 42
0.0000000001
 43
0.0000000001
 40
-1.0
 40
-1.0
 40
-1.0
 40
0.0
 40
0.0
 40
0.0
 10
6.365806999999961
 20
17.152857
 30
0.0
 10
9.617145499999964
 20
17.15285703140551
 30
0.0
 10
12.86848399999997
 20
17.15285706281102
 30
0.0
  0
SPLINE
  5
7F
330
1F
100
AcDbEntity
  8
DEFAULT
100
AcDbSpline
210
0.0
220
0.0
230
1.0
 70
     8
 71
     3
 72
     8
 73
     4
 74
     0
 42
0.0000000001
 43
0.0000000001
 40
0.0
 40
0.0
 40
0.0
 40
0.0
 40
1.0
 40
1.0
 40
1.0
 40
1.0
 10
0.462484398794345
 20
49.37865655749032
 30
0.0
 10
0.4581058762803423
 20
49.38207221718031
 30
0.0
 10
0.4538732734373525
 20
49.38569075813031
 30
0.0
 10
0.449804409403356
 20
49.38949340424031
 30
0.0
  0
ARC
  5
80
330
1F
100
AcDbEntity
  8
DEFAULT
100
AcDbCircle
 10
20.48549400004936
 20
44.03820828140032
 30
0.0
 40
0.2362205042417923
100
AcDbArc
 50
0.0
 51
85.33957013679536
  0
SPLINE
  5
81
330
1F
100
AcDbEntity
  8
DEFAULT
100
AcDbSpline
210
0.0
220
0.0
230
1.0
 70
     8
 71
     3
 72
     8
 73
     4
 74
     0
 42
0.0000000001
 43
0.0000000001
 40
0.0
 40
0.0
 40
0.0
 40
0.0
 40
1.0
 40
1.0
 40
1.0
 40
1.0
 10
13.38982702047934
 20
32.79007908250031
 30
0.0
 10
13.37681607852934
 20
32.77826740325031
 30
0.0
 10
13.36215170573934
 20
32.76823864236032
 30
0.0
 10
13.34648074437936
 20
32.76044253876532
 30
0.0
  0
SPLINE
  5
82
330
1F
100
AcDbEntity
  8
DEFAULT
100
AcDbSpline
210
0.0
220
0.0
230
1.0
 70
     8
 71
     3
 72
    10
 73
     6
 74
     0
 42
0.0000000001
 43
0.0000000001
 40
0.0
 40
0.0
 40
0.0
 40
0.0
 40
0.3750985454465
 40
0.7499960074013
 40
1.0
 40
1.0
 40
1.0
 40
1.0
 10
13.34648074437936
 20
32.76044253876532
 30
0.0
 10
13.28803103766936
 20
32.73139783254031
 30
0.0
 10
13.16823227983934
 20
32.67901020174031
 30
0.0
 10
13.00250595791934
 20
32.62516227169031
 30
0.0
 10
12.89657068291936
 20
32.60008745856031
 30
0.0
 10
12.85391871459936
 20
32.59144988412031
 30
0.0
  0
SPLINE
  5
83
330
1F
100
AcDbEntity
  8
DEFAULT
100
AcDbSpline
210
0.0
220
0.0
230
1.0
 70
     8
 71
     3
 72
     8
 73
     4
 74
     0
 42
0.0000000001
 43
0.0000000001
 40
0.0
 40
0.0
 40
0.0
 40
0.0
 40
1.0
 40
1.0
 40
1.0
 40
1.0
 10
12.85391871459936
 20
32.59144988412031
 30
0.0
 10
12.83257951357936
 20
32.58712842032031
 30
0.0
 10
12.81117260390934
 20
32.58315591182031
 30
0.0
 10
12.78971166819935
 20
32.57953506894032
 30
0.0
  0
SPLINE
  5
84
330
1F
100
AcDbEntity
  8
DEFAULT
100
AcDbSpline
210
0.0
220
0.0
230
1.0
 70
    24
 71
     2
 72
     6
 73
     3
 74
     0
 42
0.0000000001
 43
0.0000000001
 40
0.0
 40
0.0
 40
0.0
 40
1.0
 40
1.0
 40
1.0
 10
-1.067245999950643
 20
48.62537828140032
 30
0.0
 10
-0.004745999950643
 20
48.62537828140032
 30
0.0
 10
1.057754000049357
 20
48.62537828140032
 30
0.0
  0
SPLINE
  5
85
330
1F
100
AcDbEntity
  8
DEFAULT
100
AcDbSpline
210
0.0
220
0.0
230
1.0
 70
    24
 71
     2
 72
     6
 73
     3
 74
     0
 42
0.0000000001
 43
0.0000000001
 40
0.0
 40
0.0
 40
0.0
 40
1.0
 40
1.0
 40
1.0
 10
0.5222090000493438
 20
37.33084628140031
 30
0.0
 10
-0.3810324999506491
 20
37.33084628140031
 30
0.0
 10
-1.284273999950642
 20
37.33084628140031
 30
0.0
  0
LINE
  5
86
330
1F
100
AcDbEntity
  8
DEFAULT
100
AcDbLine
 10
17.70117839164112
 20
42.77804597304673
 30
0.0
 11
19.90088532956938
 21
42.84479909312032
 31
0.0
  0
ARC
  5
87
330
1F
100
AcDbEntity
  8
DEFAULT
100
AcDbCircle
 10
20.04466296281839
 20
37.98402316453836
 30
0.0
 40
4.862901873953907
100
AcDbArc
 50
89.66171827877916
 51
91.6942666049027
  0
SPLINE
  5
88
330
1F
100
AcDbEntity
  8
DEFAULT
100
AcDbSpline
210
0.0
220
0.0
230
1.0
 70
     8
 71
     3
 72
     9
 73
     5
 74
     0
 42
0.0000000001
 43
0.0000000001
 40
0.0
 40
0.0
 40
0.0
 40
0.0
 40
1.0
 40
2.0
 40
2.0
 40
2.0
 40
2.0
 10
20.07337400004937
 20
42.8468402814003
 30
0.0
 10
20.08225289294845
 20
42.83738531307846
 30
0.0
 10
20.10394370589069
 20
42.82208669903837
 30
0.0
 10
20.13010336665974
 20
42.81738055754512
 30
0.0
 10
20.14306425827937
 20
42.81784645629033
 30
0.0
  0
SPLINE
  5
89
330
1F
100
AcDbEntity
  8
DEFAULT
100
AcDbSpline
210
0.0
220
0.0
230
1.0
 70
     8
 71
     3
 72
     9
 73
     5
 74
     0
 42
0.0000000001
 43
0.0000000001
 40
0.0
 40
0.0
 40
0.0
 40
0.0
 40
1.0
 40
2.0
 40
2.0
 40
2.0
 40
2.0
 10
20.14306425827937
 20
42.81784645629033
 30
0.0
 10
20.22701588562103
 20
42.82056760381151
 30
0.0
 10
20.39459948907742
 20
42.82875874164107
 30
0.0
 10
20.56297853010562
 20
42.83016864762622
 30
0.0
 10
20.64593514044938
 20
42.84138451064031
 30
0.0
  0
SPLINE
  5
8A
330
1F
100
AcDbEntity
  8
DEFAULT
100
AcDbSpline
210
0.0
220
0.0
230
1.0
 70
     8
 71
     3
 72
     9
 73
     5
 74
     0
 42
0.0000000001
 43
0.0000000001
 40
0.0
 40
0.0
 40
0.0
 40
0.0
 40
1.0
 40
2.0
 40
2.0
 40
2.0
 40
2.0
 10
20.64593514044938
 20
42.84138451064031
 30
0.0
 10
20.68124339815969
 20
42.85096127575865
 30
0.0
 10
20.74583758217912
 20
42.89140573128303
 30
0.0
 10
20.77820482005288
 20
42.96037803199911
 30
0.0
 10
20.78354334264409
 20
42.99657209729644
 30
0.0
  0
SPLINE
  5
8B
330
1F
100
AcDbEntity
  8
DEFAULT
100
AcDbSpline
210
0.0
220
0.0
230
1.0
 70
     8
 71
     3
 72
     9
 73
     5
 74
     0
 42
0.0000000001
 43
0.0000000001
 40
0.0
 40
0.0
 40
0.0
 40
0.0
 40
1.0
 40
2.0
 40
2.0
 40
2.0
 40
2.0
 10
20.78354334264409
 20
42.99657209729644
 30
0.0
 10
20.79937599144409
 20
43.10102932892904
 30
0.0
 10
20.81200300768637
 20
43.31184136810798
 30
0.0
 10
20.79712413702993
 20
43.52369901891508
 30
0.0
 10
20.77212302718937
 20
43.62602088486032
 30
0.0
  0
SPLINE
  5
8C
330
1F
100
AcDbEntity
  8
DEFAULT
100
AcDbSpline
210
0.0
220
0.0
230
1.0
 70
     8
 71
     3
 72
     9
 73
     5
 74
     0
 42
0.0000000001
 43
0.0000000001
 40
0.0
 40
0.0
 40
0.0
 40
0.0
 40
1.0
 40
2.0
 40
2.0
 40
2.0
 40
2.0
 10
20.77212302718937
 20
43.62602088486032
 30
0.0
 10
20.75870259529691
 20
43.66005693813622
 30
0.0
 10
20.71135858379304
 20
43.71978385166231
 30
0.0
 10
20.639226628714
 20
43.7443278990548
 30
0.0
 10
20.60266455967937
 20
43.74562802240031
 30
0.0
  0
SPLINE
  5
8D
330
1F
100
AcDbEntity
  8
DEFAULT
100
AcDbSpline
210
0.0
220
0.0
230
1.0
 70
    24
 71
     2
 72
     6
 73
     3
 74
     0
 42
0.0000000001
 43
0.0000000001
 40
0.0
 40
0.0
 40
0.0
 40
1.0
 40
1.0
 40
1.0
 10
20.60266455967937
 20
43.74562802240031
 30
0.0
 10
20.37286440897937
 20
43.75405847774532
 30
0.0
 10
20.14306425827937
 20
43.76248893309032
 30
0.0
  0
SPLINE
  5
8E
330
1F
100
AcDbEntity
  8
DEFAULT
100
AcDbSpline
210
0.0
220
0.0
230
1.0
 70
     8
 71
     3
 72
     9
 73
     5
 74
     0
 42
0.0000000001
 43
0.0000000001
 40
0.0
 40
0.0
 40
0.0
 40
0.0
 40
1.0
 40
2.0
 40
2.0
 40
2.0
 40
2.0
 10
20.14306425827937
 20
43.76248893309032
 30
0.0
 10
20.13010275018027
 20
43.76296615934201
 30
0.0
 10
20.10395001227303
 20
43.75823928608564
 30
0.0
 10
20.08225379941581
 20
43.74295693014767
 30
0.0
 10
20.07337800004936
 20
43.73349828140032
 30
0.0
  0
ARC
  5
8F
330
1F
100
AcDbEntity
  8
DEFAULT
100
AcDbCircle
 10
20.04213219632459
 20
48.39002590493696
 30
0.0
 40
4.65663245371699
100
AcDbArc
 50
268.2618145394534
 51
270.3844551041773
  0
LINE
  5
90
330
1F
100
AcDbEntity
  8
DEFAULT
100
AcDbLine
 10
19.90088532956938
 20
43.73553612284032
 30
0.0
 11
17.70117835021733
 21
43.80228924362451
 31
0.0
  0
ARC
  5
91
330
1F
100
AcDbEntity
  8
DEFAULT
100
AcDbCircle
 10
-1.048052999950642
 20
50.35689928140032
 30
0.0
 40
0.2362210042417925
100
AcDbArc
 50
94.6604298632043
 51
180.0
  0
ARC
  5
92
330
1F
100
AcDbEntity
  8
DEFAULT
100
AcDbCircle
 10
35.6880697390954
 20
11.362458
 30
0.0
 40
0.0250000400499361
100
AcDbArc
 50
235.592278896954
 51
270.0
  0
SPLINE
  5
93
330
1F
100
AcDbEntity
  8
DEFAULT
100
AcDbSpline
210
0.0
220
0.0
230
1.0
 70
     8
 71
     3
 72
     8
 73
     4
 74
     0
 42
0.0000000001
 43
0.0000000001
 40
0.0
 40
0.0
 40
0.0
 40
0.0
 40
1.0
 40
1.0
 40
1.0
 40
1.0
 10
12.58525404707936
 20
32.68647361169032
 30
0.0
 10
12.58289991361434
 20
32.69150691335894
 30
0.0
 10
12.5807706804361
 20
32.69663870270354
 30
0.0
 10
12.57887884475434
 20
32.70184647045032
 30
0.0
  0
SPLINE
  5
94
330
1F
100
AcDbEntity
  8
DEFAULT
100
AcDbSpline
210
0.0
220
0.0
230
1.0
 70
    24
 71
     2
 72
     6
 73
     3
 74
     0
 42
0.0000000001
 43
0.0000000001
 40
0.0
 40
0.0
 40
0.0
 40
1.0
 40
1.0
 40
1.0
 10
12.57887884475434
 20
32.70184647045032
 30
0.0
 10
12.07904292240184
 20
34.06760387592531
 30
0.0
 10
11.57920700004934
 20
35.43336128140031
 30
0.0
  0
SPLINE
  5
95
330
1F
100
AcDbEntity
  8
DEFAULT
100
AcDbSpline
210
0.0
220
0.0
230
1.0
 70
     8
 71
     2
 72
    30
 73
    27
 74
     0
 42
0.0000000001
 43
0.0000000001
 40
0.0
 40
0.0
 40
0.0
 40
1.0
 40
1.0
 40
2.0
 40
2.0
 40
3.0
 40
3.0
 40
4.0
 40
4.0
 40
5.0
 40
5.0
 40
6.0
 40
6.0
 40
7.0
 40
7.0
 40
8.0
 40
8.0
 40
9.0
 40
9.0
 40
10.0
 40
10.0
 40
11.0
 40
11.0
 40
12.0
 40
12.0
 40
13.0
 40
13.0
 40
13.0
 10
4.765295999999978
 20
12.398383
 30
0.0
 10
4.766104999999982
 20
12.39839249999999
 30
0.0
 10
4.766913999999986
 20
12.39840199999999
 30
0.0
 10
4.769421999999977
 20
12.39822149999999
 30
0.0
 10
4.771929999999969
 20
12.39804099999999
 30
0.0
 10
4.774395499999969
 20
12.39754799999999
 30
0.0
 10
4.776860999999968
 20
12.39705499999999
 30
0.0
 10
4.77924499999996
 20
12.39625599999999
 30
0.0
 10
4.781628999999953
 20
12.39545699999999
 30
0.0
 10
4.783893999999961
 20
12.39436549999999
 30
0.0
 10
4.786158999999969
 20
12.39327399999999
 30
0.0
 10
4.788268999999971
 20
12.39190649999999
 30
0.0
 10
4.790378999999973
 20
12.39053899999999
 30
0.0
 10
4.792300999999981
 20
12.38891799999999
 30
0.0
 10
4.794222999999988
 20
12.38729699999999
 30
0.0
 10
4.795926499999979
 20
12.38544699999999
 30
0.0
 10
4.79762999999997
 20
12.38359699999999
 30
0.0
 10
4.799087999999969
 20
12.38154849999999
 30
0.0
 10
4.800545999999969
 20
12.37949999999999
 30
0.0
 10
4.801734999999965
 20
12.37728449999999
 30
0.0
 10
4.802923999999962
 20
12.375069
 30
0.0
 10
4.803825999999958
 20
12.372722
 30
0.0
 10
4.804727999999955
 20
12.370375
 30
0.0
 10
4.80532799999996
 20
12.3679335
 30
0.0
 10
4.805927999999966
 20
12.365492
 30
0.0
 10
4.80621749999996
 20
12.362994
 30
0.0
 10
4.806506999999954
 20
12.360496
 30
0.0
  0
SPLINE
  5
96
330
1F
100
AcDbEntity
  8
DEFAULT
100
AcDbSpline
210
0.0
220
0.0
230
1.0
 70
    24
 71
     2
 72
     6
 73
     3
 74
     0
 42
0.0000000001
 43
0.0000000001
 40
0.0
 40
0.0
 40
0.0
 40
1.0
 40
1.0
 40
1.0
 10
0.7986069999999472
 20
11.527796
 30
0.0
 10
0.7986459999999624
 20
11.527807
 30
0.0
 10
0.7986849999999777
 20
11.527818
 30
0.0
  0
SPLINE
  5
97
330
1F
100
AcDbEntity
  8
DEFAULT
100
AcDbSpline
210
0.0
220
0.0
230
1.0
 70
     8
 71
     3
 72
    34
 73
    30
 74
     0
 42
0.0000000001
 43
0.0000000001
 40
0.0
 40
0.0
 40
0.0
 40
0.0
 40
1.0
 40
2.0
 40
3.0
 40
4.0
 40
5.0
 40
6.0
 40
7.0
 40
8.0
 40
9.0
 40
10.0
 40
11.0
 40
12.0
 40
13.0
 40
14.0
 40
15.0
 40
16.0
 40
17.0
 40
18.0
 40
19.0
 40
20.0
 40
21.0
 40
22.0
 40
23.0
 40
24.0
 40
25.0
 40
26.0
 40
27.0
 40
27.0
 40
27.0
 40
27.0
 10
2.055497543579975
 20
12.16221447529099
 30
0.0
 10
2.035203547604397
 20
12.15833310654261
 30
0.0
 10
1.994664635480831
 20
12.15031373546948
 30
0.0
 10
1.93402266711567
 20
12.1374689014326
 30
0.0
 10
1.87358940664933
 20
12.12367715621299
 30
0.0
 10
1.813327992150619
 20
12.10915409006904
 30
0.0
 10
1.753287095206247
 20
12.0937411362961
 30
0.0
 10
1.693547842960356
 20
12.07719145549078
 30
0.0
 10
1.634236239685777
 20
12.05916212478837
 30
0.0
 10
1.57547310401651
 20
12.03941482107972
 30
0.0
 10
1.51732333492896
 20
12.01792820374106
 30
0.0
 10
1.459825247742742
 20
11.99475756135119
 30
0.0
 10
1.402897872167102
 20
11.97022404635402
 30
0.0
 10
1.346426659322731
 20
11.94466187097927
 30
0.0
 10
1.290257995928073
 20
11.91844432430369
 30
0.0
 10
1.234143654237073
 20
11.89211427192683
 30
0.0
 10
1.177821370884715
 20
11.86621908552911
 30
0.0
 10
1.120810563879729
 20
11.8418815322438
 30
0.0
 10
1.063779030191824
 20
11.8176016065721
 30
0.0
 10
1.006722490465961
 20
11.79337744871356
 30
0.0
 10
0.9494702598767049
 20
11.7696188208361
 30
0.0
 10
0.8917847661083442
 20
11.74691722190252
 30
0.0
 10
0.8334407168663915
 20
11.72597465761467
 30
0.0
 10
0.7739448176862425
 20
11.70831657318739
 30
0.0
 10
0.7136673996055833
 20
11.69449580828439
 30
0.0
 10
0.6511991705518767
 20
11.68728878876084
 30
0.0
 10
0.5923844146234956
 20
11.68490718087
 30
0.0
 10
0.519298878693462
 20
11.7163449586658
 30
0.0
 10
0.5587693679720473
 20
11.76267839524763
 30
0.0
 10
0.5745319999999765
 20
11.771576
 30
0.0
  0
CIRCLE
  5
98
330
1F
100
AcDbEntity
  8
DEFAULT
100
AcDbCircle
 10
12.01886499999998
 20
0.0
 30
0.0
 40
1.0625
  0
SPLINE
  5
99
330
1F
100
AcDbEntity
  8
DEFAULT
100
AcDbSpline
210
0.0
220
0.0
230
1.0
 70
    24
 71
     2
 72
     6
 73
     3
 74
     0
 42
0.0000000001
 43
0.0000000001
 40
0.0
 40
0.0
 40
0.0
 40
1.0
 40
1.0
 40
1.0
 10
1.279527999999971
 20
0.3149609999999967
 30
0.0
 10
1.279527999999971
 20
0.1574804999999984
 30
0.0
 10
1.279527999999971
 20
0.0
 30
0.0
  0
SPLINE
  5
9A
330
1F
100
AcDbEntity
  8
DEFAULT
100
AcDbSpline
210
0.0
220
0.0
230
1.0
 70
    24
 71
     2
 72
     6
 73
     3
 74
     0
 42
0.0000000001
 43
0.0000000001
 40
0.0
 40
0.0
 40
0.0
 40
1.0
 40
1.0
 40
1.0
 10
12.42326899999998
 20
1.456693000000001
 30
0.0
 10
12.94406149999998
 20
1.456693000000001
 30
0.0
 10
13.46485399999997
 20
1.456693000000001
 30
0.0
  0
ARC
  5
9B
330
1F
100
AcDbEntity
  8
DEFAULT
100
AcDbCircle
 10
20.75044899999997
 20
2.707682999999989
 30
0.0
 40
0.0599999500611571
100
AcDbArc
 50
357.9999561960891
 51
76.7746261113896
  0
ARC
  5
9C
330
1F
100
AcDbEntity
  8
DEFAULT
100
AcDbCircle
 10
13.24425999999997
 20
0.5448949999999968
 30
0.0
 40
0.2362201456744931
100
AcDbArc
 50
283.2478113805399
 51
359.9999999999999
  0
SPLINE
  5
9D
330
1F
100
AcDbEntity
  8
DEFAULT
100
AcDbSpline
210
0.0
220
0.0
230
1.0
 70
    24
 71
     2
 72
     6
 73
     3
 74
     0
 42
0.0000000001
 43
0.0000000001
 40
0.0
 40
0.0
 40
0.0
 40
1.0
 40
1.0
 40
1.0
 10
1.240156999999954
 20
0.3149609999999967
 30
0.0
 10
1.259842499999962
 20
0.3149609999999967
 30
0.0
 10
1.279527999999971
 20
0.3149609999999967
 30
0.0
  0
SPLINE
  5
9E
330
1F
100
AcDbEntity
  8
DEFAULT
100
AcDbSpline
210
0.0
220
0.0
230
1.0
 70
     8
 71
     3
 72
    10
 73
     6
 74
     0
 42
0.0000000001
 43
0.0000000001
 40
0.0
 40
0.0
 40
0.0
 40
0.0
 40
0.3098884097075
 40
0.6612939512471
 40
1.0
 40
1.0
 40
1.0
 40
1.0
 10
12.44476323606997
 20
1.982489443939997
 30
0.0
 10
12.22763796163997
 20
2.056479691899995
 30
0.0
 10
11.75864171792998
 20
2.198341545609992
 30
0.0
 10
11.03477287165998
 20
2.356504488399992
 30
0.0
 10
10.52747001130996
 20
2.422190602779992
 30
0.0
 10
10.27768710722995
 20
2.443498356585991
 30
0.0
  0
ARC
  5
9F
330
1F
100
AcDbEntity
  8
DEFAULT
100
AcDbCircle
 10
19.09334199999998
 20
1.198538999999997
 30
0.0
 40
0.7499999902752901
100
AcDbArc
 50
32.97175451880226
 51
83.77637330541374
  0
SPLINE
  5
A0
330
1F
100
AcDbEntity
  8
DEFAULT
100
AcDbSpline
210
0.0
220
0.0
230
1.0
 70
     8
 71
     3
 72
     9
 73
     5
 74
     0
 42
0.0000000001
 43
0.0000000001
 40
0.0
 40
0.0
 40
0.0
 40
0.0
 40
1.0
 40
2.0
 40
2.0
 40
2.0
 40
2.0
 10
0.9580520872829652
 20
2.798339719737001
 30
0.0
 10
0.8816097679963946
 20
2.775795252672452
 30
0.0
 10
0.7229785764085932
 20
2.764994933903381
 30
0.0
 10
0.5645482784811975
 20
2.765340678883916
 30
0.0
 10
0.4853435406179756
 20
2.768676004816996
 30
0.0
  0
SPLINE
  5
A1
330
1F
100
AcDbEntity
  8
DEFAULT
100
AcDbSpline
210
0.0
220
0.0
230
1.0
 70
     8
 71
     3
 72
     9
 73
     5
 74
     0
 42
0.0000000001
 43
0.0000000001
 40
0.0
 40
0.0
 40
0.0
 40
0.0
 40
1.0
 40
2.0
 40
2.0
 40
2.0
 40
2.0
 10
39.21448073909536
 20
2.600594999999998
 30
0.0
 10
38.74329806998449
 20
2.907365886724548
 30
0.0
 10
37.75608684013434
 20
3.440933014300441
 30
0.0
 10
36.70246320915953
 20
3.854815095616431
 30
0.0
 10
36.14158573909538
 20
3.921478999999991
 30
0.0
  0
CIRCLE
  5
A2
330
1F
100
AcDbEntity
  8
DEFAULT
100
AcDbCircle
 10
26.83178373909539
 20
0.0
 30
0.0
 40
1.0
  0
CIRCLE
  5
A3
330
1F
100
AcDbEntity
  8
DEFAULT
100
AcDbCircle
 10
46.27871573909539
 20
0.0
 30
0.0
 40
1.279528000000001
  0
SPLINE
  5
A4
330
1F
100
AcDbEntity
  8
DEFAULT
100
AcDbSpline
210
0.0
220
0.0
230
1.0
 70
    24
 71
     2
 72
     6
 73
     3
 74
     0
 42
0.0000000001
 43
0.0000000001
 40
0.0
 40
0.0
 40
0.0
 40
1.0
 40
1.0
 40
1.0
 10
27.35873873909537
 20
1.279527999999999
 30
0.0
 10
27.35873873909537
 20
1.222747499999997
 30
0.0
 10
27.35873873909537
 20
1.165966999999995
 30
0.0
  0
ARC
  5
A5
330
1F
100
AcDbEntity
  8
DEFAULT
100
AcDbCircle
 10
27.33442589051626
 20
1.634804006800664
 30
0.0
 40
0.0599998623429707
100
AcDbArc
 50
182.5715586997547
 51
270.0041525966931
  0
SPLINE
  5
A6
330
1F
100
AcDbEntity
  8
DEFAULT
100
AcDbSpline
210
0.0
220
0.0
230
1.0
 70
    24
 71
     2
 72
     6
 73
     3
 74
     0
 42
0.0000000001
 43
0.0000000001
 40
0.0
 40
0.0
 40
0.0
 40
1.0
 40
1.0
 40
1.0
 10
27.33443023909538
 20
1.574804144615271
 30
0.0
 10
27.78789048909537
 20
1.574804072307636
 30
0.0
 10
28.24135073909537
 20
1.574804
 30
0.0
  0
SPLINE
  5
A7
330
1F
100
AcDbEntity
  8
DEFAULT
100
AcDbSpline
210
0.0
220
0.0
230
1.0
 70
    24
 71
     2
 72
     6
 73
     3
 74
     0
 42
0.0000000001
 43
0.0000000001
 40
0.0
 40
0.0
 40
0.0
 40
1.0
 40
1.0
 40
1.0
 10
27.47154773909537
 20
1.574804
 30
0.0
 10
27.47154773909537
 20
1.515748500000001
 30
0.0
 10
27.47154773909537
 20
1.456693000000001
 30
0.0
  0
ARC
  5
A8
330
1F
100
AcDbEntity
  8
DEFAULT
100
AcDbCircle
 10
37.08516373909538
 20
11.296857
 30
0.0
 40
0.0500000000000007
100
AcDbArc
 50
270.0
 51
0.0
  0
ARC
  5
A9
330
1F
100
AcDbEntity
  8
DEFAULT
100
AcDbCircle
 10
45.92512573909539
 20
1.198538999999997
 30
0.0
 40
0.7499999902752901
100
AcDbArc
 50
32.97175451880211
 51
83.77637330541374
  0
SPLINE
  5
AA
330
1F
100
AcDbEntity
  8
DEFAULT
100
AcDbSpline
210
0.0
220
0.0
230
1.0
 70
     8
 71
     3
 72
    10
 73
     6
 74
     0
 42
0.0000000001
 43
0.0000000001
 40
0.0
 40
0.0
 40
0.0
 40
0.0
 40
0.4051007004553
 40
0.7475947607501
 40
1.0
 40
1.0
 40
1.0
 40
1.0
 10
35.92895110329539
 20
4.227643939370992
 30
0.0
 10
35.92880694745537
 20
4.237904861774993
 30
0.0
 10
35.92575621768538
 20
4.25689137114999
 30
0.0
 10
35.91480192577538
 20
4.280221349089999
 30
0.0
 10
35.90070498971536
 20
4.289363065583998
 30
0.0
 10
35.89431836562537
 20
4.289667634490996
 30
0.0
  0
ARC
  5
AB
330
1F
100
AcDbEntity
  8
DEFAULT
100
AcDbCircle
 10
28.27777273909538
 20
1.441068000000001
 30
0.0
 40
0.015625
100
AcDbArc
 50
0.0
 51
90.0
  0
SPLINE
  5
AC
330
1F
100
AcDbEntity
  8
DEFAULT
100
AcDbSpline
210
0.0
220
0.0
230
1.0
 70
     8
 71
     3
 72
     9
 73
     5
 74
     0
 42
0.0000000001
 43
0.0000000001
 40
0.0
 40
0.0
 40
0.0
 40
0.0
 40
1.0
 40
2.0
 40
2.0
 40
2.0
 40
2.0
 10
8.630129999999951
 20
4.308345222177593
 30
0.0
 10
7.249478464699138
 20
4.272404215957124
 30
0.0
 10
4.559745392396962
 20
3.849709083087419
 30
0.0
 10
1.917115359361446
 20
3.216641134994376
 30
0.0
 10
0.4868669999999611
 20
2.797450999999995
 30
0.0
  0
ARC
  5
AD
330
1F
100
AcDbEntity
  8
DEFAULT
100
AcDbCircle
 10
10.79364700004936
 20
32.61355428140031
 30
0.0
 40
0.0590549999999981
100
AcDbArc
 50
90.0
 51
180.0
  0
SPLINE
  5
AE
330
1F
100
AcDbEntity
  8
DEFAULT
100
AcDbSpline
210
0.0
220
0.0
230
1.0
 70
    24
 71
     2
 72
     6
 73
     3
 74
     0
 42
0.0000000001
 43
0.0000000001
 40
0.0
 40
0.0
 40
0.0
 40
1.0
 40
1.0
 40
1.0
 10
10.73459200004936
 20
33.81435028140031
 30
0.0
 10
10.73459200004936
 20
33.66670778140031
 30
0.0
 10
10.73459200004936
 20
33.51906528140032
 30
0.0
  0
SPLINE
  5
AF
330
1F
100
AcDbEntity
  8
DEFAULT
100
AcDbSpline
210
0.0
220
0.0
230
1.0
 70
    24
 71
     2
 72
     6
 73
     3
 74
     0
 42
0.0000000001
 43
0.0000000001
 40
0.0
 40
0.0
 40
0.0
 40
1.0
 40
1.0
 40
1.0
 10
0.4624450000493425
 20
37.20164728140031
 30
0.0
 10
1.60670150004934
 20
38.09890678140031
 30
0.0
 10
2.750958000049337
 20
38.99616628140031
 30
0.0
  0
SPLINE
  5
B0
330
1F
100
AcDbEntity
  8
DEFAULT
100
AcDbSpline
210
0.0
220
0.0
230
1.0
 70
    24
 71
     2
 72
     6
 73
     3
 74
     0
 42
0.0000000001
 43
0.0000000001
 40
0.0
 40
0.0
 40
0.0
 40
1.0
 40
1.0
 40
1.0
 10
12.31397200004935
 20
33.42568028140032
 30
0.0
 10
11.52428200004935
 20
33.42568028140032
 30
0.0
 10
10.73459200004936
 20
33.42568028140032
 30
0.0
  0
ARC
  5
B1
330
1F
100
AcDbEntity
  8
DEFAULT
100
AcDbCircle
 10
27.23618773909539
 20
1.441068000000001
 30
0.0
 40
0.015625
100
AcDbArc
 50
90.0
 51
180.0
  0
ARC
  5
B2
330
1F
100
AcDbEntity
  8
DEFAULT
100
AcDbCircle
 10
28.05717873909538
 20
0.5448949999999968
 30
0.0
 40
0.2362201456744931
100
AcDbArc
 50
283.2478113805403
 51
359.9999999999999
  0
SPLINE
  5
B3
330
1F
100
AcDbEntity
  8
DEFAULT
100
AcDbSpline
210
0.0
220
0.0
230
1.0
 70
     8
 71
     3
 72
     9
 73
     5
 74
     0
 42
0.0000000001
 43
0.0000000001
 40
0.0
 40
0.0
 40
0.0
 40
0.0
 40
1.0
 40
2.0
 40
2.0
 40
2.0
 40
2.0
 10
9.055123999999978
 20
3.920968999999999
 30
0.0
 10
9.097549390875571
 20
3.922976362295472
 30
0.0
 10
9.182452552475581
 20
3.924811059239104
 30
0.0
 10
9.267439738416101
 20
3.924591205705553
 30
0.0
 10
9.30980199999999
 20
3.921478999999991
 30
0.0
  0
ARC
  5
B4
330
1F
100
AcDbEntity
  8
DEFAULT
100
AcDbCircle
 10
28.17099073909537
 20
1.63480398705731
 30
0.0
 40
0.0599999624739702
100
AcDbArc
 50
270.0
 51
357.1168156066991
  0
SPLINE
  5
B5
330
1F
100
AcDbEntity
  8
DEFAULT
100
AcDbSpline
210
0.0
220
0.0
230
1.0
 70
    24
 71
     2
 72
     6
 73
     3
 74
     0
 42
0.0000000001
 43
0.0000000001
 40
0.0
 40
0.0
 40
0.0
 40
1.0
 40
1.0
 40
1.0
 10
28.2309147513715
 20
1.631785999381719
 30
0.0
 10
28.25065974523343
 20
2.023581499690856
 30
0.0
 10
28.27040473909537
 20
2.415376999999992
 30
0.0
  0
SPLINE
  5
B6
330
1F
100
AcDbEntity
  8
DEFAULT
100
AcDbSpline
210
0.0
220
0.0
230
1.0
 70
     8
 71
     3
 72
     9
 73
     5
 74
     0
 42
0.0000000001
 43
0.0000000001
 40
0.0
 40
0.0
 40
0.0
 40
0.0
 40
1.0
 40
2.0
 40
2.0
 40
2.0
 40
2.0
 10
28.27040473909537
 20
2.415376999999992
 30
0.0
 10
28.27273632690461
 20
2.451708179137867
 30
0.0
 10
28.29211414357832
 20
2.524269628192812
 30
0.0
 10
28.34842648445962
 20
2.576963854766205
 30
0.0
 10
28.38402873909538
 20
2.587097999999997
 30
0.0
  0
SPLINE
  5
B7
330
1F
100
AcDbEntity
  8
DEFAULT
100
AcDbSpline
210
0.0
220
0.0
230
1.0
 70
    24
 71
     2
 72
     6
 73
     3
 74
     0
 42
0.0000000001
 43
0.0000000001
 40
0.0
 40
0.0
 40
0.0
 40
1.0
 40
1.0
 40
1.0
 10
37.20975673909538
 20
11.337458
 30
0.0
 10
36.44891323909539
 20
11.337458
 30
0.0
 10
35.6880697390954
 20
11.337458
 30
0.0
  0
SPLINE
  5
B8
330
1F
100
AcDbEntity
  8
DEFAULT
100
AcDbSpline
210
0.0
220
0.0
230
1.0
 70
     8
 71
     3
 72
     9
 73
     5
 74
     0
 42
0.0000000001
 43
0.0000000001
 40
0.0
 40
0.0
 40
0.0
 40
0.0
 40
1.0
 40
2.0
 40
2.0
 40
2.0
 40
2.0
 10
27.78983582637838
 20
2.798339719737001
 30
0.0
 10
29.11459620893172
 20
3.171451471676022
 30
0.0
 10
31.79648266455482
 20
3.789093426875127
 30
0.0
 10
34.51860592358798
 20
4.223677452697515
 30
0.0
 10
35.89431836561539
 20
4.289667635103001
 30
0.0
  0
SPLINE
  5
B9
330
1F
100
AcDbEntity
  8
DEFAULT
100
AcDbSpline
210
0.0
220
0.0
230
1.0
 70
    24
 71
     2
 72
     6
 73
     3
 74
     0
 42
0.0000000001
 43
0.0000000001
 40
0.0
 40
0.0
 40
0.0
 40
1.0
 40
1.0
 40
1.0
 10
46.91847973909537
 20
1.574804
 30
0.0
 10
46.91847973909537
 20
1.515748500000001
 30
0.0
 10
46.91847973909537
 20
1.456693000000001
 30
0.0
  0
SPLINE
  5
BA
330
1F
100
AcDbEntity
  8
DEFAULT
100
AcDbSpline
210
0.0
220
0.0
230
1.0
 70
    24
 71
     2
 72
     6
 73
     3
 74
     0
 42
0.0000000001
 43
0.0000000001
 40
0.0
 40
0.0
 40
0.0
 40
1.0
 40
1.0
 40
1.0
 10
27.23618773909539
 20
1.456693000000001
 30
0.0
 10
27.75698023909538
 20
1.456693000000001
 30
0.0
 10
28.27777273909538
 20
1.456693000000001
 30
0.0
  0
CIRCLE
  5
BB
330
1F
100
AcDbEntity
  8
DEFAULT
100
AcDbCircle
 10
0.0
 20
0.0
 30
0.0
 40
1.0
  0
SPLINE
  5
BC
330
1F
100
AcDbEntity
  8
DEFAULT
100
AcDbSpline
210
0.0
220
0.0
230
1.0
 70
    24
 71
     2
 72
     6
 73
     3
 74
     0
 42
0.0000000001
 43
0.0000000001
 40
0.0
 40
0.0
 40
0.0
 40
1.0
 40
1.0
 40
1.0
 10
0.5561110000493557
 20
50.00255928140031
 30
0.0
 10
-0.3345529999506454
 20
50.00255928140031
 30
0.0
 10
-1.225216999950646
 20
50.00255928140031
 30
0.0
  0
SPLINE
  5
BD
330
1F
100
AcDbEntity
  8
DEFAULT
100
AcDbSpline
210
0.0
220
0.0
230
1.0
 70
     8
 71
     3
 72
    10
 73
     6
 74
     0
 42
0.0000000001
 43
0.0000000001
 40
0.0
 40
0.0
 40
0.0
 40
0.0
 40
0.3745727208191
 40
0.7379583218834
 40
1.0
 40
1.0
 40
1.0
 40
1.0
 10
36.06758393948539
 20
4.007722273420001
 30
0.0
 10
36.06787392010537
 20
3.99243018450899
 30
0.0
 10
36.07594492659538
 20
3.961870459536996
 30
0.0
 10
36.10557984621539
 20
3.931178062312
 30
0.0
 10
36.13084078007537
 20
3.922819848800998
 30
0.0
 10
36.14156679190538
 20
3.921513614136003
 30
0.0
  0
LINE
  5
BE
330
1F
100
AcDbEntity
  8
DEFAULT
100
AcDbLine
 10
37.44114177245413
 20
4.308661999999998
 30
0.0
 11
35.46991373909538
 21
4.308661999999998
 31
0.0
  0
SPLINE
  5
BF
330
1F
100
AcDbEntity
  8
DEFAULT
100
AcDbSpline
210
0.0
220
0.0
230
1.0
 70
     8
 71
     3
 72
     9
 73
     5
 74
     0
 42
0.0000000001
 43
0.0000000001
 40
0.0
 40
0.0
 40
0.0
 40
0.0
 40
1.0
 40
2.0
 40
2.0
 40
2.0
 40
2.0
 10
36.11940228511537
 20
4.289667635103001
 30
0.0
 10
36.08198347120904
 20
4.29273710935432
 30
0.0
 10
36.00685793335518
 20
4.293024460417243
 30
0.0
 10
35.93181601118971
 20
4.291477952912444
 30
0.0
 10
35.89431836561539
 20
4.289667635103001
 30
0.0
  0
ARC
  5
C0
330
1F
100
AcDbEntity
  8
DEFAULT
100
AcDbCircle
 10
36.75870398326251
 20
1.877652713152287
 30
0.0
 40
0.0704776720462187
100
AcDbArc
 50
311.4208952918186
 51
336.7301367228042
  0
SPLINE
  5
C1
330
1F
100
AcDbEntity
  8
DEFAULT
100
AcDbSpline
210
0.0
220
0.0
230
1.0
 70
     8
 71
     3
 72
    14
 73
    10
 74
     0
 42
0.0000000001
 43
0.0000000001
 40
0.0
 40
0.0
 40
0.0
 40
0.0
 40
1.0
 40
2.0
 40
3.0
 40
4.0
 40
5.0
 40
6.0
 40
7.0
 40
7.0
 40
7.0
 40
7.0
 10
36.82344860011537
 20
1.849809637790003
 30
0.0
 10
36.83662288925646
 20
1.880444339296545
 30
0.0
 10
36.85226236022748
 20
1.945196222786706
 30
0.0
 10
36.87768587667728
 20
2.041594192016959
 30
0.0
 10
36.90272542049007
 20
2.138110943301072
 30
0.0
 10
36.92733653686773
 20
2.234882391560603
 30
0.0
 10
36.96319385011958
 20
2.327965604747689
 30
0.0
 10
37.0129380247069
 20
2.41568960462962
 30
0.0
 10
37.07517433935328
 20
2.451339779670235
 30
0.0
 10
37.10947073909537
 20
2.443497999999991
 30
0.0
  0
SPLINE
  5
C2
330
1F
100
AcDbEntity
  8
DEFAULT
100
AcDbSpline
210
0.0
220
0.0
230
1.0
 70
    24
 71
     2
 72
     6
 73
     3
 74
     0
 42
0.0000000001
 43
0.0000000001
 40
0.0
 40
0.0
 40
0.0
 40
1.0
 40
1.0
 40
1.0
 10
46.85810473909538
 20
2.41677
 30
0.0
 10
46.87227373909538
 20
2.024739999999994
 30
0.0
 10
46.88644273909537
 20
1.632709999999989
 30
0.0
  0
SPLINE
  5
C3
330
1F
100
AcDbEntity
  8
DEFAULT
100
AcDbSpline
210
0.0
220
0.0
230
1.0
 70
     8
 71
     3
 72
     8
 73
     4
 74
     0
 42
0.0000000001
 43
0.0000000001
 40
0.0
 40
0.0
 40
0.0
 40
0.0
 40
1.0
 40
1.0
 40
1.0
 40
1.0
 10
37.35924254157538
 20
0.5987557520799953
 30
0.0
 10
37.35597269498538
 20
0.4684990966599969
 30
0.0
 10
37.24891397043538
 20
0.3540534426900024
 30
0.0
 10
37.24891397043538
 20
0.2237557520799953
 30
0.0
  0
ARC
  5
C4
330
1F
100
AcDbEntity
  8
DEFAULT
100
AcDbCircle
 10
35.77891373909537
 20
-0.89624400000001
 30
0.0
 40
0.129999999999999
100
AcDbArc
 50
180.0
 51
270.0
  0
ARC
  5
C5
330
1F
100
AcDbEntity
  8
DEFAULT
100
AcDbCircle
 10
37.11891373909538
 20
-0.89624400000001
 30
0.0
 40
0.1299999999999999
100
AcDbArc
 50
270.0
 51
0.0
  0
SPLINE
  5
C6
330
1F
100
AcDbEntity
  8
DEFAULT
100
AcDbSpline
210
0.0
220
0.0
230
1.0
 70
    24
 71
     2
 72
     6
 73
     3
 74
     0
 42
0.0000000001
 43
0.0000000001
 40
0.0
 40
0.0
 40
0.0
 40
1.0
 40
1.0
 40
1.0
 10
37.43141373909538
 20
9.973755999999995
 30
0.0
 10
36.44891373909537
 20
9.973755999999995
 30
0.0
 10
35.46641373909537
 20
9.973755999999995
 30
0.0
  0
ARC
  5
C7
330
1F
100
AcDbEntity
  8
DEFAULT
100
AcDbCircle
 10
20.36738400004938
 20
43.29016728140031
 30
0.0
 40
0.536416906649928
100
AcDbArc
 50
315.7533335976719
 51
44.31283467173384
  0
SPLINE
  5
C8
330
1F
100
AcDbEntity
  8
DEFAULT
100
AcDbSpline
210
0.0
220
0.0
230
1.0
 70
    24
 71
     2
 72
     6
 73
     3
 74
     0
 42
0.0000000001
 43
0.0000000001
 40
0.0
 40
0.0
 40
0.0
 40
1.0
 40
1.0
 40
1.0
 10
-1.067245999950643
 20
35.98799528140032
 30
0.0
 10
-0.004745999950643
 20
35.98799528140032
 30
0.0
 10
1.057754000049357
 20
35.98799528140032
 30
0.0
  0
ARC
  5
C9
330
1F
100
AcDbEntity
  8
DEFAULT
100
AcDbCircle
 10
20.36738400004938
 20
43.29016728140031
 30
0.0
 40
0.5364178681965175
100
AcDbArc
 50
54.24236117128792
 51
124.2612922488398
  0
ARC
  5
CA
330
1F
100
AcDbEntity
  8
DEFAULT
100
AcDbCircle
 10
20.48549400004936
 20
42.54212628140031
 30
0.0
 40
0.2362200058949278
100
AcDbArc
 50
274.6604495706482
 51
0.0
  0
SPLINE
  5
CB
330
1F
100
AcDbEntity
  8
DEFAULT
100
AcDbSpline
210
0.0
220
0.0
230
1.0
 70
    24
 71
     2
 72
     6
 73
     3
 74
     0
 42
0.0000000001
 43
0.0000000001
 40
0.0
 40
0.0
 40
0.0
 40
1.0
 40
1.0
 40
1.0
 10
20.72171400004936
 20
44.03820828140032
 30
0.0
 10
20.72171400004936
 20
43.89056578140031
 30
0.0
 10
20.72171400004936
 20
43.74292328140031
 30
0.0
  0
ARC
  5
CC
330
1F
100
AcDbEntity
  8
DEFAULT
100
AcDbCircle
 10
20.66265900004936
 20
42.83741128140032
 30
0.0
 40
0.0590552931447625
100
AcDbArc
 50
0.0
 51
37.07713299743973
  0
SPLINE
  5
CD
330
1F
100
AcDbEntity
  8
DEFAULT
100
AcDbSpline
210
0.0
220
0.0
230
1.0
 70
    24
 71
     2
 72
     6
 73
     3
 74
     0
 42
0.0000000001
 43
0.0000000001
 40
0.0
 40
0.0
 40
0.0
 40
1.0
 40
1.0
 40
1.0
 10
-0.004745999950643
 20
49.24948828140032
 30
0.0
 10
-0.004745999950643
 20
49.60885878140031
 30
0.0
 10
-0.004745999950643
 20
49.9682292814003
 30
0.0
  0
SPLINE
  5
CE
330
1F
100
AcDbEntity
  8
DEFAULT
100
AcDbSpline
210
0.0
220
0.0
230
1.0
 70
    24
 71
     2
 72
     6
 73
     3
 74
     0
 42
0.0000000001
 43
0.0000000001
 40
0.0
 40
0.0
 40
0.0
 40
1.0
 40
1.0
 40
1.0
 10
9.067129999999963
 20
11.24685699999999
 30
0.0
 10
9.067129999999963
 20
10.61030649999999
 30
0.0
 10
9.067129999999963
 20
9.973755999999995
 30
0.0
  0
CIRCLE
  5
CF
330
1F
100
AcDbEntity
  8
DEFAULT
100
AcDbCircle
 10
0.0
 20
0.0
 30
0.0
 40
1.0625
  0
ARC
  5
D0
330
1F
100
AcDbEntity
  8
DEFAULT
100
AcDbCircle
 10
0.0
 20
0.0
 30
0.0
 40
1.279527939310224
100
AcDbArc
 50
15.76206956729271
 51
18.57560333516714
  0
SPLINE
  5
D1
330
1F
100
AcDbEntity
  8
DEFAULT
100
AcDbSpline
210
0.0
220
0.0
230
1.0
 70
    24
 71
     2
 72
     6
 73
     3
 74
     0
 42
0.0000000001
 43
0.0000000001
 40
0.0
 40
0.0
 40
0.0
 40
1.0
 40
1.0
 40
1.0
 10
20.68708899999996
 20
0.3149609999999967
 30
0.0
 10
20.70677449999997
 20
0.3149609999999967
 30
0.0
 10
20.72645999999997
 20
0.3149609999999967
 30
0.0
  0
SPLINE
  5
D2
330
1F
100
AcDbEntity
  8
DEFAULT
100
AcDbSpline
210
0.0
220
0.0
230
1.0
 70
     8
 71
     3
 72
     9
 73
     5
 74
     0
 42
0.0000000001
 43
0.0000000001
 40
0.0
 40
0.0
 40
0.0
 40
0.0
 40
1.000000115485941
 40
2.0
 40
2.0
 40
2.0
 40
2.0
 10
12.38205799999997
 20
2.60146499999999
 30
0.0
 10
12.39910946089151
 20
2.574127984616013
 30
0.0
 10
12.41585814072045
 20
2.511463308169638
 30
0.0
 10
12.42334722027431
 20
2.44789504975401
 30
0.0
 10
12.42477449999996
 20
2.415829000000002
 30
0.0
  0
SPLINE
  5
D3
330
1F
100
AcDbEntity
  8
DEFAULT
100
AcDbSpline
210
0.0
220
0.0
230
1.0
 70
    24
 71
     2
 72
     6
 73
     3
 74
     0
 42
0.0000000001
 43
0.0000000001
 40
0.0
 40
0.0
 40
0.0
 40
1.0
 40
1.0
 40
1.0
 10
12.42477449999996
 20
2.415829000000002
 30
0.0
 10
12.44256071071112
 20
2.023956498217061
 30
0.0
 10
12.46034692142229
 20
1.632083996434119
 30
0.0
  0
ARC
  5
D4
330
1F
100
AcDbEntity
  8
DEFAULT
100
AcDbCircle
 10
12.52028508236702
 20
1.63480392134403
 30
0.0
 40
0.0599998427410689
100
AcDbArc
 50
182.598234190645
 51
269.9975340146328
  0
SPLINE
  5
D5
330
1F
100
AcDbEntity
  8
DEFAULT
100
AcDbSpline
210
0.0
220
0.0
230
1.0
 70
    24
 71
     2
 72
     6
 73
     3
 74
     0
 42
0.0000000001
 43
0.0000000001
 40
0.0
 40
0.0
 40
0.0
 40
1.0
 40
1.0
 40
1.0
 10
12.52028249999998
 20
1.574804078658531
 30
0.0
 10
12.93583824999997
 20
1.574804088336712
 30
0.0
 10
13.35139399999997
 20
1.574804098014894
 30
0.0
  0
ARC
  5
D6
330
1F
100
AcDbEntity
  8
DEFAULT
100
AcDbCircle
 10
13.35139389779104
 20
1.634804423377844
 30
0.0
 40
0.0600003253630366
100
AcDbArc
 50
270.0000976017917
 51
357.6001198212153
  0
SPLINE
  5
D7
330
1F
100
AcDbEntity
  8
DEFAULT
100
AcDbSpline
210
0.0
220
0.0
230
1.0
 70
    24
 71
     2
 72
     6
 73
     3
 74
     0
 42
0.0000000001
 43
0.0000000001
 40
0.0
 40
0.0
 40
0.0
 40
1.0
 40
1.0
 40
1.0
 10
13.41134159792892
 20
1.632291995896409
 30
0.0
 10
13.43427229896444
 20
2.180653997948205
 30
0.0
 10
13.45720299999996
 20
2.729016000000001
 30
0.0
  0
SPLINE
  5
D8
330
1F
100
AcDbEntity
  8
DEFAULT
100
AcDbSpline
210
0.0
220
0.0
230
1.0
 70
     8
 71
     3
 72
     9
 73
     5
 74
     0
 42
0.0000000001
 43
0.0000000001
 40
0.0
 40
0.0
 40
0.0
 40
0.0
 40
0.9999377902530446
 40
2.0
 40
2.0
 40
2.0
 40
2.0
 10
13.45720299999996
 20
2.729016000000001
 30
0.0
 10
13.45739892508382
 20
2.739728213790485
 30
0.0
 10
13.45306679464102
 20
2.761353775542503
 30
0.0
 10
13.43940082118976
 20
2.778628490951661
 30
0.0
 10
13.43125099999997
 20
2.785572999999999
 30
0.0
  0
ARC
  5
D9
330
1F
100
AcDbEntity
  8
DEFAULT
100
AcDbCircle
 10
19.85133599999998
 20
1.441068000000001
 30
0.0
 40
0.015625
100
AcDbArc
 50
90.0
 51
180.0
  0
CIRCLE
  5
DA
330
1F
100
AcDbEntity
  8
DEFAULT
100
AcDbCircle
 10
0.0
 20
0.0
 30
0.0
 40
1.279528000000001
  0
SPLINE
  5
DB
330
1F
100
AcDbEntity
  8
DEFAULT
100
AcDbSpline
210
0.0
220
0.0
230
1.0
 70
    24
 71
     2
 72
     6
 73
     3
 74
     0
 42
0.0000000001
 43
0.0000000001
 40
0.0
 40
0.0
 40
0.0
 40
1.0
 40
1.0
 40
1.0
 10
20.90854599999997
 20
1.441068000000001
 30
0.0
 10
20.90854599999997
 20
0.9929814999999991
 30
0.0
 10
20.90854599999997
 20
0.5448949999999968
 30
0.0
  0
SPLINE
  5
DC
330
1F
100
AcDbEntity
  8
DEFAULT
100
AcDbSpline
210
0.0
220
0.0
230
1.0
 70
    24
 71
     2
 72
     6
 73
     3
 74
     0
 42
0.0000000001
 43
0.0000000001
 40
0.0
 40
0.0
 40
0.0
 40
1.0
 40
1.0
 40
1.0
 10
20.72645999999997
 20
0.3149609999999967
 30
0.0
 10
20.72645999999997
 20
0.1574804999999984
 30
0.0
 10
20.72645999999997
 20
0.0
 30
0.0
  0
ARC
  5
DD
330
1F
100
AcDbEntity
  8
DEFAULT
100
AcDbCircle
 10
20.89292099999997
 20
1.441068000000001
 30
0.0
 40
0.015625
100
AcDbArc
 50
0.0
 51
90.0
  0
SPLINE
  5
DE
330
1F
100
AcDbEntity
  8
DEFAULT
100
AcDbSpline
210
0.0
220
0.0
230
1.0
 70
     8
 71
     3
 72
     9
 73
     5
 74
     0
 42
0.0000000001
 43
0.0000000001
 40
0.0
 40
0.0
 40
0.0
 40
0.0
 40
1.0
 40
2.0
 40
2.0
 40
2.0
 40
2.0
 10
9.05512699999997
 20
3.920969999999997
 30
0.0
 10
7.783033344219291
 20
3.861311733474992
 30
0.0
 10
5.265103794911681
 20
3.469277630728996
 30
0.0
 10
2.780952411945805
 20
2.917788578833225
 30
0.0
 10
1.552170999999987
 20
2.587086999999997
 30
0.0
  0
SPLINE
  5
DF
330
1F
100
AcDbEntity
  8
DEFAULT
100
AcDbSpline
210
0.0
220
0.0
230
1.0
 70
     8
 71
     3
 72
     8
 73
     4
 74
     0
 42
0.0000000001
 43
0.0000000001
 40
0.0
 40
0.0
 40
0.0
 40
0.0
 40
1.0
 40
1.0
 40
1.0
 40
1.0
 10
8.706801660209976
 20
0.5987557520799953
 30
0.0
 10
8.710071506799977
 20
0.4684990966599969
 30
0.0
 10
8.817130231340002
 20
0.3540534426900024
 30
0.0
 10
8.817130231340002
 20
0.2237557520799953
 30
0.0
  0
SPLINE
  5
E0
330
1F
100
AcDbEntity
  8
DEFAULT
100
AcDbSpline
210
0.0
220
0.0
230
1.0
 70
     8
 71
     3
 72
    10
 73
     6
 74
     0
 42
0.0000000001
 43
0.0000000001
 40
0.0
 40
0.0
 40
0.0
 40
0.0
 40
0.4240323129197
 40
0.7689249100014
 40
1.0
 40
1.0
 40
1.0
 40
1.0
 10
9.101021157959963
 20
4.007722273358993
 30
0.0
 10
9.101230022729965
 20
3.992828443516999
 30
0.0
 10
9.097754429149973
 20
3.965724690269994
 30
0.0
 10
9.082947281919985
 20
3.932656798194003
 30
0.0
 10
9.063215540519991
 20
3.921511910836003
 30
0.0
 10
9.055125428639997
 20
3.920991993606989
 30
0.0
  0
SPLINE
  5
E1
330
1F
100
AcDbEntity
  8
DEFAULT
100
AcDbSpline
210
0.0
220
0.0
230
1.0
 70
    24
 71
     2
 72
     6
 73
     3
 74
     0
 42
0.0000000001
 43
0.0000000001
 40
0.0
 40
0.0
 40
0.0
 40
1.0
 40
1.0
 40
1.0
 10
1.210629999999981
 20
1.574804
 30
0.0
 10
1.210629999999981
 20
1.515748500000001
 30
0.0
 10
1.210629999999981
 20
1.456693000000001
 30
0.0
  0
SPLINE
  5
E2
330
1F
100
AcDbEntity
  8
DEFAULT
100
AcDbSpline
210
0.0
220
0.0
230
1.0
 70
     8
 71
     3
 72
     9
 73
     5
 74
     0
 42
0.0000000001
 43
0.0000000001
 40
0.0
 40
0.0
 40
0.0
 40
0.0
 40
1.0
 40
2.0
 40
2.0
 40
2.0
 40
2.0
 10
0.9580520872829652
 20
2.798339719737001
 30
0.0
 10
2.282812469836301
 20
3.171451471676022
 30
0.0
 10
4.964698925459402
 20
3.789093426875127
 30
0.0
 10
7.686822184492598
 20
4.223677452697515
 30
0.0
 10
9.062534626519977
 20
4.289667635103001
 30
0.0
  0
ARC
  5
E3
330
1F
100
AcDbEntity
  8
DEFAULT
100
AcDbCircle
 10
10.377973
 20
11.362458
 30
0.0
 40
0.0250000400499361
100
AcDbArc
 50
270.0
 51
304.407721103046
  0
SPLINE
  5
E4
330
1F
100
AcDbEntity
  8
DEFAULT
100
AcDbSpline
210
0.0
220
0.0
230
1.0
 70
    24
 71
     2
 72
     6
 73
     3
 74
     0
 42
0.0000000001
 43
0.0000000001
 40
0.0
 40
0.0
 40
0.0
 40
0.871574244661123
 40
0.871574244661123
 40
0.871574244661123
 10
8.634629999999959
 20
9.973755999999995
 30
0.0
 10
8.634629999999959
 20
7.141139704851348
 30
0.0
 10
8.634629999999959
 20
4.308523409702701
 30
0.0
  0
ARC
  5
E5
330
1F
100
AcDbEntity
  8
DEFAULT
100
AcDbCircle
 10
47.58223273909539
 20
2.707682999999989
 30
0.0
 40
0.0599999500611571
100
AcDbArc
 50
357.999956196089
 51
76.7746261113896
  0
SPLINE
  5
E6
330
1F
100
AcDbEntity
  8
DEFAULT
100
AcDbSpline
210
0.0
220
0.0
230
1.0
 70
    24
 71
     2
 72
     6
 73
     3
 74
     0
 42
0.0000000001
 43
0.0000000001
 40
0.0
 40
0.0
 40
0.0
 40
1.0
 40
1.0
 40
1.0
 10
19.78127199999997
 20
1.574804
 30
0.0
 10
20.24712449999997
 20
1.574804
 30
0.0
 10
20.71297699999997
 20
1.574804
 30
0.0
  0
CIRCLE
  5
E7
330
1F
100
AcDbEntity
  8
DEFAULT
100
AcDbCircle
 10
12.01886499999998
 20
0.0
 30
0.0
 40
1.0
  0
SPLINE
  5
E8
330
1F
100
AcDbEntity
  8
DEFAULT
100
AcDbSpline
210
0.0
220
0.0
230
1.0
 70
    24
 71
     2
 72
     6
 73
     3
 74
     0
 42
0.0000000001
 43
0.0000000001
 40
0.0
 40
0.0
 40
0.0
 40
1.0
 40
1.0
 40
1.0
 10
1.461613999999997
 20
1.441068000000001
 30
0.0
 10
1.461613999999997
 20
0.9929814999999991
 30
0.0
 10
1.461613999999997
 20
0.5448949999999968
 30
0.0
  0
SPLINE
  5
E9
330
1F
100
AcDbEntity
  8
DEFAULT
100
AcDbSpline
210
0.0
220
0.0
230
1.0
 70
     8
 71
     3
 72
     9
 73
     5
 74
     0
 42
0.0000000001
 43
0.0000000001
 40
0.0
 40
0.0
 40
0.0
 40
0.0
 40
1.0
 40
2.0
 40
2.0
 40
2.0
 40
2.0
 10
0.4868669999999611
 20
2.797449999999998
 30
0.0
 10
0.4657263189230321
 20
2.790469611421017
 30
0.0
 10
0.419764773582699
 20
2.779062543245416
 30
0.0
 10
0.3933066018655609
 20
2.737346548889931
 30
0.0
 10
0.3943429999999921
 20
2.714154999999991
 30
0.0
  0
SPLINE
  5
EA
330
1F
100
AcDbEntity
  8
DEFAULT
100
AcDbSpline
210
0.0
220
0.0
230
1.0
 70
    24
 71
     2
 72
     6
 73
     3
 74
     0
 42
0.0000000001
 43
0.0000000001
 40
0.0
 40
0.0
 40
0.0
 40
1.0
 40
1.0
 40
1.0
 10
0.3943429999999921
 20
2.714154999999991
 30
0.0
 10
0.4185204999999712
 20
2.173133499999992
 30
0.0
 10
0.4426979999999503
 20
1.632111999999992
 30
0.0
  0
SPLINE
  5
EB
330
1F
100
AcDbEntity
  8
DEFAULT
100
AcDbSpline
210
0.0
220
0.0
230
1.0
 70
    24
 71
     2
 72
     6
 73
     3
 74
     0
 42
0.0000000001
 43
0.0000000001
 40
0.0
 40
0.0
 40
0.0
 40
1.0
 40
1.0
 40
1.0
 10
8.817129999999963
 20
0.2237559999999945
 30
0.0
 10
8.817129999999963
 20
-0.3362440000000078
 30
0.0
 10
8.817129999999963
 20
-0.89624400000001
 30
0.0
  0
SPLINE
  5
EC
330
1F
100
AcDbEntity
  8
DEFAULT
100
AcDbSpline
210
0.0
220
0.0
230
1.0
 70
     8
 71
     3
 72
     8
 73
     4
 74
     0
 42
0.0000000001
 43
0.0000000001
 40
0.0
 40
0.0
 40
0.0
 40
0.0
 40
1.0
 40
1.0
 40
1.0
 40
1.0
 10
35.53858539930539
 20
0.5987557520799953
 30
0.0
 10
35.54185524589539
 20
0.4684990966599969
 30
0.0
 10
35.64891397043539
 20
0.3540534426900024
 30
0.0
 10
35.64891397043539
 20
0.2237557520799953
 30
0.0
  0
SPLINE
  5
ED
330
1F
100
AcDbEntity
  8
DEFAULT
100
AcDbSpline
210
0.0
220
0.0
230
1.0
 70
    24
 71
     2
 72
     6
 73
     3
 74
     0
 42
0.0000000001
 43
0.0000000001
 40
0.0
 40
0.0
 40
0.0
 40
1.0
 40
1.0
 40
1.0
 10
27.22056273909539
 20
1.441068000000001
 30
0.0
 10
27.22056273909539
 20
1.360298
 30
0.0
 10
27.22056273909539
 20
1.279527999999999
 30
0.0
  0
SPLINE
  5
EE
330
1F
100
AcDbEntity
  8
DEFAULT
100
AcDbSpline
210
0.0
220
0.0
230
1.0
 70
     8
 71
     3
 72
     9
 73
     5
 74
     0
 42
0.0000000001
 43
0.0000000001
 40
0.0
 40
0.0
 40
0.0
 40
0.0
 40
1.0
 40
2.0
 40
2.0
 40
2.0
 40
2.0
 10
27.31865073909538
 20
2.797449999999998
 30
0.0
 10
27.29751005801845
 20
2.790469611421017
 30
0.0
 10
27.25154851267811
 20
2.779062543245416
 30
0.0
 10
27.22509034096095
 20
2.737346548889931
 30
0.0
 10
27.22612673909538
 20
2.714154999999991
 30
0.0
  0
SPLINE
  5
EF
330
1F
100
AcDbEntity
  8
DEFAULT
100
AcDbSpline
210
0.0
220
0.0
230
1.0
 70
    24
 71
     2
 72
     6
 73
     3
 74
     0
 42
0.0000000001
 43
0.0000000001
 40
0.0
 40
0.0
 40
0.0
 40
1.0
 40
1.0
 40
1.0
 10
27.22612673909538
 20
2.714154999999991
 30
0.0
 10
27.25030423909537
 20
2.173133499999992
 30
0.0
 10
27.27448173909536
 20
1.632111999999992
 30
0.0
  0
ARC
  5
F0
330
1F
100
AcDbEntity
  8
DEFAULT
100
AcDbCircle
 10
37.20975673909538
 20
11.362458
 30
0.0
 40
0.0250000400499361
100
AcDbArc
 50
270.0
 51
304.407721103046
  0
SPLINE
  5
F1
330
1F
100
AcDbEntity
  8
DEFAULT
100
AcDbSpline
210
0.0
220
0.0
230
1.0
 70
    24
 71
     2
 72
     6
 73
     3
 74
     0
 42
0.0000000001
 43
0.0000000001
 40
0.0
 40
0.0
 40
0.0
 40
1.0
 40
1.0
 40
1.0
 10
10.377973
 20
11.337458
 30
0.0
 10
9.61712949999999
 20
11.337458
 30
0.0
 10
8.856285999999983
 20
11.337458
 30
0.0
  0
ARC
  5
F2
330
1F
100
AcDbEntity
  8
DEFAULT
100
AcDbCircle
 10
8.980879999999956
 20
11.296857
 30
0.0
 40
0.0500000000000007
100
AcDbArc
 50
180.0
 51
270.0
  0
SPLINE
  5
F3
330
1F
100
AcDbEntity
  8
DEFAULT
100
AcDbSpline
210
0.0
220
0.0
230
1.0
 70
    24
 71
     2
 72
     6
 73
     3
 74
     0
 42
0.0000000001
 43
0.0000000001
 40
0.0
 40
0.0
 40
0.0
 40
1.0
 40
1.0
 40
1.0
 10
0.5269549999999867
 20
1.279527999999999
 30
0.0
 10
0.5269549999999867
 20
1.222747499999997
 30
0.0
 10
0.5269549999999867
 20
1.165966999999995
 30
0.0
  0
CIRCLE
  5
F4
330
1F
100
AcDbEntity
  8
DEFAULT
100
AcDbCircle
 10
26.83178373909539
 20
0.0
 30
0.0
 40
1.0625
  0
SPLINE
  5
F5
330
1F
100
AcDbEntity
  8
DEFAULT
100
AcDbSpline
210
0.0
220
0.0
230
1.0
 70
     8
 71
     3
 72
    54
 73
    50
 74
     0
 42
0.0000000001
 43
0.0000000001
 40
0.0
 40
0.0
 40
0.0
 40
0.0
 40
1.0
 40
2.0
 40
3.0
 40
4.0
 40
5.0
 40
6.0
 40
7.0
 40
8.0
 40
9.0
 40
10.0
 40
11.0
 40
12.0
 40
13.0
 40
14.0
 40
15.0
 40
16.0
 40
17.0
 40
18.0
 40
19.0
 40
20.0
 40
21.0
 40
22.0
 40
23.0
 40
24.0
 40
25.0
 40
26.0
 40
27.0
 40
28.0
 40
29.0
 40
30.0
 40
31.0
 40
32.0
 40
33.0
 40
34.0
 40
35.0
 40
36.0
 40
37.0
 40
38.0
 40
39.0
 40
40.0
 40
41.0
 40
42.0
 40
43.0
 40
44.0
 40
45.0
 40
46.0
 40
47.0
 40
47.0
 40
47.0
 40
47.0
 10
36.23699673909539
 20
12.34753500000001
 30
0.0
 10
36.18780101232275
 20
12.33304410815133
 30
0.0
 10
36.08665622466123
 20
12.31521675756665
 30
0.0
 10
35.93485854645573
 20
12.29059512162779
 30
0.0
 10
35.78248371210117
 20
12.26928815061613
 30
0.0
 10
35.63009355353026
 20
12.24827481302219
 30
0.0
 10
35.47762111934597
 20
12.2278914458452
 30
0.0
 10
35.32513345873136
 20
12.20732698534947
 30
0.0
 10
35.17290206927703
 20
12.18602601160877
 30
0.0
 10
35.02036295321639
 20
12.16281021622795
 30
0.0
 10
34.87108518894738
 20
12.13286277629993
 30
0.0
 10
34.72225471856513
 20
12.09164893563734
 30
0.0
 10
34.59829910673852
 20
11.98114104769473
 30
0.0
 10
34.63132596958815
 20
11.81127831716437
 30
0.0
 10
34.75500232147343
 20
11.71184115315272
 30
0.0
 10
34.90307804891012
 20
11.66663710515932
 30
0.0
 10
35.05387429823253
 20
11.63671300019269
 30
0.0
 10
35.20597108202497
 20
11.6132893528593
 30
0.0
 10
35.35820479922941
 20
11.5912295227683
 30
0.0
 10
35.51075200551031
 20
11.57130231318807
 30
0.0
 10
35.66357085255143
 20
11.55360826722645
 30
0.0
 10
35.8166506870152
 20
11.5383332162895
 30
0.0
 10
35.96992875755365
 20
11.52521725048184
 30
0.0
 10
36.12340680486682
 20
11.51464163901146
 30
0.0
 10
36.27704423392723
 20
11.50675025553052
 30
0.0
 10
36.43079637801009
 20
11.50155869019251
 30
0.0
 10
36.58461359843221
 20
11.49881217799452
 30
0.0
 10
36.73845633162429
 20
11.49939489675593
 30
0.0
 10
36.89226064874572
 20
11.50254137104768
 30
0.0
 10
37.04599563721146
 20
11.50837944769897
 30
0.0
 10
37.19953280891923
 20
11.51814519239352
 30
0.0
 10
37.35283397122834
 20
11.53095858317462
 30
0.0
 10
37.50587069415963
 20
11.54676942497926
 30
0.0
 10
37.65835454724032
 20
11.56718428846683
 30
0.0
 10
37.8105639479179
 20
11.5895083166301
 30
0.0
 10
37.96034317536495
 20
11.62681303407157
 30
0.0
 10
38.10417938542966
 20
11.67755523732713
 30
0.0
 10
38.22747761698409
 20
11.79575209180747
 30
0.0
 10
38.16343292303034
 20
11.95977656778041
 30
0.0
 10
38.01885822444248
 20
12.02376493270415
 30
0.0
 10
37.87659389132895
 20
12.07948871178658
 30
0.0
 10
37.72849072734999
 20
12.12266537485965
 30
0.0
 10
37.57871182036686
 20
12.15750345619124
 30
0.0
 10
37.4278119561132
 20
12.18759920716082
 30
0.0
 10
37.2762915113338
 20
12.21420017039149
 30
0.0
 10
37.12440168589279
 20
12.23858301986222
 30
0.0
 10
36.97252700635778
 20
12.26314789066799
 30
0.0
 10
36.82065286728459
 20
12.2873284189757
 30
0.0
 10
36.72011115581438
 20
12.30859573051423
 30
0.0
 10
36.67171573909539
 20
12.32572600000002
 30
0.0
  0
SPLINE
  5
F6
330
1F
100
AcDbEntity
  8
DEFAULT
100
AcDbSpline
210
0.0
220
0.0
230
1.0
 70
    24
 71
     2
 72
     6
 73
     3
 74
     0
 42
0.0000000001
 43
0.0000000001
 40
0.0
 40
0.0
 40
0.0
 40
1.0
 40
1.0
 40
1.0
 10
35.76266373909539
 20
11.337458
 30
0.0
 10
35.76266373909539
 20
11.3171575
 30
0.0
 10
35.76266373909539
 20
11.296857
 30
0.0
  0
SPLINE
  5
F7
330
1F
100
AcDbEntity
  8
DEFAULT
100
AcDbSpline
210
0.0
220
0.0
230
1.0
 70
    24
 71
     2
 72
     6
 73
     3
 74
     0
 42
0.0000000001
 43
0.0000000001
 40
0.0
 40
0.0
 40
0.0
 40
1.0
 40
1.0
 40
1.0
 10
35.89891373909538
 20
11.24685699999999
 30
0.0
 10
35.89891373909538
 20
10.61030649999999
 30
0.0
 10
35.89891373909538
 20
9.973755999999995
 30
0.0
  0
SPLINE
  5
F8
330
1F
100
AcDbEntity
  8
DEFAULT
100
AcDbSpline
210
0.0
220
0.0
230
1.0
 70
    24
 71
     2
 72
     6
 73
     3
 74
     0
 42
0.0000000001
 43
0.0000000001
 40
0.0
 40
0.0
 40
0.0
 40
1.0
 40
1.0
 40
1.0
 10
-1.067245999950643
 20
37.95495628140031
 30
0.0
 10
-0.004745999950643
 20
37.95495628140031
 30
0.0
 10
1.057754000049357
 20
37.95495628140031
 30
0.0
  0
SPLINE
  5
F9
330
1F
100
AcDbEntity
  8
DEFAULT
100
AcDbSpline
210
0.0
220
0.0
230
1.0
 70
     8
 71
     3
 72
     9
 73
     5
 74
     0
 42
0.0000000001
 43
0.0000000001
 40
0.0
 40
0.0
 40
0.0
 40
0.0
 40
1.0
 40
2.0
 40
2.0
 40
2.0
 40
2.0
 10
35.46191373909537
 20
4.308345222177593
 30
0.0
 10
34.08126220379455
 20
4.272404215957124
 30
0.0
 10
31.39152913149235
 20
3.849709083087419
 30
0.0
 10
28.74889909845686
 20
3.216641134994376
 30
0.0
 10
27.31865073909538
 20
2.797450999999995
 30
0.0
  0
SPLINE
  5
FA
330
1F
100
AcDbEntity
  8
DEFAULT
100
AcDbSpline
210
0.0
220
0.0
230
1.0
 70
    24
 71
     2
 72
     6
 73
     3
 74
     0
 42
0.0000000001
 43
0.0000000001
 40
0.0
 40
0.0
 40
0.0
 40
1.0
 40
1.0
 40
1.0
 10
37.13516373909539
 20
11.337458
 30
0.0
 10
37.13516373909539
 20
11.3171575
 30
0.0
 10
37.13516373909539
 20
11.296857
 30
0.0
  0
ARC
  5
FB
330
1F
100
AcDbEntity
  8
DEFAULT
100
AcDbCircle
 10
1.339206999999988
 20
1.63480398705731
 30
0.0
 40
0.0599999624739702
100
AcDbArc
 50
270.0
 51
357.1168156066992
  0
SPLINE
  5
FC
330
1F
100
AcDbEntity
  8
DEFAULT
100
AcDbSpline
210
0.0
220
0.0
230
1.0
 70
    24
 71
     2
 72
     6
 73
     3
 74
     0
 42
0.0000000001
 43
0.0000000001
 40
0.0
 40
0.0
 40
0.0
 40
1.0
 40
1.0
 40
1.0
 10
1.399131012276086
 20
1.631785999381719
 30
0.0
 10
1.418876006138021
 20
2.023581499690856
 30
0.0
 10
1.438620999999955
 20
2.415376999999992
 30
0.0
  0
SPLINE
  5
FD
330
1F
100
AcDbEntity
  8
DEFAULT
100
AcDbSpline
210
0.0
220
0.0
230
1.0
 70
     8
 71
     3
 72
     9
 73
     5
 74
     0
 42
0.0000000001
 43
0.0000000001
 40
0.0
 40
0.0
 40
0.0
 40
0.0
 40
1.0
 40
2.0
 40
2.0
 40
2.0
 40
2.0
 10
1.438620999999955
 20
2.415376999999992
 30
0.0
 10
1.440952587809193
 20
2.451708179137867
 30
0.0
 10
1.460330404482931
 20
2.524269628192812
 30
0.0
 10
1.516642745364209
 20
2.576963854766205
 30
0.0
 10
1.552244999999971
 20
2.587097999999997
 30
0.0
  0
ARC
  5
FE
330
1F
100
AcDbEntity
  8
DEFAULT
100
AcDbCircle
 10
1.038561000049356
 20
36.22343528140031
 30
0.0
 40
0.2362210042417907
100
AcDbArc
 50
274.6604298632045
 51
0.0
  0
SPLINE
  5
FF
330
1F
100
AcDbEntity
  8
DEFAULT
100
AcDbSpline
210
0.0
220
0.0
230
1.0
 70
     8
 71
     3
 72
     9
 73
     5
 74
     0
 42
0.0000000001
 43
0.0000000001
 40
0.0
 40
0.0
 40
0.0
 40
0.0
 40
1.0
 40
2.0
 40
2.0
 40
2.0
 40
2.0
 10
35.88690773909539
 20
3.920968999999999
 30
0.0
 10
35.92933312997098
 20
3.922976362295472
 30
0.0
 10
36.014236291571
 20
3.924811059239104
 30
0.0
 10
36.09922347751152
 20
3.924591205705553
 30
0.0
 10
36.14158573909538
 20
3.921478999999991
 30
0.0
  0
CIRCLE
  5
100
330
1F
100
AcDbEntity
  8
DEFAULT
100
AcDbCircle
 10
46.27871573909539
 20
0.0
 30
0.0
 40
1.0
  0
SPLINE
  5
101
330
1F
100
AcDbEntity
  8
DEFAULT
100
AcDbSpline
210
0.0
220
0.0
230
1.0
 70
    24
 71
     2
 72
     6
 73
     3
 74
     0
 42
0.0000000001
 43
0.0000000001
 40
0.0
 40
0.0
 40
0.0
 40
1.0
 40
1.0
 40
1.0
 10
46.80567073909538
 20
1.279527999999999
 30
0.0
 10
46.54219323909538
 20
1.279527999999999
 30
0.0
 10
46.27871573909539
 20
1.279527999999999
 30
0.0
  0
SPLINE
  5
102
330
1F
100
AcDbEntity
  8
DEFAULT
100
AcDbSpline
210
0.0
220
0.0
230
1.0
 70
     8
 71
     3
 72
     9
 73
     5
 74
     0
 42
0.0000000001
 43
0.0000000001
 40
0.0
 40
0.0
 40
0.0
 40
0.0
 40
1.0
 40
2.0
 40
2.0
 40
2.0
 40
2.0
 10
28.76872125633238
 20
1.948920408199996
 30
0.0
 10
29.75914549766009
 20
2.081840037062804
 30
0.0
 10
31.74670933144625
 20
2.297689413371472
 30
0.0
 10
33.74266581111959
 20
2.412459896694187
 30
0.0
 10
34.74145937615538
 20
2.444418629514999
 30
0.0
  0
SPLINE
  5
103
330
1F
100
AcDbEntity
  8
DEFAULT
100
AcDbSpline
210
0.0
220
0.0
230
1.0
 70
    24
 71
     2
 72
     6
 73
     3
 74
     0
 42
0.0000000001
 43
0.0000000001
 40
0.0
 40
0.0
 40
0.0
 40
1.0
 40
1.0
 40
1.0
 10
35.93280473909539
 20
4.007722000000001
 30
0.0
 10
35.93087373909539
 20
4.117682500000001
 30
0.0
 10
35.92894273909539
 20
4.227643
 30
0.0
  0
SPLINE
  5
104
330
1F
100
AcDbEntity
  8
DEFAULT
100
AcDbSpline
210
0.0
220
0.0
230
1.0
 70
    24
 71
     2
 72
     6
 73
     3
 74
     0
 42
0.0000000001
 43
0.0000000001
 40
0.0
 40
0.0
 40
0.0
 40
1.0
 40
1.0
 40
1.0
 10
47.55824373909539
 20
0.3149609999999967
 30
0.0
 10
47.55824373909539
 20
0.1574804999999984
 30
0.0
 10
47.55824373909539
 20
0.0
 30
0.0
  0
ARC
  5
105
330
1F
100
AcDbEntity
  8
DEFAULT
100
AcDbCircle
 10
40.29663773909539
 20
1.441068000000001
 30
0.0
 40
0.015625
100
AcDbArc
 50
0.0
 51
90.0
  0
SPLINE
  5
106
330
1F
100
AcDbEntity
  8
DEFAULT
100
AcDbSpline
210
0.0
220
0.0
230
1.0
 70
    24
 71
     2
 72
     6
 73
     3
 74
     0
 42
0.0000000001
 43
0.0000000001
 40
0.0
 40
0.0
 40
0.0
 40
1.0
 40
1.0
 40
1.0
 10
28.04241373909537
 20
1.574804
 30
0.0
 10
28.04241373909537
 20
1.515748500000001
 30
0.0
 10
28.04241373909537
 20
1.456693000000001
 30
0.0
  0
SPLINE
  5
107
330
1F
100
AcDbEntity
  8
DEFAULT
100
AcDbSpline
210
0.0
220
0.0
230
1.0
 70
     8
 71
     3
 72
    10
 73
     6
 74
     0
 42
0.0000000001
 43
0.0000000001
 40
0.0
 40
0.0
 40
0.0
 40
0.0
 40
0.4240323129197
 40
0.7689249100014
 40
1.0
 40
1.0
 40
1.0
 40
1.0
 10
35.93280489705538
 20
4.007722273358993
 30
0.0
 10
35.93301376182538
 20
3.992828443516999
 30
0.0
 10
35.92953816824539
 20
3.965724690269994
 30
0.0
 10
35.91473102101537
 20
3.932656798194003
 30
0.0
 10
35.89499927961538
 20
3.921511910836003
 30
0.0
 10
35.88690916773538
 20
3.920991993606989
 30
0.0
  0
SPLINE
  5
108
330
1F
100
AcDbEntity
  8
DEFAULT
100
AcDbSpline
210
0.0
220
0.0
230
1.0
 70
    24
 71
     2
 72
     6
 73
     3
 74
     0
 42
0.0000000001
 43
0.0000000001
 40
0.0
 40
0.0
 40
0.0
 40
1.0
 40
1.0
 40
1.0
 10
46.55417773909537
 20
1.606985999999992
 30
0.0
 10
46.55425423909537
 20
1.606846999999995
 30
0.0
 10
46.55433073909538
 20
1.606707999999998
 30
0.0
  0
SPLINE
  5
109
330
1F
100
AcDbEntity
  8
DEFAULT
100
AcDbSpline
210
0.0
220
0.0
230
1.0
 70
     8
 71
     3
 72
     8
 73
     4
 74
     0
 42
0.0000000001
 43
0.0000000001
 40
0.0
 40
0.0
 40
0.0
 40
0.0
 40
1.0
 40
1.0
 40
1.0
 40
1.0
 10
47.63979673909537
 20
2.706040000000002
 30
0.0
 10
44.42532667122526
 20
3.419708669241643
 30
0.0
 10
41.17141217263594
 20
4.018147864471345
 30
0.0
 10
37.88022949879539
 20
4.219504144308999
 30
0.0
  0
ARC
  5
10A
330
1F
100
AcDbEntity
  8
DEFAULT
100
AcDbCircle
 10
31.58078826574481
 20
-65.37724701432583
 30
0.0
 40
70.00000232123381
100
AcDbArc
 50
76.77588180357772
 51
83.00237981336925
  0
ARC
  5
10B
330
1F
100
AcDbEntity
  8
DEFAULT
100
AcDbCircle
 10
36.45391383951679
 20
-25.67519294001684
 30
0.0
 40
29.99999668902039
100
AcDbArc
 50
83.00238018814096
 51
88.12036129383938
  0
ARC
  5
10C
330
1F
100
AcDbEntity
  8
DEFAULT
100
AcDbCircle
 10
35.81266373909537
 20
11.296857
 30
0.0
 40
0.0500000000000007
100
AcDbArc
 50
180.0
 51
270.0
  0
ARC
  5
10D
330
1F
100
AcDbEntity
  8
DEFAULT
100
AcDbCircle
 10
40.07604373909538
 20
0.5448949999999968
 30
0.0
 40
0.2362201456744931
100
AcDbArc
 50
283.2478113805395
 51
359.9999999999999
  0
SPLINE
  5
10E
330
1F
100
AcDbEntity
  8
DEFAULT
100
AcDbSpline
210
0.0
220
0.0
230
1.0
 70
    24
 71
     2
 72
     6
 73
     3
 74
     0
 42
0.0000000001
 43
0.0000000001
 40
0.0
 40
0.0
 40
0.0
 40
1.0
 40
1.0
 40
1.0
 10
40.09080573909537
 20
0.3149609999999967
 30
0.0
 10
40.11049123909538
 20
0.3149609999999967
 30
0.0
 10
40.13017673909539
 20
0.3149609999999967
 30
0.0
  0
SPLINE
  5
10F
330
1F
100
AcDbEntity
  8
DEFAULT
100
AcDbSpline
210
0.0
220
0.0
230
1.0
 70
    24
 71
     2
 72
     6
 73
     3
 74
     0
 42
0.0000000001
 43
0.0000000001
 40
0.0
 40
0.0
 40
0.0
 40
1.0
 40
1.0
 40
1.0
 10
39.37760373909538
 20
1.279527999999999
 30
0.0
 10
39.11412623909538
 20
1.279527999999999
 30
0.0
 10
38.85064873909539
 20
1.279527999999999
 30
0.0
  0
SPLINE
  5
110
330
1F
100
AcDbEntity
  8
DEFAULT
100
AcDbSpline
210
0.0
220
0.0
230
1.0
 70
    24
 71
     2
 72
     6
 73
     3
 74
     0
 42
0.0000000001
 43
0.0000000001
 40
0.0
 40
0.0
 40
0.0
 40
1.0
 40
1.0
 40
1.0
 10
28.29339773909538
 20
1.441068000000001
 30
0.0
 10
28.29339773909538
 20
0.9929814999999991
 30
0.0
 10
28.29339773909538
 20
0.5448949999999968
 30
0.0
  0
CIRCLE
  5
111
330
1F
100
AcDbEntity
  8
DEFAULT
100
AcDbCircle
 10
38.85064873909539
 20
0.0
 30
0.0
 40
1.0
  0
SPLINE
  5
112
330
1F
100
AcDbEntity
  8
DEFAULT
100
AcDbSpline
210
0.0
220
0.0
230
1.0
 70
    24
 71
     2
 72
     6
 73
     3
 74
     0
 42
0.0000000001
 43
0.0000000001
 40
0.0
 40
0.0
 40
0.0
 40
1.0
 40
1.0
 40
1.0
 10
46.61305573909539
 20
1.574804
 30
0.0
 10
47.07890823909538
 20
1.574804
 30
0.0
 10
47.54476073909538
 20
1.574804
 30
0.0
  0
SPLINE
  5
113
330
1F
100
AcDbEntity
  8
DEFAULT
100
AcDbSpline
210
0.0
220
0.0
230
1.0
 70
     8
 71
     3
 72
     8
 73
     4
 74
     0
 42
0.0000000001
 43
0.0000000001
 40
0.0
 40
0.0
 40
0.0
 40
0.0
 40
1.0
 40
1.0
 40
1.0
 40
1.0
 10
39.49044742590539
 20
1.575258484239995
 30
0.0
 10
39.49271344403539
 20
1.574957836099998
 30
0.0
 10
39.49499045116539
 20
1.574803805160002
 30
0.0
 10
39.49725735286538
 20
1.574803632299989
 30
0.0
  0
SPLINE
  5
114
330
1F
100
AcDbEntity
  8
DEFAULT
100
AcDbSpline
210
0.0
220
0.0
230
1.0
 70
    24
 71
     2
 72
     6
 73
     3
 74
     0
 42
0.0000000001
 43
0.0000000001
 40
0.0
 40
0.0
 40
0.0
 40
1.0
 40
1.0
 40
1.0
 10
13.22949499999996
 20
1.574804
 30
0.0
 10
13.22949499999996
 20
1.515748500000001
 30
0.0
 10
13.22949499999996
 20
1.456693000000001
 30
0.0
  0
SPLINE
  5
115
330
1F
100
AcDbEntity
  8
DEFAULT
100
AcDbSpline
210
0.0
220
0.0
230
1.0
 70
     8
 71
     3
 72
     9
 73
     5
 74
     0
 42
0.0000000001
 43
0.0000000001
 40
0.0
 40
0.0
 40
0.0
 40
0.0
 40
1.0
 40
2.0
 40
2.0
 40
2.0
 40
2.0
 10
34.82394983800538
 20
12.10807784329002
 30
0.0
 10
34.79533527388691
 20
12.09510847966888
 30
0.0
 10
34.71820953236875
 20
12.0721141796208
 30
0.0
 10
34.72165022026547
 20
11.98976650919992
 30
0.0
 10
34.75073569380038
 20
11.96865033557
 30
0.0
  0
SPLINE
  5
116
330
1F
100
AcDbEntity
  8
DEFAULT
100
AcDbSpline
210
0.0
220
0.0
230
1.0
 70
     8
 71
     3
 72
    14
 73
    10
 74
     0
 42
0.0000000001
 43
0.0000000001
 40
0.0
 40
0.0
 40
0.0
 40
0.0
 40
1.000000000495217
 40
2.000000000990435
 40
3.000000001485652
 40
4.00000000198087
 40
5.000000002476088
 40
6.000000002971305
 40
7.0
 40
7.0
 40
7.0
 40
7.0
 10
34.75073569380038
 20
11.96865033557
 30
0.0
 10
34.87081541646415
 20
11.87721393898431
 30
0.0
 10
35.16822423854885
 20
11.82053608951838
 30
0.0
 10
35.60341704917207
 20
11.73291486599547
 30
0.0
 10
36.048812915642
 20
11.69371434236463
 30
0.0
 10
36.4945337209374
 20
11.68380686050757
 30
0.0
 10
36.94043835494375
 20
11.69584574810442
 30
0.0
 10
37.38542775243465
 20
11.72509389989416
 30
0.0
 10
37.68128678894033
 20
11.75443769652533
 30
0.0
 10
37.82892761894539
 20
11.77157837510501
 30
0.0
  0
SPLINE
  5
117
330
1F
100
AcDbEntity
  8
DEFAULT
100
AcDbSpline
210
0.0
220
0.0
230
1.0
 70
     8
 71
     3
 72
    17
 73
    13
 74
     0
 42
0.0000000001
 43
0.0000000001
 40
0.0
 40
0.0
 40
0.0
 40
0.0
 40
0.9999999582271532
 40
1.999999962868581
 40
2.999999967510008
 40
3.999999972151436
 40
4.999999976792863
 40
5.99999998143429
 40
6.999999986075718
 40
7.999999990717145
 40
8.999999995358573
 40
10.0
 40
10.0
 40
10.0
 40
10.0
 10
37.82892761894539
 20
11.77157837510501
 30
0.0
 10
37.84623548962134
 20
11.77359313407992
 30
0.0
 10
37.88076333686587
 20
11.77834475375664
 30
0.0
 10
37.9321836684027
 20
11.78791159917783
 30
0.0
 10
37.98288334790701
 20
11.80060298882408
 30
0.0
 10
38.03252804573526
 20
11.81765967314307
 30
0.0
 10
38.07880054139625
 20
11.84122608425628
 30
0.0
 10
38.12131110624028
 20
11.87553226788233
 30
0.0
 10
38.12766424966745
 20
11.93212068440555
 30
0.0
 10
38.08954356010841
 20
11.97236742062108
 30
0.0
 10
38.04611154736025
 20
12.00051019393294
 30
0.0
 10
38.01444640170871
 20
12.01562721755377
 30
0.0
 10
37.99850773909537
 20
12.02258000000002
 30
0.0
  0
SPLINE
  5
118
330
1F
100
AcDbEntity
  8
DEFAULT
100
AcDbSpline
210
0.0
220
0.0
230
1.0
 70
     8
 71
     3
 72
    10
 73
     6
 74
     0
 42
0.0000000001
 43
0.0000000001
 40
0.0
 40
0.0
 40
0.0
 40
0.0
 40
0.1665696722804
 40
0.6665577656833
 40
1.0
 40
1.0
 40
1.0
 40
1.0
 10
0.3896395933653594
 20
37.04774672982032
 30
0.0
 10
0.3895137553343488
 20
37.05362739617031
 30
0.0
 10
0.3900942775633496
 20
37.07718155291032
 30
0.0
 10
0.3975094945103592
 20
37.11207673594031
 30
0.0
 10
0.4101359242043543
 20
37.13879764131032
 30
0.0
 10
0.416134321224348
 20
37.14893518478031
 30
0.0
  0
ARC
  5
119
330
1F
100
AcDbEntity
  8
DEFAULT
100
AcDbCircle
 10
47.54476673909537
 20
1.634804000000003
 30
0.0
 40
0.0600002755487352
100
AcDbArc
 50
270.0
 51
357.9999895230753
  0
SPLINE
  5
11A
330
1F
100
AcDbEntity
  8
DEFAULT
100
AcDbSpline
210
0.0
220
0.0
230
1.0
 70
     8
 71
     3
 72
     9
 73
     5
 74
     0
 42
0.0000000001
 43
0.0000000001
 40
-2.0
 40
-2.0
 40
-2.0
 40
-2.0
 40
-1.0
 40
0.0
 40
0.0
 40
0.0
 40
0.0
 10
24.17750394150536
 20
27.71372896679001
 30
0.0
 10
24.47169560787202
 20
27.7785595664957
 30
0.0
 10
25.0748507342351
 20
27.81596498837482
 30
0.0
 10
25.67687796665714
 20
27.77201209179867
 30
0.0
 10
25.97045206478538
 20
27.70246534699001
 30
0.0
  0
LINE
  5
11B
330
1F
100
AcDbEntity
  8
DEFAULT
100
AcDbLine
 10
25.97045206478538
 20
27.70246534699001
 30
0.0
 11
25.97213987016451
 21
27.70206551140934
 31
0.0
  0
LINE
  5
11C
330
1F
100
AcDbEntity
  8
DEFAULT
100
AcDbLine
 10
25.97213987016451
 20
27.70206551140934
 30
0.0
 11
25.98951473909537
 21
27.69910100000001
 31
0.0
  0
SPLINE
  5
11D
330
1F
100
AcDbEntity
  8
DEFAULT
100
AcDbSpline
210
0.0
220
0.0
230
1.0
 70
     8
 71
     3
 72
     9
 73
     5
 74
     0
 42
0.0000000001
 43
0.0000000001
 40
-2.0
 40
-2.0
 40
-2.0
 40
-2.0
 40
-0.9999429395690957
 40
0.0
 40
0.0
 40
0.0
 40
0.0
 10
25.98951473909537
 20
27.69910100000001
 30
0.0
 10
26.28840327284604
 20
27.64810444446067
 30
0.0
 10
26.86772693244407
 20
27.46865508572721
 30
0.0
 10
27.42881836236953
 20
27.24093313521838
 30
0.0
 10
27.70654773909538
 20
27.12081050000002
 30
0.0
  0
SPLINE
  5
11E
330
1F
100
AcDbEntity
  8
DEFAULT
100
AcDbSpline
210
0.0
220
0.0
230
1.0
 70
     8
 71
     3
 72
     9
 73
     5
 74
     0
 42
0.0000000001
 43
0.0000000001
 40
-2.0
 40
-2.0
 40
-2.0
 40
-2.0
 40
-1.00005893379362
 40
0.0
 40
0.0
 40
0.0
 40
0.0
 10
27.70654773909538
 20
27.12081050000002
 30
0.0
 10
27.97626924324177
 20
27.00189915516889
 30
0.0
 10
28.47695628214021
 20
26.65096689432229
 30
0.0
 10
28.71542960878855
 20
26.07871328415715
 30
0.0
 10
28.72818823909537
 20
25.78219400000002
 30
0.0
  0
SPLINE
  5
11F
330
1F
100
AcDbEntity
  8
DEFAULT
100
AcDbSpline
210
0.0
220
0.0
230
1.0
 70
     8
 71
     3
 72
     9
 73
     5
 74
     0
 42
0.0000000001
 43
0.0000000001
 40
-2.0
 40
-2.0
 40
-2.0
 40
-2.0
 40
-0.9999994986387554
 40
0.0
 40
0.0
 40
0.0
 40
0.0
 10
28.72818823909537
 20
25.78219400000002
 30
0.0
 10
28.74963434942347
 20
25.35745923384292
 30
0.0
 10
28.79229906617243
 20
24.50772211034919
 30
0.0
 10
28.87513885578943
 20
23.66096064769509
 30
0.0
 10
28.90771273909539
 20
23.23693000000002
 30
0.0
  0
SPLINE
  5
120
330
1F
100
AcDbEntity
  8
DEFAULT
100
AcDbSpline
210
0.0
220
0.0
230
1.0
 70
     8
 71
     3
 72
     9
 73
     5
 74
     0
 42
0.0000000001
 43
0.0000000001
 40
-2.0
 40
-2.0
 40
-2.0
 40
-2.0
 40
-1.0
 40
0.0
 40
0.0
 40
0.0
 40
0.0
 10
28.90771273909539
 20
23.23693000000002
 30
0.0
 10
28.91565724827615
 20
23.07470883963774
 30
0.0
 10
28.92477016570271
 20
22.73326574762913
 30
0.0
 10
28.73088115987574
 20
22.44800830783284
 30
0.0
 10
28.60205773909539
 20
22.34583000000001
 30
0.0
  0
LINE
  5
121
330
1F
100
AcDbEntity
  8
DEFAULT
100
AcDbLine
 10
28.60205773909539
 20
22.34583000000001
 30
0.0
 11
28.55691562723754
 21
22.31002482906372
 31
0.0
  0
LINE
  5
122
330
1F
100
AcDbEntity
  8
DEFAULT
100
AcDbLine
 10
28.55691562723754
 20
22.31002482906372
 30
0.0
 11
28.53446996334537
 21
22.28823323043001
 31
0.0
  0
SPLINE
  5
123
330
1F
100
AcDbEntity
  8
DEFAULT
100
AcDbSpline
210
0.0
220
0.0
230
1.0
 70
     8
 71
     3
 72
     9
 73
     5
 74
     0
 42
0.0000000001
 43
0.0000000001
 40
-2.0
 40
-2.0
 40
-2.0
 40
-2.0
 40
-1.0
 40
0.0
 40
0.0
 40
0.0
 40
0.0
 10
28.53446996334537
 20
22.28823323043001
 30
0.0
 10
28.32652343231842
 20
22.08634624846405
 30
0.0
 10
27.77867460257559
 20
21.85370725540328
 30
0.0
 10
27.19795223761849
 20
21.8544999734852
 30
0.0
 10
26.91111167207538
 20
21.86748916321001
 30
0.0
  0
ARC
  5
124
330
1F
100
AcDbEntity
  8
DEFAULT
100
AcDbCircle
 10
36.24956673909537
 20
-87.525449
 30
0.0
 40
90.00000008861713
100
AcDbArc
 50
83.77635464235605
 51
87.43672945249743
  0
SPLINE
  5
125
330
1F
100
AcDbEntity
  8
DEFAULT
100
AcDbSpline
210
0.0
220
0.0
230
1.0
 70
     8
 71
     3
 72
     8
 73
     4
 74
     0
 42
0.0000000001
 43
0.0000000001
 40
0.0
 40
0.0
 40
0.0
 40
0.0
 40
1.0
 40
1.0
 40
1.0
 40
1.0
 10
40.26292773909537
 20
2.785667000000004
 30
0.0
 10
39.46450794204981
 20
3.439487860998085
 30
0.0
 10
38.58479419491866
 20
4.066708017702254
 30
0.0
 10
37.56131873909538
 20
4.289094999999989
 30
0.0
  0
SPLINE
  5
126
330
1F
100
AcDbEntity
  8
DEFAULT
100
AcDbSpline
210
0.0
220
0.0
230
1.0
 70
    24
 71
     2
 72
     6
 73
     3
 74
     0
 42
0.0000000001
 43
0.0000000001
 40
0.0
 40
0.0
 40
0.0
 40
1.0
 40
1.0
 40
1.0
 10
27.35873873909537
 20
1.279527999999999
 30
0.0
 10
27.09526123909538
 20
1.279527999999999
 30
0.0
 10
26.83178373909539
 20
1.279527999999999
 30
0.0
  0
ARC
  5
127
330
1F
100
AcDbEntity
  8
DEFAULT
100
AcDbCircle
 10
47.50411073909538
 20
0.5448949999999968
 30
0.0
 40
0.2362201456744931
100
AcDbArc
 50
283.2478113805395
 51
359.9999999999999
  0
SPLINE
  5
128
330
1F
100
AcDbEntity
  8
DEFAULT
100
AcDbSpline
210
0.0
220
0.0
230
1.0
 70
     8
 71
     3
 72
     8
 73
     4
 74
     0
 42
0.0000000001
 43
0.0000000001
 40
0.0
 40
0.0
 40
0.0
 40
0.0
 40
1.0
 40
1.0
 40
1.0
 40
1.0
 10
38.70299951245539
 20
3.861587137371998
 30
0.0
 10
41.39922732536706
 20
3.621108403511144
 30
0.0
 10
44.07389411387641
 20
3.167885469616422
 30
0.0
 10
46.71669020755539
 20
2.586168322741003
 30
0.0
  0
SPLINE
  5
129
330
1F
100
AcDbEntity
  8
DEFAULT
100
AcDbSpline
210
0.0
220
0.0
230
1.0
 70
    24
 71
     2
 72
     6
 73
     3
 74
     0
 42
0.0000000001
 43
0.0000000001
 40
0.0
 40
0.0
 40
0.0
 40
1.0
 40
1.0
 40
1.0
 10
37.11891373909538
 20
-1.026244000000005
 30
0.0
 10
36.44891373909537
 20
-1.026244000000005
 30
0.0
 10
35.77891373909537
 20
-1.026244000000005
 30
0.0
  0
SPLINE
  5
12A
330
1F
100
AcDbEntity
  8
DEFAULT
100
AcDbSpline
210
0.0
220
0.0
230
1.0
 70
    24
 71
     2
 72
     6
 73
     3
 74
     0
 42
0.0000000001
 43
0.0000000001
 40
0.0
 40
0.0
 40
0.0
 40
1.0
 40
1.0
 40
1.0
 10
37.24891373909537
 20
0.2237559999999945
 30
0.0
 10
37.24891373909537
 20
-0.3362440000000078
 30
0.0
 10
37.24891373909537
 20
-0.89624400000001
 30
0.0
  0
SPLINE
  5
12B
330
1F
100
AcDbEntity
  8
DEFAULT
100
AcDbSpline
210
0.0
220
0.0
230
1.0
 70
     8
 71
     3
 72
     9
 73
     5
 74
     0
 42
0.0000000001
 43
0.0000000001
 40
0.0
 40
0.0
 40
0.0
 40
0.0
 40
1.0
 40
2.0
 40
2.0
 40
2.0
 40
2.0
 10
28.24138773909539
 20
1.574804
 30
0.0
 10
28.25218098387265
 20
1.574990467893471
 30
0.0
 10
28.2736760912145
 20
1.58041636949865
 30
0.0
 10
28.29031209046909
 20
1.595120343005945
 30
0.0
 10
28.29652773909538
 20
1.603955999999997
 30
0.0
  0
SPLINE
  5
12C
330
1F
100
AcDbEntity
  8
DEFAULT
100
AcDbSpline
210
0.0
220
0.0
230
1.0
 70
     8
 71
     3
 72
     9
 73
     5
 74
     0
 42
0.0000000001
 43
0.0000000001
 40
0.0
 40
0.0
 40
0.0
 40
0.0
 40
1.0
 40
2.0
 40
2.0
 40
2.0
 40
2.0
 10
28.29652773909538
 20
1.603955999999997
 30
0.0
 10
28.34063553709476
 20
1.689077144698913
 30
0.0
 10
28.45933433733424
 20
1.845994617982839
 30
0.0
 10
28.63874056344414
 20
1.931692016828237
 30
0.0
 10
28.76872125633238
 20
1.948920408199996
 30
0.0
  0
SPLINE
  5
12D
330
1F
100
AcDbEntity
  8
DEFAULT
100
AcDbSpline
210
0.0
220
0.0
230
1.0
 70
    24
 71
     2
 72
     6
 73
     3
 74
     0
 42
0.0000000001
 43
0.0000000001
 40
0.0
 40
0.0
 40
0.0
 40
1.0
 40
1.0
 40
1.0
 10
47.60472773909538
 20
1.632709999999989
 30
0.0
 10
47.62346073909538
 20
2.169149499999989
 30
0.0
 10
47.64219373909538
 20
2.705588999999989
 30
0.0
  0
SPLINE
  5
12E
330
1F
100
AcDbEntity
  8
DEFAULT
100
AcDbSpline
210
0.0
220
0.0
230
1.0
 70
    24
 71
     2
 72
     6
 73
     3
 74
     0
 42
0.0000000001
 43
0.0000000001
 40
0.0
 40
0.0
 40
0.0
 40
1.0
 40
1.0
 40
1.0
 10
47.48934673909537
 20
1.574804
 30
0.0
 10
47.48934673909537
 20
1.515748500000001
 30
0.0
 10
47.48934673909537
 20
1.456693000000001
 30
0.0
  0
ARC
  5
12F
330
1F
100
AcDbEntity
  8
DEFAULT
100
AcDbCircle
 10
1.215726000049358
 20
36.51872028140032
 30
0.0
 40
0.0590554617686662
100
AcDbArc
 50
0.0
 51
40.3214756955514
  0
SPLINE
  5
130
330
1F
100
AcDbEntity
  8
DEFAULT
100
AcDbSpline
210
0.0
220
0.0
230
1.0
 70
     8
 71
     3
 72
    11
 73
     7
 74
     0
 42
0.0000000001
 43
0.0000000001
 40
0.0
 40
0.0
 40
0.0
 40
0.0
 40
0.2489561854195
 40
0.4983553878348
 40
0.7485815498319
 40
1.0
 40
1.0
 40
1.0
 40
1.0
 10
46.71669026969539
 20
2.58616831510399
 30
0.0
 10
46.73583712255538
 20
2.581919862759989
 30
0.0
 10
46.77304130951538
 20
2.566992837329991
 30
0.0
 10
46.81858108666538
 20
2.527931543175001
 30
0.0
 10
46.84925512780538
 20
2.476119547018996
 30
0.0
 10
46.85737368674538
 20
2.436563151535992
 30
0.0
 10
46.85810468461537
 20
2.416770141019995
 30
0.0
  0
SPLINE
  5
131
330
1F
100
AcDbEntity
  8
DEFAULT
100
AcDbSpline
210
0.0
220
0.0
230
1.0
 70
    24
 71
     2
 72
     6
 73
     3
 74
     0
 42
0.0000000001
 43
0.0000000001
 40
0.0
 40
0.0
 40
0.0
 40
0.871552923076923
 40
0.871552923076923
 40
0.871552923076923
 10
37.43141373909538
 20
9.973755999999995
 30
0.0
 10
37.43141373909538
 20
7.141208999999996
 30
0.0
 10
37.43141373909538
 20
4.308661999999998
 30
0.0
  0
ARC
  5
132
330
1F
100
AcDbEntity
  8
DEFAULT
100
AcDbCircle
 10
12.42326899999998
 20
1.441068000000001
 30
0.0
 40
0.015625
100
AcDbArc
 50
90.0
 51
180.0
  0
ARC
  5
133
330
1F
100
AcDbEntity
  8
DEFAULT
100
AcDbCircle
 10
10.25337999999999
 20
11.296857
 30
0.0
 40
0.0500000000000007
100
AcDbArc
 50
270.0
 51
0.0
  0
SPLINE
  5
134
330
1F
100
AcDbEntity
  8
DEFAULT
100
AcDbSpline
210
0.0
220
0.0
230
1.0
 70
    24
 71
     2
 72
     6
 73
     3
 74
     0
 42
0.0000000001
 43
0.0000000001
 40
0.0
 40
0.0
 40
0.0
 40
1.0
 40
1.0
 40
1.0
 10
0.6397639999999569
 20
1.574804
 30
0.0
 10
0.6397639999999569
 20
1.515748500000001
 30
0.0
 10
0.6397639999999569
 20
1.456693000000001
 30
0.0
  0
ARC
  5
135
330
1F
100
AcDbEntity
  8
DEFAULT
100
AcDbCircle
 10
0.5026421514208437
 20
1.634804006800664
 30
0.0
 40
0.0599998623429707
100
AcDbArc
 50
182.5715586997547
 51
270.0041525966946
  0
SPLINE
  5
136
330
1F
100
AcDbEntity
  8
DEFAULT
100
AcDbSpline
210
0.0
220
0.0
230
1.0
 70
    24
 71
     2
 72
     6
 73
     3
 74
     0
 42
0.0000000001
 43
0.0000000001
 40
0.0
 40
0.0
 40
0.0
 40
1.0
 40
1.0
 40
1.0
 10
0.5026464999999689
 20
1.574804144615271
 30
0.0
 10
0.9561067499999751
 20
1.574804072307636
 30
0.0
 10
1.409566999999981
 20
1.574804
 30
0.0
  0
SPLINE
  5
137
330
1F
100
AcDbEntity
  8
DEFAULT
100
AcDbSpline
210
0.0
220
0.0
230
1.0
 70
    24
 71
     2
 72
     6
 73
     3
 74
     0
 42
0.0000000001
 43
0.0000000001
 40
0.0
 40
0.0
 40
0.0
 40
1.0
 40
1.0
 40
1.0
 10
19.83571099999998
 20
1.441068000000001
 30
0.0
 10
19.83571099999998
 20
1.360298
 30
0.0
 10
19.83571099999998
 20
1.279527999999999
 30
0.0
  0
SPLINE
  5
138
330
1F
100
AcDbEntity
  8
DEFAULT
100
AcDbSpline
210
0.0
220
0.0
230
1.0
 70
    24
 71
     2
 72
     6
 73
     3
 74
     0
 42
0.0000000001
 43
0.0000000001
 40
0.0
 40
0.0
 40
0.0
 40
1.0
 40
1.0
 40
1.0
 10
19.85133599999998
 20
1.456693000000001
 30
0.0
 10
20.37212849999997
 20
1.456693000000001
 30
0.0
 10
20.89292099999997
 20
1.456693000000001
 30
0.0
  0
SPLINE
  5
139
330
1F
100
AcDbEntity
  8
DEFAULT
100
AcDbSpline
210
0.0
220
0.0
230
1.0
 70
     8
 71
     3
 72
    10
 73
     6
 74
     0
 42
0.0000000001
 43
0.0000000001
 40
0.0
 40
0.0
 40
0.0
 40
0.0
 40
0.3098884097075
 40
0.6612939512471
 40
1.0
 40
1.0
 40
1.0
 40
1.0
 10
39.27654697516539
 20
1.982489443939997
 30
0.0
 10
39.05942170073538
 20
2.056479691899995
 30
0.0
 10
38.59042545702539
 20
2.198341545609992
 30
0.0
 10
37.86655661075537
 20
2.356504488399992
 30
0.0
 10
37.35925375040537
 20
2.422190602779992
 30
0.0
 10
37.10947084632537
 20
2.443498356585991
 30
0.0
  0
SPLINE
  5
13A
330
1F
100
AcDbEntity
  8
DEFAULT
100
AcDbSpline
210
0.0
220
0.0
230
1.0
 70
    24
 71
     2
 72
     6
 73
     3
 74
     0
 42
0.0000000001
 43
0.0000000001
 40
0.0
 40
0.0
 40
0.0
 40
1.0
 40
1.0
 40
1.0
 10
46.68311973909539
 20
1.456693000000001
 30
0.0
 10
47.20391223909539
 20
1.456693000000001
 30
0.0
 10
47.72470473909539
 20
1.456693000000001
 30
0.0
  0
SPLINE
  5
13B
330
1F
100
AcDbEntity
  8
DEFAULT
100
AcDbSpline
210
0.0
220
0.0
230
1.0
 70
    24
 71
     2
 72
     6
 73
     3
 74
     0
 42
0.0000000001
 43
0.0000000001
 40
0.0
 40
0.0
 40
0.0
 40
1.0
 40
1.0
 40
1.0
 10
46.66749473909539
 20
1.441068000000001
 30
0.0
 10
46.66749473909539
 20
1.360298
 30
0.0
 10
46.66749473909539
 20
1.279527999999999
 30
0.0
  0
ARC
  5
13C
330
1F
100
AcDbEntity
  8
DEFAULT
100
AcDbCircle
 10
20.67232699999997
 20
0.5448949999999968
 30
0.0
 40
0.2362201456744931
100
AcDbArc
 50
283.2478113805403
 51
359.9999999999999
  0
SPLINE
  5
13D
330
1F
100
AcDbEntity
  8
DEFAULT
100
AcDbSpline
210
0.0
220
0.0
230
1.0
 70
    24
 71
     2
 72
     6
 73
     3
 74
     0
 42
0.0000000001
 43
0.0000000001
 40
0.0
 40
0.0
 40
0.0
 40
1.0
 40
1.0
 40
1.0
 10
0.5357919999999581
 20
11.74262899999999
 30
0.0
 10
0.5358174999999505
 20
11.7426525
 30
0.0
 10
0.535842999999943
 20
11.742676
 30
0.0
  0
SPLINE
  5
13E
330
1F
100
AcDbEntity
  8
DEFAULT
100
AcDbSpline
210
0.0
220
0.0
230
1.0
 70
    24
 71
     2
 72
     6
 73
     3
 74
     0
 42
0.0000000001
 43
0.0000000001
 40
0.0
 40
0.0
 40
0.0
 40
1.0
 40
1.0
 40
1.0
 10
0.5644049999999652
 20
11.76539799999999
 30
0.0
 10
0.5645194999999603
 20
11.76547899999999
 30
0.0
 10
0.5646339999999554
 20
11.76555999999999
 30
0.0
  0
SPLINE
  5
13F
330
1F
100
AcDbEntity
  8
DEFAULT
100
AcDbSpline
210
0.0
220
0.0
230
1.0
 70
     8
 71
     3
 72
    10
 73
     6
 74
     0
 42
0.0000000001
 43
0.0000000001
 40
0.0
 40
0.0
 40
0.0
 40
0.0
 40
0.3415628690301
 40
0.6759514705783
 40
1.0
 40
1.0
 40
1.0
 40
1.0
 10
9.23194693045997
 20
4.227643913922989
 30
0.0
 10
9.23174990894995
 20
4.238039358083995
 30
0.0
 10
9.236562157009985
 20
4.259064678979996
 30
0.0
 10
9.257525461629996
 20
4.282866337741993
 30
0.0
 10
9.277758350719978
 20
4.289386926784999
 30
0.0
 10
9.287618560669955
 20
4.289666319490991
 30
0.0
  0
SPLINE
  5
140
330
1F
100
AcDbEntity
  8
DEFAULT
100
AcDbSpline
210
0.0
220
0.0
230
1.0
 70
    24
 71
     2
 72
     6
 73
     3
 74
     0
 42
0.0000000001
 43
0.0000000001
 40
0.0
 40
0.0
 40
0.0
 40
1.0
 40
1.0
 40
1.0
 10
-1.225216999950646
 20
36.57777528140032
 30
0.0
 10
-0.3345529999506454
 20
36.57777528140032
 30
0.0
 10
0.5561110000493557
 20
36.57777528140032
 30
0.0
  0
SPLINE
  5
141
330
1F
100
AcDbEntity
  8
DEFAULT
100
AcDbSpline
210
0.0
220
0.0
230
1.0
 70
     8
 71
     3
 72
    10
 73
     6
 74
     0
 42
0.0000000001
 43
0.0000000001
 40
0.0
 40
0.0
 40
0.0
 40
0.0
 40
0.3335870131841
 40
0.8335356046255
 40
1.0
 40
1.0
 40
1.0
 40
1.0
 10
0.416132636040345
 20
49.43140183529032
 30
0.0
 10
0.4101320398733606
 20
49.44154340520032
 30
0.0
 10
0.397506309336336
 20
49.46826770428031
 30
0.0
 10
0.3900936359853517
 20
49.50316158613032
 30
0.0
 10
0.3895139273033408
 20
49.52670924600031
 30
0.0
 10
0.3896396528603532
 20
49.53258586665031
 30
0.0
  0
CIRCLE
  5
142
330
1F
100
AcDbEntity
  8
DEFAULT
100
AcDbCircle
 10
9.617384000049356
 20
43.29016728140031
 30
0.0
 40
8.099999999999998
  0
SPLINE
  5
143
330
1F
100
AcDbEntity
  8
DEFAULT
100
AcDbSpline
210
0.0
220
0.0
230
1.0
 70
     8
 71
     3
 72
     9
 73
     5
 74
     0
 42
0.0000000001
 43
0.0000000001
 40
0.0
 40
0.0
 40
0.0
 40
0.0
 40
0.3275075815359
 40
1.0
 40
1.0
 40
1.0
 40
1.0
 10
12.61469997551936
 20
32.64151425529032
 30
0.0
 10
12.61081017584934
 20
32.64592836250031
 30
0.0
 10
12.59955672855935
 20
32.65996194190031
 30
0.0
 10
12.59036995901934
 20
32.67553543485032
 30
0.0
 10
12.58525404707936
 20
32.68647361169032
 30
0.0
  0
ARC
  5
144
330
1F
100
AcDbEntity
  8
DEFAULT
100
AcDbCircle
 10
12.93931600004936
 20
33.06631028140031
 30
0.0
 40
0.5364179440413006
100
AcDbArc
 50
243.7810279463982
 51
332.2933208849746
  0
ARC
  5
145
330
1F
100
AcDbEntity
  8
DEFAULT
100
AcDbCircle
 10
18.39888000004936
 20
44.03820828140032
 30
0.0
 40
0.2362210042417928
100
AcDbArc
 50
94.66042986320495
 51
180.0
  0
SPLINE
  5
146
330
1F
100
AcDbEntity
  8
DEFAULT
100
AcDbSpline
210
0.0
220
0.0
230
1.0
 70
    24
 71
     2
 72
     6
 73
     3
 74
     0
 42
0.0000000001
 43
0.0000000001
 40
0.0
 40
0.0
 40
0.0
 40
1.0
 40
1.0
 40
1.0
 10
35.64891373909538
 20
0.2237559999999945
 30
0.0
 10
35.64891373909538
 20
-0.3362440000000078
 30
0.0
 10
35.64891373909538
 20
-0.89624400000001
 30
0.0
  0
SPLINE
  5
147
330
1F
100
AcDbEntity
  8
DEFAULT
100
AcDbSpline
210
0.0
220
0.0
230
1.0
 70
    24
 71
     2
 72
     6
 73
     3
 74
     0
 42
0.0000000001
 43
0.0000000001
 40
0.0
 40
0.0
 40
0.0
 40
0.871574244661123
 40
0.871574244661123
 40
0.871574244661123
 10
35.46641373909537
 20
9.973755999999995
 30
0.0
 10
35.46641373909537
 20
7.141139704851348
 30
0.0
 10
35.46641373909537
 20
4.308523409702701
 30
0.0
  0
SPLINE
  5
148
330
1F
100
AcDbEntity
  8
DEFAULT
100
AcDbSpline
210
0.0
220
0.0
230
1.0
 70
     8
 71
     3
 72
     8
 73
     4
 74
     0
 42
0.0000000001
 43
0.0000000001
 40
0.0
 40
0.0
 40
0.0
 40
0.0
 40
1.0
 40
1.0
 40
1.0
 40
1.0
 10
11.87121577335998
 20
3.861587137371998
 30
0.0
 10
14.56744358627165
 20
3.621108403511144
 30
0.0
 10
17.24211037478099
 20
3.167885469616422
 30
0.0
 10
19.88490646845997
 20
2.586168322741003
 30
0.0
  0
SPLINE
  5
149
330
1F
100
AcDbEntity
  8
DEFAULT
100
AcDbSpline
210
0.0
220
0.0
230
1.0
 70
     8
 71
     3
 72
     8
 73
     4
 74
     0
 42
0.0000000001
 43
0.0000000001
 40
0.0
 40
0.0
 40
0.0
 40
0.0
 40
1.0
 40
1.0
 40
1.0
 40
1.0
 10
13.43114399999996
 20
2.785667000000004
 30
0.0
 10
12.63272420295442
 20
3.439487860998085
 30
0.0
 10
11.75301045582324
 20
4.066708017702254
 30
0.0
 10
10.729535
 20
4.289094999999989
 30
0.0
  0
SPLINE
  5
14A
330
1F
100
AcDbEntity
  8
DEFAULT
100
AcDbSpline
210
0.0
220
0.0
230
1.0
 70
     8
 71
     3
 72
     9
 73
     5
 74
     0
 42
0.0000000001
 43
0.0000000001
 40
0.0
 40
0.0
 40
0.0
 40
0.0
 40
1.0
 40
2.0
 40
2.0
 40
2.0
 40
2.0
 10
2.068059211219975
 20
11.812429796876
 30
0.0
 10
2.096113972591468
 20
11.86529434293332
 30
0.0
 10
2.090022322215674
 20
11.98839642522287
 30
0.0
 10
2.092688484820599
 20
12.11434264395756
 30
0.0
 10
2.055497543579975
 20
12.16221447529099
 30
0.0
  0
SPLINE
  5
14B
330
1F
100
AcDbEntity
  8
DEFAULT
100
AcDbSpline
210
0.0
220
0.0
230
1.0
 70
     8
 71
     3
 72
    24
 73
    20
 74
     0
 42
0.0000000001
 43
0.0000000001
 40
-17.0
 40
-17.0
 40
-17.0
 40
-17.0
 40
-16.0
 40
-15.0
 40
-14.0
 40
-13.0
 40
-12.0
 40
-11.0
 40
-10.0
 40
-9.0
 40
-8.0
 40
-7.0
 40
-6.0
 40
-5.0
 40
-4.0
 40
-3.0
 40
-2.0
 40
-1.0
 40
0.0
 40
0.0
 40
0.0
 40
0.0
 10
4.765295999999978
 20
12.39838
 30
0.0
 10
4.695138991638601
 20
12.39613296118806
 30
0.0
 10
4.554891171976465
 20
12.38973497266487
 30
0.0
 10
4.344741863508148
 20
12.3762312033186
 30
0.0
 10
4.134711312564377
 20
12.36106786761907
 30
0.0
 10
3.924669714219988
 20
12.34605391893771
 30
0.0
 10
3.714599944330956
 20
12.33144016221839
 30
0.0
 10
3.504481683637664
 20
12.31754101726749
 30
0.0
 10
3.294351242644382
 20
12.30381295489951
 30
0.0
 10
3.084318008482853
 20
12.28868595008706
 30
0.0
 10
2.874275436667915
 20
12.2736813654752
 30
0.0
 10
2.664205002975393
 20
12.25909346707601
 30
0.0
 10
2.454178927788064
 20
12.24379640942306
 30
0.0
 10
2.244509852351825
 20
12.22414421344999
 30
0.0
 10
2.035271680406595
 20
12.20029812747397
 30
0.0
 10
1.826838146393072
 20
12.17010584765877
 30
0.0
 10
1.619794547463528
 20
12.13139056261456
 30
0.0
 10
1.414770346701118
 20
12.08311529739045
 30
0.0
 10
1.236468814295392
 20
12.03239551659377
 30
0.0
 10
1.169050999999968
 20
12.01286
 30
0.0
  0
SPLINE
  5
14C
330
1F
100
AcDbEntity
  8
DEFAULT
100
AcDbSpline
210
0.0
220
0.0
230
1.0
 70
    12
 71
     3
 72
    27
 73
    23
 74
     0
 42
0.0000000001
 43
0.0000000001
 40
-17.0
 40
-17.0
 40
-17.0
 40
-17.0
 40
-16.0
 40
-15.0
 40
-14.0
 40
-13.0
 40
-12.0
 40
-11.0
 40
-10.0
 40
-9.0
 40
-8.0
 40
-7.0
 40
-6.0
 40
-5.0
 40
-4.0
 40
-3.0
 40
-2.0
 40
-1.0
 40
0.0
 40
0.0
 40
0.0
 40
0.1655289182882165
 40
0.1655289182882165
 40
0.1655289182882165
 40
0.1655289182882165
 10
1.169050999999968
 20
12.01286
 30
0.0
 41
1.0
 10
1.129583216970445
 20
12.00142350449283
 30
0.0
 41
1.0
 10
1.007424314148523
 20
11.96608738164677
 30
0.0
 41
1.0
 10
0.8908136844753471
 20
11.92601779560685
 30
0.0
 41
1.0
 10
0.7762389688200528
 20
11.88034907989764
 30
0.0
 41
1.0
 10
0.6653739181137155
 20
11.82620579609434
 30
0.0
 41
1.0
 10
0.5569428392633426
 20
11.76800350588358
 30
0.0
 41
1.0
 10
0.4671842021480188
 20
11.67551388263949
 30
0.0
 41
1.0
 10
0.4804555519712039
 20
11.53404302192665
 30
0.0
 41
1.0
 10
0.6097189172604658
 20
11.48957980581052
 30
0.0
 41
1.0
 10
0.7312741772789195
 20
11.50827656882865
 30
0.0
 41
1.0
 10
0.8500497238277376
 20
11.54225566672298
 30
0.0
 41
1.0
 10
0.9676100567866683
 20
11.5791537562897
 30
0.0
 41
1.0
 10
1.08490204129447
 20
11.61717366849732
 30
0.0
 41
1.0
 10
1.203252268541519
 20
11.65174012445982
 30
0.0
 41
1.0
 10
1.321784335348809
 20
11.68533346498602
 30
0.0
 41
1.0
 10
1.440484216126322
 20
11.71969513440064
 30
0.0
 41
1.0
 10
1.55850196786912
 20
11.75135331498312
 30
0.0
 41
1.0
 10
1.641764094651251
 20
11.76850088196932
 30
0.0
 41
1.0
 10
1.677219999999977
 20
11.774512
 30
0.0
 41
1.0
 10
1.731634043270533
 20
11.78373724001035
 30
0.0
 41
0.9994851325376918
 10
1.786368557624382
 20
11.79081721859429
 30
0.0
 41
0.9994851325376918
 10
1.841338999999948
 20
11.79574099999999
 30
0.0
 41
1.0
  0
SPLINE
  5
14D
330
1F
100
AcDbEntity
  8
DEFAULT
100
AcDbSpline
210
0.0
220
0.0
230
1.0
 70
     8
 71
     3
 72
    19
 73
    15
 74
     0
 42
0.0000000001
 43
0.0000000001
 40
-12.0
 40
-12.0
 40
-12.0
 40
-12.0
 40
-11.0
 40
-10.0
 40
-9.0
 40
-8.0
 40
-7.0
 40
-6.0
 40
-5.0
 40
-4.0
 40
-3.0
 40
-2.0
 40
-1.0
 40
0.0
 40
0.0
 40
0.0
 40
0.0
 10
1.841338999999948
 20
11.79574099999999
 30
0.0
 10
1.923377275489599
 20
11.79818920597059
 30
0.0
 10
2.087449000958316
 20
11.80320061630016
 30
0.0
 10
2.333583026043442
 20
11.80998265752197
 30
0.0
 10
2.579717831255323
 20
11.81615148107376
 30
0.0
 10
2.825874973934049
 20
11.82355408814122
 30
0.0
 10
3.072052071669646
 20
11.82220982401742
 30
0.0
 10
3.317151488649529
 20
11.7959248455748
 30
0.0
 10
3.56325364452897
 20
11.78530604967213
 30
0.0
 10
3.809522978144798
 20
11.79000744380967
 30
0.0
 10
4.055314154069777
 20
11.80483666963673
 30
0.0
 10
4.300993642676644
 20
11.82134089008264
 30
0.0
 10
4.547041707532685
 20
11.8310360195034
 30
0.0
 10
4.711113527406667
 20
11.83599825821597
 30
0.0
 10
4.793141999999989
 20
11.838764
 30
0.0
  0
SPLINE
  5
14E
330
1F
100
AcDbEntity
  8
DEFAULT
100
AcDbSpline
210
0.0
220
0.0
230
1.0
 70
    24
 71
     2
 72
     6
 73
     3
 74
     0
 42
0.0000000001
 43
0.0000000001
 40
0.0
 40
0.0
 40
0.0
 40
1.0
 40
1.0
 40
1.0
 10
4.83164499999998
 20
11.88083
 30
0.0
 10
4.819075999999967
 20
12.120661
 30
0.0
 10
4.806506999999954
 20
12.36049199999999
 30
0.0
  0
ARC
  5
14F
330
1F
100
AcDbEntity
  8
DEFAULT
100
AcDbCircle
 10
19.44693199999998
 20
0.0
 30
0.0
 40
1.279527939310224
100
AcDbArc
 50
15.7620695672927
 51
18.57560333516714
  0
SPLINE
  5
150
330
1F
100
AcDbEntity
  8
DEFAULT
100
AcDbSpline
210
0.0
220
0.0
230
1.0
 70
     8
 71
     3
 72
     9
 73
     5
 74
     0
 42
0.0000000001
 43
0.0000000001
 40
0.0
 40
0.0
 40
0.0
 40
0.0
 40
1.0
 40
2.0
 40
2.0
 40
2.0
 40
2.0
 10
13.39700820885997
 20
2.798339705936996
 30
0.0
 10
13.40857031175733
 20
2.789806686439277
 30
0.0
 10
13.38662530565134
 20
2.774210389125884
 30
0.0
 10
13.36892557748973
 20
2.77293623354646
 30
0.0
 10
13.35878037292997
 20
2.772304271371993
 30
0.0
  0
SPLINE
  5
151
330
1F
100
AcDbEntity
  8
DEFAULT
100
AcDbSpline
210
0.0
220
0.0
230
1.0
 70
     8
 71
     3
 72
     9
 73
     5
 74
     0
 42
0.0000000001
 43
0.0000000001
 40
0.0
 40
0.0
 40
0.0
 40
0.0
 40
1.0
 40
2.0
 40
2.0
 40
2.0
 40
2.0
 10
13.35878037292997
 20
2.772304271371993
 30
0.0
 10
13.23887326140905
 20
2.764835051950755
 30
0.0
 10
13.00057801483035
 20
2.771281816186629
 30
0.0
 10
12.7574572475429
 20
2.757915190050738
 30
0.0
 10
12.64382049399995
 20
2.798339706023
 30
0.0
  0
SPLINE
  5
152
330
1F
100
AcDbEntity
  8
DEFAULT
100
AcDbSpline
210
0.0
220
0.0
230
1.0
 70
     8
 71
     3
 72
    11
 73
     7
 74
     0
 42
0.0000000001
 43
0.0000000001
 40
0.0
 40
0.0
 40
0.0
 40
0.0
 40
1.0
 40
2.0
 40
3.0
 40
4.0
 40
4.0
 40
4.0
 40
4.0
 10
12.64382049399995
 20
2.798339706023
 30
0.0
 10
12.38823034935137
 20
2.970974997370789
 30
0.0
 10
11.8653039697549
 20
3.299194294987373
 30
0.0
 10
11.04418180449318
 20
3.727251635542771
 30
0.0
 10
10.19125797117084
 20
4.088726584775003
 30
0.0
 10
9.59511797137219
 20
4.256366617407082
 30
0.0
 10
9.287618546019985
 20
4.289667635103001
 30
0.0
  0
ARC
  5
153
330
1F
100
AcDbEntity
  8
DEFAULT
100
AcDbCircle
 10
20.71298299999995
 20
1.634804000000003
 30
0.0
 40
0.0600002755487352
100
AcDbArc
 50
270.0
 51
357.9999895230753
  0
SPLINE
  5
154
330
1F
100
AcDbEntity
  8
DEFAULT
100
AcDbSpline
210
0.0
220
0.0
230
1.0
 70
    24
 71
     2
 72
     6
 73
     3
 74
     0
 42
0.0000000001
 43
0.0000000001
 40
0.0
 40
0.0
 40
0.0
 40
1.0
 40
1.0
 40
1.0
 10
28.66765673909538
 20
13.389357
 30
0.0
 10
36.44891323909538
 20
13.389357
 30
0.0
 10
44.23016973909537
 20
13.389357
 30
0.0
  0
SPLINE
  5
155
330
1F
100
AcDbEntity
  8
DEFAULT
100
AcDbSpline
210
0.0
220
0.0
230
1.0
 70
    24
 71
     2
 72
     6
 73
     3
 74
     0
 42
0.0000000001
 43
0.0000000001
 40
0.0
 40
0.0
 40
0.0
 40
1.0
 40
1.0
 40
1.0
 10
19.97388699999996
 20
1.279527999999999
 30
0.0
 10
19.97388699999996
 20
1.222747499999997
 30
0.0
 10
19.97388699999996
 20
1.165966999999995
 30
0.0
  0
ARC
  5
156
330
1F
100
AcDbEntity
  8
DEFAULT
100
AcDbCircle
 10
1.225394999999992
 20
0.5448949999999968
 30
0.0
 40
0.2362201456744931
100
AcDbArc
 50
283.2478113805402
 51
359.9999999999999
  0
ARC
  5
157
330
1F
100
AcDbEntity
  8
DEFAULT
100
AcDbCircle
 10
1.445988999999997
 20
1.441068000000001
 30
0.0
 40
0.015625
100
AcDbArc
 50
0.0
 51
90.0
  0
SPLINE
  5
158
330
1F
100
AcDbEntity
  8
DEFAULT
100
AcDbSpline
210
0.0
220
0.0
230
1.0
 70
     8
 71
     3
 72
    10
 73
     6
 74
     0
 42
0.0000000001
 43
0.0000000001
 40
0.0
 40
0.0
 40
0.0
 40
0.0
 40
0.4051007004553
 40
0.7475947607501
 40
1.0
 40
1.0
 40
1.0
 40
1.0
 10
9.097167364199976
 20
4.227643939370992
 30
0.0
 10
9.097023208359985
 20
4.237904861774993
 30
0.0
 10
9.09397247858999
 20
4.25689137114999
 30
0.0
 10
9.083018186679965
 20
4.280221349089999
 30
0.0
 10
9.068921250619951
 20
4.289363065583998
 30
0.0
 10
9.062534626529953
 20
4.289667634490996
 30
0.0
  0
SPLINE
  5
159
330
1F
100
AcDbEntity
  8
DEFAULT
100
AcDbSpline
210
0.0
220
0.0
230
1.0
 70
     8
 71
     3
 72
     9
 73
     5
 74
     0
 42
0.0000000001
 43
0.0000000001
 40
0.0
 40
0.0
 40
0.0
 40
0.0
 40
1.0
 40
2.0
 40
2.0
 40
2.0
 40
2.0
 10
1.93693751723697
 20
1.948920408199996
 30
0.0
 10
2.9273617585647
 20
2.081840037062804
 30
0.0
 10
4.914925592350869
 20
2.297689413371472
 30
0.0
 10
6.910882072024208
 20
2.412459896694187
 30
0.0
 10
7.909675637059991
 20
2.444418629514999
 30
0.0
  0
SPLINE
  5
15A
330
1F
100
AcDbEntity
  8
DEFAULT
100
AcDbSpline
210
0.0
220
0.0
230
1.0
 70
    24
 71
     2
 72
     6
 73
     3
 74
     0
 42
0.0000000001
 43
0.0000000001
 40
0.0
 40
0.0
 40
0.0
 40
1.0
 40
1.0
 40
1.0
 10
10.16712999999999
 20
11.24685699999999
 30
0.0
 10
10.16712999999999
 20
10.61030649999999
 30
0.0
 10
10.16712999999999
 20
9.973755999999995
 30
0.0
  0
ARC
  5
15B
330
1F
100
AcDbEntity
  8
DEFAULT
100
AcDbCircle
 10
19.78127199999997
 20
1.644803999999993
 30
0.0
 40
0.0700001724710036
100
AcDbArc
 50
212.971779499647
 51
270.0
  0
SPLINE
  5
15C
330
1F
100
AcDbEntity
  8
DEFAULT
100
AcDbSpline
210
0.0
220
0.0
230
1.0
 70
     8
 71
     3
 72
    10
 73
     6
 74
     0
 42
0.0000000001
 43
0.0000000001
 40
0.0
 40
0.0
 40
0.0
 40
0.0
 40
0.3334081987195
 40
0.6667405702355
 40
1.0
 40
1.0
 40
1.0
 40
1.0
 10
20.05465896712997
 20
1.632709662339991
 30
0.0
 10
20.05501222313995
 20
1.622588450259997
 30
0.0
 10
20.06109582411997
 20
1.60216301138
 30
0.0
 10
20.08384742639996
 20
1.580177131319999
 30
0.0
 10
20.10446826097996
 20
1.574803632149994
 30
0.0
 10
20.11459111704997
 20
1.574803632149994
 30
0.0
  0
SPLINE
  5
15D
330
1F
100
AcDbEntity
  8
DEFAULT
100
AcDbSpline
210
0.0
220
0.0
230
1.0
 70
    24
 71
     2
 72
     6
 73
     3
 74
     0
 42
0.0000000001
 43
0.0000000001
 40
0.0
 40
0.0
 40
0.0
 40
1.0
 40
1.0
 40
1.0
 10
0.4868619999999737
 20
2.797449
 30
0.0
 10
0.4868644999999674
 20
2.797449999999998
 30
0.0
 10
0.4868669999999611
 20
2.797450999999995
 30
0.0
  0
SPLINE
  5
15E
330
1F
100
AcDbEntity
  8
DEFAULT
100
AcDbSpline
210
0.0
220
0.0
230
1.0
 70
    24
 71
     2
 72
     6
 73
     3
 74
     0
 42
0.0000000001
 43
0.0000000001
 40
0.0
 40
0.0
 40
0.0
 40
1.0
 40
1.0
 40
1.0
 10
13.29364700004936
 20
32.61355428140031
 30
0.0
 10
13.29364700004936
 20
32.46591178140032
 30
0.0
 10
13.29364700004936
 20
32.31826928140032
 30
0.0
  0
SPLINE
  5
15F
330
1F
100
AcDbEntity
  8
DEFAULT
100
AcDbSpline
210
0.0
220
0.0
230
1.0
 70
    24
 71
     2
 72
     6
 73
     3
 74
     0
 42
0.0000000001
 43
0.0000000001
 40
0.0
 40
0.0
 40
0.0
 40
1.0
 40
1.0
 40
1.0
 10
4.810741999999948
 20
12.27967799999999
 30
0.0
 10
5.017958004243866
 20
12.29053791902292
 30
0.0
 10
5.225174008487784
 20
12.30139783804584
 30
0.0
  0
ARC
  5
160
330
1F
100
AcDbEntity
  8
DEFAULT
100
AcDbCircle
 10
5.181211595934087
 20
13.14024619363096
 30
0.0
 40
0.8399995579673843
100
AcDbArc
 50
273.0000158765879
 51
302.9999810560531
  0
SPLINE
  5
161
330
1F
100
AcDbEntity
  8
DEFAULT
100
AcDbSpline
210
0.0
220
0.0
230
1.0
 70
    24
 71
     2
 72
     6
 73
     3
 74
     0
 42
0.0000000001
 43
0.0000000001
 40
0.0
 40
0.0
 40
0.0
 40
1.0
 40
1.0
 40
1.0
 10
5.638707911672327
 20
12.43576313601255
 30
0.0
 10
5.87812595583614
 20
12.59124306800628
 30
0.0
 10
6.117543999999953
 20
12.746723
 30
0.0
  0
ARC
  5
162
330
1F
100
AcDbEntity
  8
DEFAULT
100
AcDbCircle
 10
38.85064873909539
 20
0.0
 30
0.0
 40
1.279527939310224
100
AcDbArc
 50
15.76206956729274
 51
18.5756033351671
  0
SPLINE
  5
163
330
1F
100
AcDbEntity
  8
DEFAULT
100
AcDbSpline
210
0.0
220
0.0
230
1.0
 70
    24
 71
     2
 72
     6
 73
     3
 74
     0
 42
0.0000000001
 43
0.0000000001
 40
0.0
 40
0.0
 40
0.0
 40
1.0
 40
1.0
 40
1.0
 10
12.54581999999999
 20
1.279527999999999
 30
0.0
 10
12.54581999999999
 20
1.222747499999997
 30
0.0
 10
12.54581999999999
 20
1.165966999999995
 30
0.0
  0
SPLINE
  5
164
330
1F
100
AcDbEntity
  8
DEFAULT
100
AcDbSpline
210
0.0
220
0.0
230
1.0
 70
    24
 71
     2
 72
     6
 73
     3
 74
     0
 42
0.0000000001
 43
0.0000000001
 40
0.0
 40
0.0
 40
0.0
 40
1.0
 40
1.0
 40
1.0
 10
12.54581999999999
 20
1.279527999999999
 30
0.0
 10
12.28234249999998
 20
1.279527999999999
 30
0.0
 10
12.01886499999998
 20
1.279527999999999
 30
0.0
  0
SPLINE
  5
165
330
1F
100
AcDbEntity
  8
DEFAULT
100
AcDbSpline
210
0.0
220
0.0
230
1.0
 70
    24
 71
     2
 72
     6
 73
     3
 74
     0
 42
0.0000000001
 43
0.0000000001
 40
0.0
 40
0.0
 40
0.0
 40
1.0
 40
1.0
 40
1.0
 10
13.25902199999996
 20
0.3149609999999967
 30
0.0
 10
13.27870749999997
 20
0.3149609999999967
 30
0.0
 10
13.29839299999998
 20
0.3149609999999967
 30
0.0
  0
SPLINE
  5
166
330
1F
100
AcDbEntity
  8
DEFAULT
100
AcDbSpline
210
0.0
220
0.0
230
1.0
 70
    24
 71
     2
 72
     6
 73
     3
 74
     0
 42
0.0000000001
 43
0.0000000001
 40
0.0
 40
0.0
 40
0.0
 40
1.0
 40
1.0
 40
1.0
 10
13.29839299999998
 20
0.3149609999999967
 30
0.0
 10
13.29839299999998
 20
0.1574804999999984
 30
0.0
 10
13.29839299999998
 20
0.0
 30
0.0
  0
SPLINE
  5
167
330
1F
100
AcDbEntity
  8
DEFAULT
100
AcDbSpline
210
0.0
220
0.0
230
1.0
 70
    24
 71
     2
 72
     6
 73
     3
 74
     0
 42
0.0000000001
 43
0.0000000001
 40
0.0
 40
0.0
 40
0.0
 40
1.0
 40
1.0
 40
1.0
 10
19.72239399999995
 20
1.606985999999992
 30
0.0
 10
19.72247049999996
 20
1.606846999999995
 30
0.0
 10
19.72254699999996
 20
1.606707999999998
 30
0.0
  0
CIRCLE
  5
168
330
1F
100
AcDbEntity
  8
DEFAULT
100
AcDbCircle
 10
12.01886499999998
 20
0.0
 30
0.0
 40
1.279528000000001
  0
ARC
  5
169
330
1F
100
AcDbEntity
  8
DEFAULT
100
AcDbCircle
 10
10.97081200004936
 20
33.81435028140031
 30
0.0
 40
0.2362205042417886
100
AcDbArc
 50
94.66042986320434
 51
180.0
  0
SPLINE
  5
16A
330
1F
100
AcDbEntity
  8
DEFAULT
100
AcDbSpline
210
0.0
220
0.0
230
1.0
 70
    24
 71
     2
 72
     6
 73
     3
 74
     0
 42
0.0000000001
 43
0.0000000001
 40
0.0
 40
0.0
 40
0.0
 40
1.0
 40
1.0
 40
1.0
 10
19.97388699999996
 20
1.279527999999999
 30
0.0
 10
19.71040949999997
 20
1.279527999999999
 30
0.0
 10
19.44693199999998
 20
1.279527999999999
 30
0.0
  0
SPLINE
  5
16B
330
1F
100
AcDbEntity
  8
DEFAULT
100
AcDbSpline
210
0.0
220
0.0
230
1.0
 70
     8
 71
     3
 72
     8
 73
     4
 74
     0
 42
0.0000000001
 43
0.0000000001
 40
0.0
 40
0.0
 40
0.0
 40
0.0
 40
1.0
 40
1.0
 40
1.0
 40
1.0
 10
20.80801299999996
 20
2.706040000000002
 30
0.0
 10
17.59354293212985
 20
3.419708669241643
 30
0.0
 10
14.33962843354053
 20
4.018147864471345
 30
0.0
 10
11.04844575969997
 20
4.219504144308999
 30
0.0
  0
SPLINE
  5
16C
330
1F
100
AcDbEntity
  8
DEFAULT
100
AcDbSpline
210
0.0
220
0.0
230
1.0
 70
    24
 71
     2
 72
     6
 73
     3
 74
     0
 42
0.0000000001
 43
0.0000000001
 40
0.0
 40
0.0
 40
0.0
 40
1.0
 40
1.0
 40
1.0
 10
9.101020999999974
 20
4.007722000000001
 30
0.0
 10
9.099089999999975
 20
4.117682500000001
 30
0.0
 10
9.097158999999976
 20
4.227643
 30
0.0
  0
SPLINE
  5
16D
330
1F
100
AcDbEntity
  8
DEFAULT
100
AcDbSpline
210
0.0
220
0.0
230
1.0
 70
    24
 71
     2
 72
     6
 73
     3
 74
     0
 42
0.0000000001
 43
0.0000000001
 40
0.0
 40
0.0
 40
0.0
 40
1.0
 40
1.0
 40
1.0
 10
9.235801999999978
 20
4.007722000000001
 30
0.0
 10
9.233874499999985
 20
4.117683
 30
0.0
 10
9.231946999999991
 20
4.227643999999998
 30
0.0
  0
SPLINE
  5
16E
330
1F
100
AcDbEntity
  8
DEFAULT
100
AcDbSpline
210
0.0
220
0.0
230
1.0
 70
     8
 71
     3
 72
     8
 73
     4
 74
     0
 42
0.0000000001
 43
0.0000000001
 40
0.0
 40
0.0
 40
0.0
 40
0.0
 40
1.0
 40
1.0
 40
1.0
 40
1.0
 10
12.65866368680997
 20
1.575258484239995
 30
0.0
 10
12.66092970493997
 20
1.574957836099998
 30
0.0
 10
12.66320671206998
 20
1.574803805160002
 30
0.0
 10
12.66547361376996
 20
1.574803632299989
 30
0.0
  0
SPLINE
  5
16F
330
1F
100
AcDbEntity
  8
DEFAULT
100
AcDbSpline
210
0.0
220
0.0
230
1.0
 70
     8
 71
     3
 72
    11
 73
     7
 74
     0
 42
0.0000000001
 43
0.0000000001
 40
0.0
 40
0.0
 40
0.0
 40
0.0
 40
0.2489561854195
 40
0.4983553878348
 40
0.7485815498319
 40
1.0
 40
1.0
 40
1.0
 40
1.0
 10
19.88490653059998
 20
2.58616831510399
 30
0.0
 10
19.90405338345997
 20
2.581919862759989
 30
0.0
 10
19.94125757041996
 20
2.566992837329991
 30
0.0
 10
19.98679734756996
 20
2.527931543175001
 30
0.0
 10
20.01747138870996
 20
2.476119547018996
 30
0.0
 10
20.02558994764996
 20
2.436563151535992
 30
0.0
 10
20.02632094551996
 20
2.416770141019995
 30
0.0
  0
CIRCLE
  5
170
330
1F
100
AcDbEntity
  8
DEFAULT
100
AcDbCircle
 10
19.44693199999998
 20
0.0
 30
0.0
 40
1.0625
  0
SPLINE
  5
171
330
1F
100
AcDbEntity
  8
DEFAULT
100
AcDbSpline
210
0.0
220
0.0
230
1.0
 70
    24
 71
     2
 72
     6
 73
     3
 74
     0
 42
0.0000000001
 43
0.0000000001
 40
0.0
 40
0.0
 40
0.0
 40
1.0
 40
1.0
 40
1.0
 10
10.95161900004936
 20
34.04979028140032
 30
0.0
 10
11.51859000004936
 20
34.04979028140032
 30
0.0
 10
12.08556100004935
 20
34.04979028140032
 30
0.0
  0
SPLINE
  5
172
330
1F
100
AcDbEntity
  8
DEFAULT
100
AcDbSpline
210
0.0
220
0.0
230
1.0
 70
     8
 71
     3
 72
    10
 73
     6
 74
     0
 42
0.0000000001
 43
0.0000000001
 40
0.0
 40
0.0
 40
0.0
 40
0.0
 40
0.1429075397063
 40
0.5715247627706
 40
1.0
 40
1.0
 40
1.0
 40
1.0
 10
0.8807333420003545
 20
50.14758930903032
 30
0.0
 10
0.8866119442123477
 20
50.14793387656032
 30
0.0
 10
0.9101840055353421
 20
50.14822662828031
 30
0.0
 10
0.951143992313348
 20
50.14105823502031
 30
0.0
 10
0.9832842634273504
 20
50.12539886881031
 30
0.0
 10
0.9978667774843473
 20
50.1155471720203
 30
0.0
  0
SPLINE
  5
173
330
1F
100
AcDbEntity
  8
DEFAULT
100
AcDbSpline
210
0.0
220
0.0
230
1.0
 70
    24
 71
     2
 72
     6
 73
     3
 74
     0
 42
0.0000000001
 43
0.0000000001
 40
0.0
 40
0.0
 40
0.0
 40
1.0
 40
1.0
 40
1.0
 10
0.5222090000493438
 20
49.9682292814003
 30
0.0
 10
-0.3810324999506491
 20
49.9682292814003
 30
0.0
 10
-1.284273999950642
 20
49.9682292814003
 30
0.0
  0
ARC
  5
174
330
1F
100
AcDbEntity
  8
DEFAULT
100
AcDbCircle
 10
0.9204510000493542
 20
36.97147628140031
 30
0.0
 40
0.5364172172617838
100
AcDbArc
 50
97.96885089089
 51
161.6593900687278
  0
SPLINE
  5
175
330
1F
100
AcDbEntity
  8
DEFAULT
100
AcDbSpline
210
0.0
220
0.0
230
1.0
 70
    24
 71
     2
 72
     6
 73
     3
 74
     0
 42
0.0000000001
 43
0.0000000001
 40
0.0
 40
0.0
 40
0.0
 40
1.0
 40
1.0
 40
1.0
 10
10.73459200004936
 20
32.61355428140031
 30
0.0
 10
10.73459200004936
 20
32.46591178140032
 30
0.0
 10
10.73459200004936
 20
32.31826928140032
 30
0.0
  0
ARC
  5
176
330
1F
100
AcDbEntity
  8
DEFAULT
100
AcDbCircle
 10
-1.225217999950644
 20
49.15610328140032
 30
0.0
 40
0.0590555000000004
100
AcDbArc
 50
90.0
 51
180.0
  0
SPLINE
  5
177
330
1F
100
AcDbEntity
  8
DEFAULT
100
AcDbSpline
210
0.0
220
0.0
230
1.0
 70
    24
 71
     2
 72
     6
 73
     3
 74
     0
 42
0.0000000001
 43
0.0000000001
 40
0.0
 40
0.0
 40
0.0
 40
1.0
 40
1.0
 40
1.0
 10
13.29364700004936
 20
33.81435028140031
 30
0.0
 10
13.29364700004936
 20
33.66670778140031
 30
0.0
 10
13.29364700004936
 20
33.51906528140032
 30
0.0
  0
SPLINE
  5
178
330
1F
100
AcDbEntity
  8
DEFAULT
100
AcDbSpline
210
0.0
220
0.0
230
1.0
 70
    24
 71
     2
 72
     6
 73
     3
 74
     0
 42
0.0000000001
 43
0.0000000001
 40
0.0
 40
0.0
 40
0.0
 40
1.0
 40
1.0
 40
1.0
 10
0.5561110000493557
 20
37.36517628140031
 30
0.0
 10
-0.3345529999506454
 20
37.36517628140031
 30
0.0
 10
-1.225216999950646
 20
37.36517628140031
 30
0.0
  0
ARC
  5
179
330
1F
100
AcDbEntity
  8
DEFAULT
100
AcDbCircle
 10
1.038561000049356
 20
48.86081828140031
 30
0.0
 40
0.2362208002419728
100
AcDbArc
 50
274.6604298632045
 51
334.6269312573353
  0
ARC
  5
17A
330
1F
100
AcDbEntity
  8
DEFAULT
100
AcDbCircle
 10
13.23459200004936
 20
33.51906528140032
 30
0.0
 40
0.0590549402928861
100
AcDbArc
 50
356.8209233279792
 51
0.0
  0
SPLINE
  5
17B
330
1F
100
AcDbEntity
  8
DEFAULT
100
AcDbSpline
210
0.0
220
0.0
230
1.0
 70
    24
 71
     2
 72
     6
 73
     3
 74
     0
 42
0.0000000001
 43
0.0000000001
 40
0.0
 40
0.0
 40
0.0
 40
1.0
 40
1.0
 40
1.0
 10
18.16265900004936
 20
42.79257528140032
 30
0.0
 10
18.16265900004936
 20
42.66735078140032
 30
0.0
 10
18.16265900004936
 20
42.54212628140031
 30
0.0
  0
SPLINE
  5
17C
330
1F
100
AcDbEntity
  8
DEFAULT
100
AcDbSpline
210
0.0
220
0.0
230
1.0
 70
     8
 71
     3
 72
    10
 73
     6
 74
     0
 42
0.0000000001
 43
0.0000000001
 40
0.0
 40
0.0
 40
0.0
 40
0.0
 40
0.3333963920218
 40
0.6666152796276
 40
1.0
 40
1.0
 40
1.0
 40
1.0
 10
0.7553739703403437
 20
36.48972176138031
 30
0.0
 10
0.7096890499723543
 20
36.53633526103032
 30
0.0
 10
0.6228458091313485
 20
36.63408181247031
 30
0.0
 10
0.5076100060053363
 20
36.79268993652032
 30
0.0
 10
0.4414838834953514
 20
36.90548564178032
 30
0.0
 10
0.4112700659833592
 20
36.96333680658032
 30
0.0
  0
SPLINE
  5
17D
330
1F
100
AcDbEntity
  8
DEFAULT
100
AcDbSpline
210
0.0
220
0.0
230
1.0
 70
    24
 71
     2
 72
     6
 73
     3
 74
     0
 42
0.0000000001
 43
0.0000000001
 40
0.0
 40
0.0
 40
0.0
 40
1.0
 40
1.0
 40
1.0
 10
20.72171400004936
 20
42.83741128140032
 30
0.0
 10
20.72171400004936
 20
42.68976878140032
 30
0.0
 10
20.72171400004936
 20
42.54212628140031
 30
0.0
  0
ARC
  5
17E
330
1F
100
AcDbEntity
  8
DEFAULT
100
AcDbCircle
 10
20.66265900004936
 20
43.74292328140031
 30
0.0
 40
0.0590549917026477
100
AcDbArc
 50
322.923641060566
 51
0.0
  0
SPLINE
  5
17F
330
1F
100
AcDbEntity
  8
DEFAULT
100
AcDbSpline
210
0.0
220
0.0
230
1.0
 70
    24
 71
     2
 72
     6
 73
     3
 74
     0
 42
0.0000000001
 43
0.0000000001
 40
0.0
 40
0.0
 40
0.0
 40
1.0
 40
1.0
 40
1.0
 10
18.16265900004936
 20
44.03820828140032
 30
0.0
 10
18.16265900004936
 20
43.91298128140031
 30
0.0
 10
18.16265900004936
 20
43.78775428140031
 30
0.0
  0
SPLINE
  5
180
330
1F
100
AcDbEntity
  8
DEFAULT
100
AcDbSpline
210
0.0
220
0.0
230
1.0
 70
    24
 71
     2
 72
     6
 73
     3
 74
     0
 42
0.0000000001
 43
0.0000000001
 40
0.0
 40
0.0
 40
0.0
 40
1.0
 40
1.0
 40
1.0
 10
18.37968700004936
 20
42.30668728140031
 30
0.0
 10
19.44218700004936
 20
42.30668728140031
 30
0.0
 10
20.50468700004936
 20
42.30668728140031
 30
0.0
  0
SPLINE
  5
181
330
1F
100
AcDbEntity
  8
DEFAULT
100
AcDbSpline
210
0.0
220
0.0
230
1.0
 70
    24
 71
     2
 72
     6
 73
     3
 74
     0
 42
0.0000000001
 43
0.0000000001
 40
0.0
 40
0.0
 40
0.0
 40
1.0
 40
1.0
 40
1.0
 10
18.37968700004936
 20
44.27364828140033
 30
0.0
 10
19.44218700004936
 20
44.27364828140033
 30
0.0
 10
20.50468700004936
 20
44.27364828140033
 30
0.0
  0
ARC
  5
182
330
1F
100
AcDbEntity
  8
DEFAULT
100
AcDbCircle
 10
-1.048052999950642
 20
37.71951628140032
 30
0.0
 40
0.2362210042417907
100
AcDbArc
 50
94.6604298632045
 51
180.0
  0
SPLINE
  5
183
330
1F
100
AcDbEntity
  8
DEFAULT
100
AcDbSpline
210
0.0
220
0.0
230
1.0
 70
     8
 71
     3
 72
     9
 73
     5
 74
     0
 42
0.0000000001
 43
0.0000000001
 40
0.0
 40
0.0
 40
0.0
 40
0.0
 40
0.2503757633505
 40
1.0
 40
1.0
 40
1.0
 40
1.0
 10
0.8126144801993576
 20
36.44963247602031
 30
0.0
 10
0.8072771128813372
 20
36.45206388300032
 30
0.0
 10
0.7863999809453617
 20
36.46275588196032
 30
0.0
 10
0.767631186984346
 20
36.47722678831032
 30
0.0
 10
0.7553739775593442
 20
36.48972176783032
 30
0.0
  0
SPLINE
  5
184
330
1F
100
AcDbEntity
  8
DEFAULT
100
AcDbSpline
210
0.0
220
0.0
230
1.0
 70
    24
 71
     2
 72
     6
 73
     3
 74
     0
 42
0.0000000001
 43
0.0000000001
 40
0.0
 40
0.0
 40
0.0
 40
1.0
 40
1.0
 40
1.0
 10
-0.004745999950643
 20
36.61210628140032
 30
0.0
 10
-0.004745999950643
 20
36.97147628140031
 30
0.0
 10
-0.004745999950643
 20
37.33084628140031
 30
0.0
  0
ARC
  5
185
330
1F
100
AcDbEntity
  8
DEFAULT
100
AcDbCircle
 10
1.215726000049358
 20
50.06161428140031
 30
0.0
 40
0.0590554617686651
100
AcDbArc
 50
319.6785243044491
 51
0.0
  0
ARC
  5
186
330
1F
100
AcDbEntity
  8
DEFAULT
100
AcDbCircle
 10
10.79364700004936
 20
33.51906528140032
 30
0.0
 40
0.0590549999999981
100
AcDbArc
 50
180.0
 51
270.0
  0
SPLINE
  5
187
330
1F
100
AcDbEntity
  8
DEFAULT
100
AcDbSpline
210
0.0
220
0.0
230
1.0
 70
    24
 71
     2
 72
     6
 73
     3
 74
     0
 42
0.0000000001
 43
0.0000000001
 40
0.0
 40
0.0
 40
0.0
 40
1.0
 40
1.0
 40
1.0
 10
0.5222090000493438
 20
49.24948828140032
 30
0.0
 10
-0.3810324999506491
 20
49.24948828140032
 30
0.0
 10
-1.284273999950642
 20
49.24948828140032
 30
0.0
  0
ARC
  5
188
330
1F
100
AcDbEntity
  8
DEFAULT
100
AcDbCircle
 10
0.9204510000493542
 20
49.60885928140031
 30
0.0
 40
0.5364174957656088
100
AcDbArc
 50
198.3405085450712
 51
262.0320249683487
  0
ARC
  5
189
330
1F
100
AcDbEntity
  8
DEFAULT
100
AcDbCircle
 10
20.36738400004938
 20
43.29016728140031
 30
0.0
 40
0.5364170312406187
100
AcDbArc
 50
235.7390327164817
 51
305.7577012451446
  0
ARC
  5
18A
330
1F
100
AcDbEntity
  8
DEFAULT
100
AcDbCircle
 10
-1.225217999950644
 20
37.42423228140031
 30
0.0
 40
0.0590560000000009
100
AcDbArc
 50
180.0
 51
270.0
  0
ARC
  5
18B
330
1F
100
AcDbEntity
  8
DEFAULT
100
AcDbCircle
 10
13.05742600004936
 20
33.81435028140031
 30
0.0
 40
0.2362212158982621
100
AcDbArc
 50
0.0
 51
67.93618295879983
  0
ARC
  5
18C
330
1F
100
AcDbEntity
  8
DEFAULT
100
AcDbCircle
 10
13.23459200004936
 20
32.61355428140031
 30
0.0
 40
0.0590545805575144
100
AcDbArc
 50
0.0
 51
40.32210350398974
  0
SPLINE
  5
18D
330
1F
100
AcDbEntity
  8
DEFAULT
100
AcDbSpline
210
0.0
220
0.0
230
1.0
 70
     8
 71
     3
 72
    11
 73
     7
 74
     0
 42
0.0000000001
 43
0.0000000001
 40
0.0
 40
0.0
 40
0.0
 40
0.0
 40
0.2716450853917
 40
0.5444638113227
 40
0.8177469840014
 40
1.0
 40
1.0
 40
1.0
 40
1.0
 10
12.78971166690934
 20
32.57953507480032
 30
0.0
 10
12.77245533353934
 20
32.57663219730031
 30
0.0
 10
12.73687126935934
 20
32.57561170783032
 30
0.0
 10
12.68516994605935
 20
32.58864407226032
 30
0.0
 10
12.64399907091936
 20
32.61241108100032
 30
0.0
 10
12.62248775913935
 20
32.63267675346032
 30
0.0
 10
12.61469997551936
 20
32.64151425529032
 30
0.0
  0
SPLINE
  5
18E
330
1F
100
AcDbEntity
  8
DEFAULT
100
AcDbSpline
210
0.0
220
0.0
230
1.0
 70
    24
 71
     2
 72
     6
 73
     3
 74
     0
 42
0.0000000001
 43
0.0000000001
 40
0.0
 40
0.0
 40
0.0
 40
1.0
 40
1.0
 40
1.0
 10
10.79364900004936
 20
32.67260928140031
 30
0.0
 10
11.68431300004936
 20
32.67260928140031
 30
0.0
 10
12.57497700004936
 20
32.67260928140031
 30
0.0
  0
ARC
  5
18F
330
1F
100
AcDbEntity
  8
DEFAULT
100
AcDbCircle
 10
18.39888000004936
 20
42.54212628140031
 30
0.0
 40
0.2362205058949283
100
AcDbArc
 50
180.0
 51
265.3395504293516
  0
SPLINE
  5
190
330
1F
100
AcDbEntity
  8
DEFAULT
100
AcDbSpline
210
0.0
220
0.0
230
1.0
 70
    24
 71
     2
 72
     6
 73
     3
 74
     0
 42
0.0000000001
 43
0.0000000001
 40
0.0
 40
0.0
 40
0.0
 40
1.0
 40
1.0
 40
1.0
 10
-1.067245999950643
 20
50.59233928140033
 30
0.0
 10
-0.004745999950643
 20
50.59233928140033
 30
0.0
 10
1.057754000049357
 20
50.59233928140033
 30
0.0
  0
SPLINE
  5
191
330
1F
100
AcDbEntity
  8
DEFAULT
100
AcDbSpline
210
0.0
220
0.0
230
1.0
 70
    24
 71
     2
 72
     6
 73
     3
 74
     0
 42
0.0000000001
 43
0.0000000001
 40
0.0
 40
0.0
 40
0.0
 40
1.0
 40
1.0
 40
1.0
 10
4.827489999999955
 20
11.960117
 30
0.0
 10
5.034705499452272
 20
11.97097651045048
 30
0.0
 10
5.24192099890459
 20
11.98183602090096
 30
0.0
  0
ARC
  5
192
330
1F
100
AcDbEntity
  8
DEFAULT
100
AcDbCircle
 10
5.18121092309201
 20
13.14024597501101
 30
0.0
 40
1.159999713399296
100
AcDbArc
 50
273.0000188727384
 51
303.0000567613888
  0
SPLINE
  5
193
330
1F
100
AcDbEntity
  8
DEFAULT
100
AcDbSpline
210
0.0
220
0.0
230
1.0
 70
    24
 71
     2
 72
     6
 73
     3
 74
     0
 42
0.0000000001
 43
0.0000000001
 40
0.0
 40
0.0
 40
0.0
 40
1.0
 40
1.0
 40
1.0
 10
5.812993011399101
 20
12.16738898244694
 30
0.0
 10
6.153484505699538
 20
12.38850649122347
 30
0.0
 10
6.493975999999975
 20
12.609624
 30
0.0
  0
SPLINE
  5
194
330
1F
100
AcDbEntity
  8
DEFAULT
100
AcDbSpline
210
0.0
220
0.0
230
1.0
 70
     8
 71
     2
 72
   184
 73
   181
 74
     0
 42
0.0000000001
 43
0.0000000001
 40
-90.0
 40
-90.0
 40
-90.0
 40
-89.0
 40
-89.0
 40
-88.0
 40
-88.0
 40
-87.0
 40
-87.0
 40
-86.0
 40
-86.0
 40
-85.0
 40
-85.0
 40
-84.0
 40
-84.0
 40
-83.0
 40
-83.0
 40
-82.0
 40
-82.0
 40
-81.0
 40
-81.0
 40
-80.0
 40
-80.0
 40
-79.0
 40
-79.0
 40
-78.0
 40
-78.0
 40
-77.0
 40
-77.0
 40
-76.0
 40
-76.0
 40
-75.0
 40
-75.0
 40
-74.0
 40
-74.0
 40
-73.0
 40
-73.0
 40
-72.0
 40
-72.0
 40
-71.0
 40
-71.0
 40
-70.0
 40
-70.0
 40
-69.0
 40
-69.0
 40
-68.0
 40
-68.0
 40
-67.0
 40
-67.0
 40
-66.0
 40
-66.0
 40
-65.0
 40
-65.0
 40
-64.0
 40
-64.0
 40
-63.0
 40
-63.0
 40
-62.0
 40
-62.0
 40
-61.0
 40
-61.0
 40
-60.0
 40
-60.0
 40
-59.0
 40
-59.0
 40
-58.0
 40
-58.0
 40
-57.0
 40
-57.0
 40
-56.0
 40
-56.0
 40
-55.0
 40
-55.0
 40
-54.0
 40
-54.0
 40
-53.0
 40
-53.0
 40
-52.0
 40
-52.0
 40
-51.0
 40
-51.0
 40
-50.0
 40
-50.0
 40
-49.0
 40
-49.0
 40
-48.0
 40
-48.0
 40
-47.0
 40
-47.0
 40
-46.0
 40
-46.0
 40
-45.0
 40
-45.0
 40
-44.0
 40
-44.0
 40
-43.0
 40
-43.0
 40
-42.0
 40
-42.0
 40
-41.0
 40
-41.0
 40
-40.0
 40
-40.0
 40
-39.0
 40
-39.0
 40
-38.0
 40
-38.0
 40
-37.0
 40
-37.0
 40
-36.0
 40
-36.0
 40
-35.0
 40
-35.0
 40
-34.0
 40
-34.0
 40
-33.0
 40
-33.0
 40
-32.0
 40
-32.0
 40
-31.0
 40
-31.0
 40
-30.0
 40
-30.0
 40
-29.0
 40
-29.0
 40
-28.0
 40
-28.0
 40
-27.0
 40
-27.0
 40
-26.0
 40
-26.0
 40
-25.0
 40
-25.0
 40
-24.0
 40
-24.0
 40
-23.0
 40
-23.0
 40
-22.0
 40
-22.0
 40
-21.0
 40
-21.0
 40
-20.0
 40
-20.0
 40
-19.0
 40
-19.0
 40
-18.0
 40
-18.0
 40
-17.0
 40
-17.0
 40
-16.0
 40
-16.0
 40
-15.0
 40
-15.0
 40
-14.0
 40
-14.0
 40
-13.0
 40
-13.0
 40
-12.0
 40
-12.0
 40
-11.0
 40
-11.0
 40
-10.0
 40
-10.0
 40
-9.0
 40
-9.0
 40
-8.0
 40
-8.0
 40
-7.0
 40
-7.0
 40
-6.0
 40
-6.0
 40
-5.0
 40
-5.0
 40
-4.0
 40
-4.0
 40
-3.0
 40
-3.0
 40
-2.0
 40
-2.0
 40
-1.0
 40
-1.0
 40
0.0
 40
0.0
 40
0.0
 10
1.411268000049375
 20
52.1097757814003
 30
0.0
 10
1.413152500049378
 20
52.12142503140031
 30
0.0
 10
1.415037000049381
 20
52.13307428140031
 30
0.0
 10
1.416016500049381
 20
52.1364787814003
 30
0.0
 10
1.41699600004938
 20
52.13988328140029
 30
0.0
 10
1.41828900004937
 20
52.14368528140029
 30
0.0
 10
1.41958200004936
 20
52.1474872814003
 30
0.0
 10
1.421031000049368
 20
52.1511362814003
 30
0.0
 10
1.422480000049376
 20
52.15478528140029
 30
0.0
 10
1.424009500049365
 20
52.15815628140031
 30
0.0
 10
1.425539000049355
 20
52.16152728140032
 30
0.0
 10
1.42718050004936
 20
52.16475028140032
 30
0.0
 10
1.428822000049365
 20
52.16797328140031
 30
0.0
 10
1.430483500049363
 20
52.17091728140032
 30
0.0
 10
1.43214500004936
 20
52.17386128140033
 30
0.0
 10
1.433758500049365
 20
52.17647828140032
 30
0.0
 10
1.435372000049369
 20
52.17909528140031
 30
0.0
 10
1.436946500049373
 20
52.1814617814003
 30
0.0
 10
1.438521000049377
 20
52.1838282814003
 30
0.0
 10
1.440072500049368
 20
52.18600578140031
 30
0.0
 10
1.441624000049359
 20
52.18818328140033
 30
0.0
 10
1.443146000049367
 20
52.19019428140031
 30
0.0
 10
1.444668000049376
 20
52.19220528140029
 30
0.0
 10
1.446140000049368
 20
52.19404528140031
 30
0.0
 10
1.447612000049361
 20
52.19588528140032
 30
0.0
 10
1.449031500049372
 20
52.19757378140032
 30
0.0
 10
1.450451000049384
 20
52.19926228140032
 30
0.0
 10
1.45180150004937
 20
52.2008002814003
 30
0.0
 10
1.453152000049357
 20
52.20233828140029
 30
0.0
 10
1.454431000049368
 20
52.2037397814003
 30
0.0
 10
1.455710000049379
 20
52.20514128140032
 30
0.0
 10
1.456939000049374
 20
52.20644228140033
 30
0.0
 10
1.458168000049369
 20
52.20774328140034
 30
0.0
 10
1.459342000049375
 20
52.20894928140034
 30
0.0
 10
1.460516000049381
 20
52.21015528140033
 30
0.0
 10
1.461630000049382
 20
52.21126878140034
 30
0.0
 10
1.462744000049383
 20
52.21238228140034
 30
0.0
 10
1.463824000049371
 20
52.21343728140032
 30
0.0
 10
1.464904000049359
 20
52.2144922814003
 30
0.0
 10
1.465949500049362
 20
52.2154917814003
 30
0.0
 10
1.466995000049366
 20
52.21649128140031
 30
0.0
 10
1.46800100004937
 20
52.21743628140031
 30
0.0
 10
1.469007000049373
 20
52.21838128140031
 30
0.0
 10
1.469995500049379
 20
52.21929378140031
 30
0.0
 10
1.470984000049384
 20
52.22020628140031
 30
0.0
 10
1.471955000049377
 20
52.22109028140032
 30
0.0
 10
1.47292600004937
 20
52.22197428140034
 30
0.0
 10
1.473876500049371
 20
52.22282778140031
 30
0.0
 10
1.474827000049373
 20
52.22368128140029
 30
0.0
 10
1.475771500049376
 20
52.2245197814003
 30
0.0
 10
1.476716000049379
 20
52.22535828140032
 30
0.0
 10
1.477656000049379
 20
52.22618428140031
 30
0.0
 10
1.478596000049379
 20
52.2270102814003
 30
0.0
 10
1.480459000049379
 20
52.22862578140031
 30
0.0
 10
1.482322000049379
 20
52.23024128140032
 30
0.0
 10
1.484180500049376
 20
52.23182778140033
 30
0.0
 10
1.486039000049374
 20
52.23341428140033
 30
0.0
 10
1.487898500049369
 20
52.23498378140032
 30
0.0
 10
1.489758000049363
 20
52.2365532814003
 30
0.0
 10
1.492551500049373
 20
52.2388867814003
 30
0.0
 10
1.495345000049383
 20
52.24122028140029
 30
0.0
 10
1.504608000049373
 20
52.24889978140031
 30
0.0
 10
1.513871000049363
 20
52.25657928140033
 30
0.0
 10
1.516563500049372
 20
52.25883678140032
 30
0.0
 10
1.519256000049381
 20
52.2610942814003
 30
0.0
 10
1.521000000049369
 20
52.2625722814003
 30
0.0
 10
1.522744000049357
 20
52.26405028140029
 30
0.0
 10
1.52443300004937
 20
52.2654982814003
 30
0.0
 10
1.526122000049384
 20
52.26694628140031
 30
0.0
 10
1.527740500049376
 20
52.26835278140031
 30
0.0
 10
1.529359000049368
 20
52.26975928140031
 30
0.0
 10
1.530891500049364
 20
52.27111228140031
 30
0.0
 10
1.53242400004936
 20
52.2724652814003
 30
0.0
 10
1.533153500049366
 20
52.2731182814003
 30
0.0
 10
1.533883000049372
 20
52.2737712814003
 30
0.0
 10
1.534582500049368
 20
52.2744037814003
 30
0.0
 10
1.535282000049364
 20
52.27503628140029
 30
0.0
 10
1.535948500049372
 20
52.27564578140031
 30
0.0
 10
1.53661500004938
 20
52.27625528140034
 30
0.0
 10
1.537227500049369
 20
52.27682178140033
 30
0.0
 10
1.537840000049357
 20
52.27738828140032
 30
0.0
 10
1.540084000049362
 20
52.27940378140032
 30
0.0
 10
1.542328000049366
 20
52.28141928140032
 30
0.0
 10
1.544653500049364
 20
52.28337128140031
 30
0.0
 10
1.546979000049362
 20
52.2853232814003
 30
0.0
 10
1.549050000049363
 20
52.28696278140031
 30
0.0
 10
1.551121000049363
 20
52.28860228140032
 30
0.0
 10
1.55294600004936
 20
52.2899802814003
 30
0.0
 10
1.554771000049357
 20
52.29135828140029
 30
0.0
 10
1.556545000049368
 20
52.29264778140031
 30
0.0
 10
1.55831900004938
 20
52.29393728140032
 30
0.0
 10
1.560082500049376
 20
52.29517828140031
 30
0.0
 10
1.561846000049371
 20
52.2964192814003
 30
0.0
 10
1.563563500049369
 20
52.29759578140032
 30
0.0
 10
1.565281000049367
 20
52.29877228140033
 30
0.0
 10
1.567042000049369
 20
52.29995028140031
 30
0.0
 10
1.568803000049371
 20
52.3011282814003
 30
0.0
 10
1.570629500049364
 20
52.30232678140031
 30
0.0
 10
1.572456000049357
 20
52.30352528140033
 30
0.0
 10
1.574337500049367
 20
52.30473828140033
 30
0.0
 10
1.576219000049377
 20
52.30595128140034
 30
0.0
 10
1.578195000049377
 20
52.30720628140033
 30
0.0
 10
1.580171000049376
 20
52.30846128140031
 30
0.0
 10
1.582253000049377
 20
52.30976628140031
 30
0.0
 10
1.584335000049379
 20
52.31107128140032
 30
0.0
 10
1.586522500049369
 20
52.3124267814003
 30
0.0
 10
1.58871000004936
 20
52.31378228140029
 30
0.0
 10
1.593467000049358
 20
52.31668678140029
 30
0.0
 10
1.598224000049356
 20
52.31959128140029
 30
0.0
 10
1.603530500049359
 20
52.32277928140032
 30
0.0
 10
1.608837000049363
 20
52.32596728140034
 30
0.0
 10
1.614760500049371
 20
52.32947928140034
 30
0.0
 10
1.62068400004938
 20
52.33299128140034
 30
0.0
 10
1.630840000049375
 20
52.33893278140032
 30
0.0
 10
1.64099600004937
 20
52.34487428140029
 30
0.0
 10
1.65281050004937
 20
52.35169878140032
 30
0.0
 10
1.664625000049369
 20
52.35852328140034
 30
0.0
 10
1.683183500049367
 20
52.36912028140033
 30
0.0
 10
1.701742000049364
 20
52.37971728140032
 30
0.0
 10
1.729970000049363
 20
52.39564478140032
 30
0.0
 10
1.758198000049362
 20
52.41157228140032
 30
0.0
 10
1.79270350004937
 20
52.43081628140031
 30
0.0
 10
1.827209000049379
 20
52.4500602814003
 30
0.0
 10
1.877416000049379
 20
52.47774678140031
 30
0.0
 10
1.92762300004938
 20
52.50543328140033
 30
0.0
 10
1.997036500049376
 20
52.54330778140032
 30
0.0
 10
2.066450000049372
 20
52.5811822814003
 30
0.0
 10
2.157896000049377
 20
52.6305352814003
 30
0.0
 10
2.249342000049381
 20
52.6798882814003
 30
0.0
 10
2.352072500049374
 20
52.73470028140029
 30
0.0
 10
2.454803000049367
 20
52.78951228140029
 30
0.0
 10
2.553246500049369
 20
52.84144378140032
 30
0.0
 10
2.651690000049371
 20
52.89337528140034
 30
0.0
 10
2.742415500049376
 20
52.94068978140034
 30
0.0
 10
2.83314100004938
 20
52.98800428140034
 30
0.0
 10
2.895391500049371
 20
53.02013728140032
 30
0.0
 10
2.957642000049361
 20
53.05227028140031
 30
0.0
 10
2.957667000049369
 20
53.05227728140032
 30
0.0
 10
2.957692000049377
 20
53.05228428140033
 30
0.0
 10
3.125679000049374
 20
53.13829178140033
 30
0.0
 10
3.29366600004937
 20
53.22429928140032
 30
0.0
 10
3.478592500049373
 20
53.31824978140033
 30
0.0
 10
3.663519000049376
 20
53.41220028140033
 30
0.0
 10
3.844887000049368
 20
53.50370128140032
 30
0.0
 10
4.02625500004936
 20
53.59520228140032
 30
0.0
 10
4.203860500049359
 20
53.68429678140031
 30
0.0
 10
4.381466000049357
 20
53.77339128140029
 30
0.0
 10
4.555347500049365
 20
53.86024028140029
 30
0.0
 10
4.729229000049372
 20
53.9470892814003
 30
0.0
 10
4.899677500049364
 20
54.0319102814003
 30
0.0
 10
5.070126000049356
 20
54.11673128140031
 30
0.0
 10
5.237231000049363
 20
54.1994757814003
 30
0.0
 10
5.404336000049369
 20
54.28222028140028
 30
0.0
 10
5.568124000049366
 20
54.3627242814003
 30
0.0
 10
5.731912000049363
 20
54.44322828140032
 30
0.0
 10
5.892640500049367
 20
54.52146778140032
 30
0.0
 10
6.053369000049372
 20
54.59970728140031
 30
0.0
 10
6.211056000049368
 20
54.67557828140032
 30
0.0
 10
6.368743000049363
 20
54.75144928140033
 30
0.0
 10
6.523674000049368
 20
54.82460828140033
 30
0.0
 10
6.678605000049373
 20
54.89776728140033
 30
0.0
 10
6.831605500049378
 20
54.96749828140032
 30
0.0
 10
6.984606000049382
 20
55.03722928140031
 30
0.0
 10
7.136123500049379
 20
55.1023677814003
 30
0.0
 10
7.287641000049376
 20
55.16750628140029
 30
0.0
 10
7.438122000049376
 20
55.22685428140029
 30
0.0
 10
7.588603000049375
 20
55.28620228140029
 30
0.0
 10
7.738757500049374
 20
55.33885378140029
 30
0.0
 10
7.888912000049373
 20
55.39150528140028
 30
0.0
 10
8.038802000049373
 20
55.4363012814003
 30
0.0
 10
8.188692000049372
 20
55.48109728140032
 30
0.0
 10
8.337943500049377
 20
55.51724728140032
 30
0.0
 10
8.487195000049383
 20
55.55339728140031
 30
0.0
 10
8.635898500049379
 20
55.58087428140031
 30
0.0
 10
8.784602000049375
 20
55.60835128140032
 30
0.0
 10
8.932380500049376
 20
55.62728928140031
 30
0.0
 10
9.080159000049377
 20
55.6462272814003
 30
0.0
 10
9.226317500049376
 20
55.65687328140031
 30
0.0
 10
9.372476000049375
 20
55.66751928140032
 30
0.0
 10
9.494932500049373
 20
55.67030278140031
 30
0.0
 10
9.617389000049371
 20
55.6730862814003
 30
0.0
  0
SPLINE
  5
195
330
1F
100
AcDbEntity
  8
DEFAULT
100
AcDbSpline
210
0.0
220
0.0
230
1.0
 70
     8
 71
     2
 72
   184
 73
   181
 74
     0
 42
0.0000000001
 43
0.0000000001
 40
0.0
 40
0.0
 40
0.0
 40
1.0
 40
1.0
 40
2.0
 40
2.0
 40
3.0
 40
3.0
 40
4.0
 40
4.0
 40
5.0
 40
5.0
 40
6.0
 40
6.0
 40
7.0
 40
7.0
 40
8.0
 40
8.0
 40
9.0
 40
9.0
 40
10.0
 40
10.0
 40
11.0
 40
11.0
 40
12.0
 40
12.0
 40
13.0
 40
13.0
 40
14.0
 40
14.0
 40
15.0
 40
15.0
 40
16.0
 40
16.0
 40
17.0
 40
17.0
 40
18.0
 40
18.0
 40
19.0
 40
19.0
 40
20.0
 40
20.0
 40
21.0
 40
21.0
 40
22.0
 40
22.0
 40
23.0
 40
23.0
 40
24.0
 40
24.0
 40
25.0
 40
25.0
 40
26.0
 40
26.0
 40
27.0
 40
27.0
 40
28.0
 40
28.0
 40
29.0
 40
29.0
 40
30.0
 40
30.0
 40
31.0
 40
31.0
 40
32.0
 40
32.0
 40
33.0
 40
33.0
 40
34.0
 40
34.0
 40
35.0
 40
35.0
 40
36.0
 40
36.0
 40
37.0
 40
37.0
 40
38.0
 40
38.0
 40
39.0
 40
39.0
 40
40.0
 40
40.0
 40
41.0
 40
41.0
 40
42.0
 40
42.0
 40
43.0
 40
43.0
 40
44.0
 40
44.0
 40
45.0
 40
45.0
 40
46.0
 40
46.0
 40
47.0
 40
47.0
 40
48.0
 40
48.0
 40
49.0
 40
49.0
 40
50.0
 40
50.0
 40
51.0
 40
51.0
 40
52.0
 40
52.0
 40
53.0
 40
53.0
 40
54.0
 40
54.0
 40
55.0
 40
55.0
 40
56.0
 40
56.0
 40
57.0
 40
57.0
 40
58.0
 40
58.0
 40
59.0
 40
59.0
 40
60.0
 40
60.0
 40
61.0
 40
61.0
 40
62.0
 40
62.0
 40
63.0
 40
63.0
 40
64.0
 40
64.0
 40
65.0
 40
65.0
 40
66.0
 40
66.0
 40
67.0
 40
67.0
 40
68.0
 40
68.0
 40
69.0
 40
69.0
 40
70.0
 40
70.0
 40
71.0
 40
71.0
 40
72.0
 40
72.0
 40
73.0
 40
73.0
 40
74.0
 40
74.0
 40
75.0
 40
75.0
 40
76.0
 40
76.0
 40
77.0
 40
77.0
 40
78.0
 40
78.0
 40
79.0
 40
79.0
 40
80.0
 40
80.0
 40
81.0
 40
81.0
 40
82.0
 40
82.0
 40
83.0
 40
83.0
 40
84.0
 40
84.0
 40
85.0
 40
85.0
 40
86.0
 40
86.0
 40
87.0
 40
87.0
 40
88.0
 40
88.0
 40
89.0
 40
89.0
 40
90.0
 40
90.0
 40
90.0
 10
9.617389000049371
 20
55.6730862814003
 30
0.0
 10
9.73984550004937
 20
55.67030278140031
 30
0.0
 10
9.862302000049368
 20
55.66751928140032
 30
0.0
 10
10.00846050004937
 20
55.65687328140031
 30
0.0
 10
10.15461900004937
 20
55.6462272814003
 30
0.0
 10
10.30239750004937
 20
55.62728928140031
 30
0.0
 10
10.45017600004937
 20
55.60835128140032
 30
0.0
 10
10.59887950004936
 20
55.58087428140031
 30
0.0
 10
10.74758300004936
 20
55.55339728140031
 30
0.0
 10
10.89683450004937
 20
55.51724728140032
 30
0.0
 10
11.04608600004937
 20
55.48109728140032
 30
0.0
 10
11.19597600004937
 20
55.4363012814003
 30
0.0
 10
11.34586600004937
 20
55.39150528140028
 30
0.0
 10
11.49602050004937
 20
55.33885378140029
 30
0.0
 10
11.64617500004937
 20
55.28620228140029
 30
0.0
 10
11.79665600004937
 20
55.22685428140029
 30
0.0
 10
11.94713700004937
 20
55.16750628140029
 30
0.0
 10
12.09865450004936
 20
55.1023677814003
 30
0.0
 10
12.25017200004936
 20
55.03722928140031
 30
0.0
 10
12.40317250004937
 20
54.96749828140032
 30
0.0
 10
12.55617300004937
 20
54.89776728140033
 30
0.0
 10
12.71110400004936
 20
54.82460828140033
 30
0.0
 10
12.86603500004935
 20
54.75144928140033
 30
0.0
 10
13.02372200004936
 20
54.67557828140032
 30
0.0
 10
13.18140900004937
 20
54.59970728140031
 30
0.0
 10
13.34213750004936
 20
54.52146778140032
 30
0.0
 10
13.50286600004935
 20
54.44322828140032
 30
0.0
 10
13.66665400004936
 20
54.3627242814003
 30
0.0
 10
13.83044200004937
 20
54.28222028140028
 30
0.0
 10
13.99754700004937
 20
54.1994757814003
 30
0.0
 10
14.16465200004936
 20
54.11673128140031
 30
0.0
 10
14.33510050004936
 20
54.0319102814003
 30
0.0
 10
14.50554900004937
 20
53.9470892814003
 30
0.0
 10
14.67943050004936
 20
53.86024028140029
 30
0.0
 10
14.85331200004936
 20
53.77339128140029
 30
0.0
 10
15.03091750004936
 20
53.68429678140031
 30
0.0
 10
15.20852300004935
 20
53.59520228140032
 30
0.0
 10
15.38989100004936
 20
53.50370128140032
 30
0.0
 10
15.57125900004937
 20
53.41220028140033
 30
0.0
 10
15.75618550004937
 20
53.31824978140033
 30
0.0
 10
15.94111200004937
 20
53.22429928140032
 30
0.0
 10
16.10909900004937
 20
53.13829178140033
 30
0.0
 10
16.27708600004937
 20
53.05228428140033
 30
0.0
 10
16.27711100004936
 20
53.05227728140032
 30
0.0
 10
16.27713600004935
 20
53.05227028140031
 30
0.0
 10
16.33938650004936
 20
53.02013728140032
 30
0.0
 10
16.40163700004936
 20
52.98800428140034
 30
0.0
 10
16.49236250004937
 20
52.94068978140034
 30
0.0
 10
16.58308800004937
 20
52.89337528140034
 30
0.0
 10
16.68153150004936
 20
52.84144378140032
 30
0.0
 10
16.77997500004935
 20
52.78951228140029
 30
0.0
 10
16.88270550004935
 20
52.73470028140029
 30
0.0
 10
16.98543600004936
 20
52.6798882814003
 30
0.0
 10
17.07688200004937
 20
52.6305352814003
 30
0.0
 10
17.16832800004937
 20
52.5811822814003
 30
0.0
 10
17.23774150004937
 20
52.54330778140032
 30
0.0
 10
17.30715500004936
 20
52.50543328140033
 30
0.0
 10
17.35736200004936
 20
52.47774678140031
 30
0.0
 10
17.40756900004936
 20
52.4500602814003
 30
0.0
 10
17.44207450004936
 20
52.43081628140031
 30
0.0
 10
17.47658000004935
 20
52.41157228140032
 30
0.0
 10
17.50480800004935
 20
52.39564478140032
 30
0.0
 10
17.53303600004935
 20
52.37971728140032
 30
0.0
 10
17.55159450004936
 20
52.36912028140033
 30
0.0
 10
17.57015300004937
 20
52.35852328140034
 30
0.0
 10
17.58196750004937
 20
52.35169878140032
 30
0.0
 10
17.59378200004937
 20
52.34487428140029
 30
0.0
 10
17.60393800004937
 20
52.33893278140032
 30
0.0
 10
17.61409400004936
 20
52.33299128140034
 30
0.0
 10
17.62001750004936
 20
52.32947928140034
 30
0.0
 10
17.62594100004935
 20
52.32596728140034
 30
0.0
 10
17.63124750004935
 20
52.32277928140032
 30
0.0
 10
17.63655400004936
 20
52.31959128140029
 30
0.0
 10
17.64131100004936
 20
52.31668678140029
 30
0.0
 10
17.64606800004935
 20
52.31378228140029
 30
0.0
 10
17.64825550004936
 20
52.3124267814003
 30
0.0
 10
17.65044300004936
 20
52.31107128140032
 30
0.0
 10
17.65252500004937
 20
52.30976628140031
 30
0.0
 10
17.65460700004937
 20
52.30846128140031
 30
0.0
 10
17.65658300004937
 20
52.30720628140033
 30
0.0
 10
17.65855900004937
 20
52.30595128140034
 30
0.0
 10
17.66044050004936
 20
52.30473828140033
 30
0.0
 10
17.66232200004936
 20
52.30352528140033
 30
0.0
 10
17.66414850004936
 20
52.30232678140031
 30
0.0
 10
17.66597500004937
 20
52.3011282814003
 30
0.0
 10
17.66773600004937
 20
52.29995028140031
 30
0.0
 10
17.66949700004938
 20
52.29877228140033
 30
0.0
 10
17.67121450004937
 20
52.29759578140032
 30
0.0
 10
17.67293200004937
 20
52.2964192814003
 30
0.0
 10
17.67469550004937
 20
52.29517828140031
 30
0.0
 10
17.67645900004936
 20
52.29393728140032
 30
0.0
 10
17.67823300004936
 20
52.29264778140031
 30
0.0
 10
17.68000700004936
 20
52.29135828140029
 30
0.0
 10
17.68183200004935
 20
52.2899802814003
 30
0.0
 10
17.68365700004935
 20
52.28860228140032
 30
0.0
 10
17.68572800004935
 20
52.28696278140031
 30
0.0
 10
17.68779900004935
 20
52.2853232814003
 30
0.0
 10
17.69012450004935
 20
52.28337128140031
 30
0.0
 10
17.69245000004935
 20
52.28141928140032
 30
0.0
 10
17.69469400004935
 20
52.27940378140032
 30
0.0
 10
17.69693800004936
 20
52.27738828140032
 30
0.0
 10
17.69755050004936
 20
52.27682178140033
 30
0.0
 10
17.69816300004936
 20
52.27625528140034
 30
0.0
 10
17.69882950004936
 20
52.27564578140031
 30
0.0
 10
17.69949600004935
 20
52.27503628140029
 30
0.0
 10
17.70019550004936
 20
52.2744037814003
 30
0.0
 10
17.70089500004937
 20
52.2737712814003
 30
0.0
 10
17.70162450004936
 20
52.2731182814003
 30
0.0
 10
17.70235400004935
 20
52.2724652814003
 30
0.0
 10
17.70388650004936
 20
52.27111228140031
 30
0.0
 10
17.70541900004937
 20
52.26975928140031
 30
0.0
 10
17.70703750004937
 20
52.26835278140031
 30
0.0
 10
17.70865600004936
 20
52.26694628140031
 30
0.0
 10
17.71034500004936
 20
52.2654982814003
 30
0.0
 10
17.71203400004936
 20
52.26405028140029
 30
0.0
 10
17.71377800004936
 20
52.2625722814003
 30
0.0
 10
17.71552200004936
 20
52.2610942814003
 30
0.0
 10
17.71821450004936
 20
52.25883678140032
 30
0.0
 10
17.72090700004935
 20
52.25657928140033
 30
0.0
 10
17.73017000004936
 20
52.24889978140031
 30
0.0
 10
17.73943300004936
 20
52.24122028140029
 30
0.0
 10
17.74222650004936
 20
52.2388867814003
 30
0.0
 10
17.74502000004935
 20
52.2365532814003
 30
0.0
 10
17.74687950004936
 20
52.23498378140032
 30
0.0
 10
17.74873900004937
 20
52.23341428140033
 30
0.0
 10
17.75059750004937
 20
52.23182778140033
 30
0.0
 10
17.75245600004936
 20
52.23024128140032
 30
0.0
 10
17.75431900004936
 20
52.22862578140031
 30
0.0
 10
17.75618200004936
 20
52.2270102814003
 30
0.0
 10
17.75712200004936
 20
52.22618428140031
 30
0.0
 10
17.75806200004936
 20
52.22535828140032
 30
0.0
 10
17.75900650004937
 20
52.2245197814003
 30
0.0
 10
17.75995100004937
 20
52.22368128140029
 30
0.0
 10
17.76090150004937
 20
52.22282778140031
 30
0.0
 10
17.76185200004937
 20
52.22197428140034
 30
0.0
 10
17.76282300004937
 20
52.22109028140032
 30
0.0
 10
17.76379400004936
 20
52.22020628140031
 30
0.0
 10
17.76478250004936
 20
52.21929378140031
 30
0.0
 10
17.76577100004937
 20
52.21838128140031
 30
0.0
 10
17.76677700004936
 20
52.21743628140031
 30
0.0
 10
17.76778300004935
 20
52.21649128140031
 30
0.0
 10
17.76882850004935
 20
52.2154917814003
 30
0.0
 10
17.76987400004936
 20
52.2144922814003
 30
0.0
 10
17.77095400004936
 20
52.21343728140032
 30
0.0
 10
17.77203400004936
 20
52.21238228140034
 30
0.0
 10
17.77314800004936
 20
52.21126878140034
 30
0.0
 10
17.77426200004936
 20
52.21015528140033
 30
0.0
 10
17.77543600004937
 20
52.20894928140034
 30
0.0
 10
17.77661000004937
 20
52.20774328140034
 30
0.0
 10
17.77783900004937
 20
52.20644228140033
 30
0.0
 10
17.77906800004936
 20
52.20514128140032
 30
0.0
 10
17.78034700004936
 20
52.2037397814003
 30
0.0
 10
17.78162600004936
 20
52.20233828140029
 30
0.0
 10
17.78297650004936
 20
52.2008002814003
 30
0.0
 10
17.78432700004936
 20
52.19926228140032
 30
0.0
 10
17.78574650004936
 20
52.19757378140032
 30
0.0
 10
17.78716600004935
 20
52.19588528140032
 30
0.0
 10
17.78863800004936
 20
52.19404528140031
 30
0.0
 10
17.79011000004937
 20
52.19220528140029
 30
0.0
 10
17.79163200004936
 20
52.19019428140031
 30
0.0
 10
17.79315400004936
 20
52.18818328140033
 30
0.0
 10
17.79470550004936
 20
52.18600578140031
 30
0.0
 10
17.79625700004937
 20
52.1838282814003
 30
0.0
 10
17.79783150004937
 20
52.1814617814003
 30
0.0
 10
17.79940600004937
 20
52.17909528140031
 30
0.0
 10
17.80101950004936
 20
52.17647828140032
 30
0.0
 10
17.80263300004935
 20
52.17386128140033
 30
0.0
 10
17.80429450004935
 20
52.17091728140032
 30
0.0
 10
17.80595600004935
 20
52.16797328140031
 30
0.0
 10
17.80759750004935
 20
52.16475028140032
 30
0.0
 10
17.80923900004936
 20
52.16152728140032
 30
0.0
 10
17.81076850004936
 20
52.15815628140031
 30
0.0
 10
17.81229800004937
 20
52.15478528140029
 30
0.0
 10
17.81374700004936
 20
52.1511362814003
 30
0.0
 10
17.81519600004935
 20
52.1474872814003
 30
0.0
 10
17.81648900004936
 20
52.14368528140029
 30
0.0
 10
17.81778200004936
 20
52.13988328140029
 30
0.0
 10
17.81876150004936
 20
52.1364787814003
 30
0.0
 10
17.81974100004936
 20
52.13307428140031
 30
0.0
 10
17.82162550004936
 20
52.12142503140031
 30
0.0
 10
17.82351000004937
 20
52.1097757814003
 30
0.0
  0
SPLINE
  5
196
330
1F
100
AcDbEntity
  8
DEFAULT
100
AcDbSpline
210
0.0
220
0.0
230
1.0
 70
     8
 71
     3
 72
    34
 73
    30
 74
     0
 42
0.0000000001
 43
0.0000000001
 40
0.0
 40
0.0
 40
0.0
 40
0.0
 40
1.0
 40
2.0
 40
3.0
 40
4.0
 40
5.0
 40
6.0
 40
7.0
 40
8.0
 40
9.0
 40
10.0
 40
11.0
 40
12.0
 40
13.0
 40
14.0
 40
15.0
 40
16.0
 40
17.0
 40
18.0
 40
19.0
 40
20.0
 40
21.0
 40
22.0
 40
23.0
 40
24.0
 40
25.0
 40
26.0
 40
27.0
 40
27.0
 40
27.0
 40
27.0
 10
17.82351000004937
 20
52.1097757814003
 30
0.0
 10
17.82687926616606
 20
51.97833490470232
 30
0.0
 10
17.82330053586827
 20
51.75217296015155
 30
0.0
 10
17.78066526096566
 20
51.41414815640907
 30
0.0
 10
17.65955275368066
 20
51.09436738970886
 30
0.0
 10
17.40598711186738
 20
50.84279525292193
 30
0.0
 10
17.05539978942585
 20
50.81767334128331
 30
0.0
 10
16.71968196646623
 20
50.84626176776852
 30
0.0
 10
16.38167035934069
 20
50.88213943094685
 30
0.0
 10
16.04590954224355
 20
50.92981867044848
 30
0.0
 10
15.70940180526355
 20
50.97332121450593
 30
0.0
 10
15.37222094571044
 20
51.01086314142897
 30
0.0
 10
15.03446259131837
 20
51.04294110710187
 30
0.0
 10
14.69613135613048
 20
51.06822129453327
 30
0.0
 10
14.35749409635284
 20
51.08887075997008
 30
0.0
 10
14.01879404025658
 20
51.1082282264755
 30
0.0
 10
13.68012445409622
 20
51.12878155464234
 30
0.0
 10
13.34232074267041
 20
51.16039907113561
 30
0.0
 10
13.00478263677323
 20
51.19453815481883
 30
0.0
 10
12.66692130762166
 20
51.22536308296135
 30
0.0
 10
12.32885808612932
 20
51.25371567513601
 30
0.0
 10
11.99055483019814
 20
51.27946433004134
 30
0.0
 10
11.65177905155829
 20
51.29787268184249
 30
0.0
 10
11.31291631242144
 20
51.31402016793255
 30
0.0
 10
10.9739093203109
 20
51.32731118652687
 30
0.0
 10
10.63486912278648
 20
51.33955078687002
 30
0.0
 10
10.29577270922232
 20
51.35013302225953
 30
0.0
 10
9.956652332817328
 20
51.35983365508413
 30
0.0
 10
9.73046608273134
 20
51.36132919856597
 30
0.0
 10
9.617384000049356
 20
51.36307128140034
 30
0.0
  0
SPLINE
  5
197
330
1F
100
AcDbEntity
  8
DEFAULT
100
AcDbSpline
210
0.0
220
0.0
230
1.0
 70
     8
 71
     3
 72
    34
 73
    30
 74
     0
 42
0.0000000001
 43
0.0000000001
 40
-27.0
 40
-27.0
 40
-27.0
 40
-27.0
 40
-26.0
 40
-25.0
 40
-24.0
 40
-23.0
 40
-22.0
 40
-21.0
 40
-20.0
 40
-19.0
 40
-18.0
 40
-17.0
 40
-16.0
 40
-15.0
 40
-14.0
 40
-13.0
 40
-12.0
 40
-11.0
 40
-10.0
 40
-9.0
 40
-8.0
 40
-7.0
 40
-6.0
 40
-5.0
 40
-4.0
 40
-3.0
 40
-2.0
 40
-1.0
 40
0.0
 40
0.0
 40
0.0
 40
0.0
 10
9.617384000049356
 20
51.36307128140034
 30
0.0
 10
9.504311917367403
 20
51.36132919856597
 30
0.0
 10
9.278125667281415
 20
51.35983365508413
 30
0.0
 10
8.939005290876423
 20
51.35013302225953
 30
0.0
 10
8.599908877312231
 20
51.33955078687002
 30
0.0
 10
8.260868679787848
 20
51.32731118652687
 30
0.0
 10
7.921861687677307
 20
51.31402016793255
 30
0.0
 10
7.58299894854045
 20
51.29787268184249
 30
0.0
 10
7.244223169900607
 20
51.27946433004134
 30
0.0
 10
6.905919913969399
 20
51.25371567513601
 30
0.0
 10
6.567856692477079
 20
51.22536308296135
 30
0.0
 10
6.229995363325514
 20
51.19453815481883
 30
0.0
 10
5.892457257428333
 20
51.16039907113561
 30
0.0
 10
5.554653546002498
 20
51.12878155464234
 30
0.0
 10
5.215983959842134
 20
51.1082282264755
 30
0.0
 10
4.877283903745905
 20
51.08887075997008
 30
0.0
 10
4.538646643968264
 20
51.06822129453327
 30
0.0
 10
4.200315408780341
 20
51.04294110710187
 30
0.0
 10
3.862557054388276
 20
51.01086314142897
 30
0.0
 10
3.525376194835189
 20
50.97332121450593
 30
0.0
 10
3.188868457855165
 20
50.92981867044848
 30
0.0
 10
2.853107640758054
 20
50.88213943094685
 30
0.0
 10
2.515096033632517
 20
50.84626176776852
 30
0.0
 10
2.179378210672866
 20
50.81767334128331
 30
0.0
 10
1.828790888231339
 20
50.84279525292193
 30
0.0
 10
1.575225246418086
 20
51.09436738970886
 30
0.0
 10
1.45411273913308
 20
51.41414815640907
 30
0.0
 10
1.411477464230444
 20
51.75217296015155
 30
0.0
 10
1.407898733932683
 20
51.97833490470232
 30
0.0
 10
1.411268000049375
 20
52.1097757814003
 30
0.0
  0
SPLINE
  5
198
330
1F
100
AcDbEntity
  8
DEFAULT
100
AcDbSpline
210
0.0
220
0.0
230
1.0
 70
    24
 71
     2
 72
     6
 73
     3
 74
     0
 42
0.0000000001
 43
0.0000000001
 40
0.0
 40
0.0
 40
0.0
 40
0.871552923076923
 40
0.871552923076923
 40
0.871552923076923
 10
10.59962999999999
 20
9.973755999999995
 30
0.0
 10
10.59962999999999
 20
7.141208999999996
 30
0.0
 10
10.59962999999999
 20
4.308661999999998
 30
0.0
  0
SPLINE
  5
199
330
1F
100
AcDbEntity
  8
DEFAULT
100
AcDbSpline
210
0.0
220
0.0
230
1.0
 70
     8
 71
     3
 72
    10
 73
     6
 74
     0
 42
0.0000000001
 43
0.0000000001
 40
0.0
 40
0.0
 40
0.0
 40
0.0
 40
0.3981504464745052
 40
0.7369036342365323
 40
1.0
 40
1.0
 40
1.0
 40
1.0
 10
36.28888983491538
 20
12.53827444532001
 30
0.0
 10
36.27626546384539
 20
12.54350940244001
 30
0.0
 10
36.25361299294539
 20
12.55497523615001
 30
0.0
 10
36.22671749212532
 20
12.57696067080019
 30
0.0
 10
36.21781271864305
 20
12.59732713974398
 30
0.0
 10
36.21783588536539
 20
12.60634622499502
 30
0.0
  0
SPLINE
  5
19A
330
1F
100
AcDbEntity
  8
DEFAULT
100
AcDbSpline
210
0.0
220
0.0
230
1.0
 70
    24
 71
     2
 72
     6
 73
     3
 74
     0
 42
0.0000000001
 43
0.0000000001
 40
0.0
 40
0.0
 40
0.0
 40
1.0
 40
1.0
 40
1.0
 10
36.21783588536539
 20
12.60634622499502
 30
0.0
 10
36.21817719025788
 20
12.82713420825502
 30
0.0
 10
36.21851849515036
 20
13.04792219151501
 30
0.0
  0
SPLINE
  5
19B
330
1F
100
AcDbEntity
  8
DEFAULT
100
AcDbSpline
210
0.0
220
0.0
230
1.0
 70
     8
 71
     3
 72
    19
 73
    15
 74
     0
 42
0.0000000001
 43
0.0000000001
 40
0.0
 40
0.0
 40
0.0
 40
0.0
 40
1.0
 40
2.0
 40
3.0
 40
4.0
 40
5.0
 40
6.0
 40
7.0
 40
8.0
 40
9.0
 40
10.0
 40
11.0
 40
12.0
 40
12.0
 40
12.0
 40
12.0
 10
36.21851849515036
 20
13.04792219151501
 30
0.0
 10
36.22266957182364
 20
13.06128118978636
 30
0.0
 10
36.24982770474384
 20
13.07173475404205
 30
0.0
 10
36.28857840253485
 20
13.07882540630347
 30
0.0
 10
36.32854142772027
 20
13.08472814876414
 30
0.0
 10
36.36857431652805
 20
13.08765436426377
 30
0.0
 10
36.40872429293492
 20
13.08942758267288
 30
0.0
 10
36.44889693387481
 20
13.09002361107036
 30
0.0
 10
36.48906834408018
 20
13.08946385661106
 30
0.0
 10
36.52922436270859
 20
13.08765395453027
 30
0.0
 10
36.56921580962467
 20
13.08448627812913
 30
0.0
 10
36.60933871885229
 20
13.0794859242809
 30
0.0
 10
36.64774665210564
 20
13.0708746012273
 30
0.0
 10
36.67519513222607
 20
13.06153063704636
 30
0.0
 10
36.67930863520039
 20
13.04792219151501
 30
0.0
  0
SPLINE
  5
19C
330
1F
100
AcDbEntity
  8
DEFAULT
100
AcDbSpline
210
0.0
220
0.0
230
1.0
 70
    24
 71
     2
 72
     6
 73
     3
 74
     0
 42
0.0000000001
 43
0.0000000001
 40
0.0
 40
0.0
 40
0.0
 40
1.0
 40
1.0
 40
1.0
 10
36.67930863520039
 20
13.04792219151501
 30
0.0
 10
36.67964969009289
 20
12.82713420825502
 30
0.0
 10
36.67999074498539
 20
12.60634622499502
 30
0.0
  0
SPLINE
  5
19D
330
1F
100
AcDbEntity
  8
DEFAULT
100
AcDbSpline
210
0.0
220
0.0
230
1.0
 70
     8
 71
     3
 72
    10
 73
     6
 74
     0
 42
0.0000000001
 43
0.0000000001
 40
0.0
 40
0.0
 40
0.0
 40
0.0
 40
0.2596326508427113
 40
0.597837687459618
 40
1.0
 40
1.0
 40
1.0
 40
1.0
 10
36.67999074498539
 20
12.60634622499502
 30
0.0
 10
36.68000636674228
 20
12.59744462125302
 30
0.0
 10
36.6712913059402
 20
12.57719109956979
 30
0.0
 10
36.64443927342538
 20
12.55509591346001
 30
0.0
 10
36.62168544448537
 20
12.54356121198002
 30
0.0
 10
36.60893334184539
 20
12.53827325881001
 30
0.0
  0
SPLINE
  5
19E
330
1F
100
AcDbEntity
  8
DEFAULT
100
AcDbSpline
210
0.0
220
0.0
230
1.0
 70
     8
 71
     3
 72
     8
 73
     4
 74
     0
 42
0.0000000001
 43
0.0000000001
 40
0.0
 40
0.0
 40
0.0
 40
0.0
 40
1.0
 40
1.0
 40
1.0
 40
1.0
 10
3.454243897362971
 20
13.21316063682799
 30
0.0
 10
4.766337401266981
 20
13.19226511716799
 30
0.0
 10
6.588367932121969
 20
12.88549394029199
 30
0.0
 10
8.842159055757975
 20
11.34183250362399
 30
0.0
  0
SPLINE
  5
19F
330
1F
100
AcDbEntity
  8
DEFAULT
100
AcDbSpline
210
0.0
220
0.0
230
1.0
 70
    24
 71
     2
 72
     6
 73
     3
 74
     0
 42
0.0000000001
 43
0.0000000001
 40
0.0
 40
0.0
 40
0.0
 40
1.0
 40
1.0
 40
1.0
 10
10.59962999999999
 20
9.973755999999995
 30
0.0
 10
9.617129999999975
 20
9.973755999999995
 30
0.0
 10
8.634629999999959
 20
9.973755999999995
 30
0.0
  0
ARC
  5
1A0
330
1F
100
AcDbEntity
  8
DEFAULT
100
AcDbCircle
 10
10.28712999999999
 20
-0.89624400000001
 30
0.0
 40
0.1299999999999999
100
AcDbArc
 50
270.0
 51
0.0
  0
ARC
  5
1A1
330
1F
100
AcDbEntity
  8
DEFAULT
100
AcDbCircle
 10
8.947129999999959
 20
-0.89624400000001
 30
0.0
 40
0.129999999999999
100
AcDbArc
 50
180.0
 51
270.0
  0
SPLINE
  5
1A2
330
1F
100
AcDbEntity
  8
DEFAULT
100
AcDbSpline
210
0.0
220
0.0
230
1.0
 70
     8
 71
     3
 72
     8
 73
     4
 74
     0
 42
0.0000000001
 43
0.0000000001
 40
0.0
 40
0.0
 40
0.0
 40
0.0
 40
1.0
 40
1.0
 40
1.0
 40
1.0
 10
10.52745880248
 20
0.5987557520799953
 30
0.0
 10
10.52418895589
 20
0.4684990966599969
 30
0.0
 10
10.41713023133997
 20
0.3540534426900024
 30
0.0
 10
10.41713023133997
 20
0.2237557520799953
 30
0.0
  0
SPLINE
  5
1A3
330
1F
100
AcDbEntity
  8
DEFAULT
100
AcDbSpline
210
0.0
220
0.0
230
1.0
 70
    24
 71
     2
 72
     6
 73
     3
 74
     0
 42
0.0000000001
 43
0.0000000001
 40
0.0
 40
0.0
 40
0.0
 40
1.0
 40
1.0
 40
1.0
 10
20.02632099999997
 20
2.41677
 30
0.0
 10
20.04048999999996
 20
2.024739999999994
 30
0.0
 10
20.05465899999996
 20
1.632709999999989
 30
0.0
  0
ARC
  5
1A4
330
1F
100
AcDbEntity
  8
DEFAULT
100
AcDbCircle
 10
9.926920244167093
 20
1.877652713152287
 30
0.0
 40
0.0704776720462187
100
AcDbArc
 50
311.4208952918165
 51
336.7301367228035
  0
SPLINE
  5
1A5
330
1F
100
AcDbEntity
  8
DEFAULT
100
AcDbSpline
210
0.0
220
0.0
230
1.0
 70
     8
 71
     3
 72
    14
 73
    10
 74
     0
 42
0.0000000001
 43
0.0000000001
 40
0.0
 40
0.0
 40
0.0
 40
0.0
 40
1.0
 40
2.0
 40
3.0
 40
4.0
 40
5.0
 40
6.0
 40
7.0
 40
7.0
 40
7.0
 40
7.0
 10
9.991664861019956
 20
1.849809637790003
 30
0.0
 10
10.00483915016105
 20
1.880444339296545
 30
0.0
 10
10.0204786211321
 20
1.945196222786706
 30
0.0
 10
10.04590213758189
 20
2.041594192016959
 30
0.0
 10
10.07094168139466
 20
2.138110943301072
 30
0.0
 10
10.09555279777231
 20
2.234882391560603
 30
0.0
 10
10.13141011102419
 20
2.327965604747689
 30
0.0
 10
10.18115428561151
 20
2.41568960462962
 30
0.0
 10
10.2433906002579
 20
2.451339779670235
 30
0.0
 10
10.27768699999996
 20
2.443497999999991
 30
0.0
  0
SPLINE
  5
1A6
330
1F
100
AcDbEntity
  8
DEFAULT
100
AcDbSpline
210
0.0
220
0.0
230
1.0
 70
     8
 71
     3
 72
     9
 73
     5
 74
     0
 42
0.0000000001
 43
0.0000000001
 40
0.0
 40
0.0
 40
0.0
 40
0.0
 40
1.0
 40
2.0
 40
2.0
 40
2.0
 40
2.0
 10
9.287618546019985
 20
4.289667635103001
 30
0.0
 10
9.250199732113629
 20
4.29273710935432
 30
0.0
 10
9.175074194259764
 20
4.293024460417243
 30
0.0
 10
9.100032272094325
 20
4.291477952912444
 30
0.0
 10
9.062534626519977
 20
4.289667635103001
 30
0.0
  0
LINE
  5
1A7
330
1F
100
AcDbEntity
  8
DEFAULT
100
AcDbLine
 10
10.60935803335872
 20
4.308661999999998
 30
0.0
 11
8.63812999999999
 21
4.308661999999998
 31
0.0
  0
SPLINE
  5
1A8
330
1F
100
AcDbEntity
  8
DEFAULT
100
AcDbSpline
210
0.0
220
0.0
230
1.0
 70
     8
 71
     3
 72
    10
 73
     6
 74
     0
 42
0.0000000001
 43
0.0000000001
 40
0.0
 40
0.0
 40
0.0
 40
0.0
 40
0.3745727208191
 40
0.7379583218834
 40
1.0
 40
1.0
 40
1.0
 40
1.0
 10
9.235800200389974
 20
4.007722273420001
 30
0.0
 10
9.236090181009956
 20
3.99243018450899
 30
0.0
 10
9.24416118749997
 20
3.961870459536996
 30
0.0
 10
9.273796107119978
 20
3.931178062312
 30
0.0
 10
9.29905704097996
 20
3.922819848800998
 30
0.0
 10
9.309783052809962
 20
3.921513614136003
 30
0.0
  0
SPLINE
  5
1A9
330
1F
100
AcDbEntity
  8
DEFAULT
100
AcDbSpline
210
0.0
220
0.0
230
1.0
 70
    24
 71
     2
 72
     6
 73
     3
 74
     0
 42
0.0000000001
 43
0.0000000001
 40
0.0
 40
0.0
 40
0.0
 40
1.0
 40
1.0
 40
1.0
 10
0.4044039999999995
 20
1.456693000000001
 30
0.0
 10
0.9251964999999984
 20
1.456693000000001
 30
0.0
 10
1.445988999999997
 20
1.456693000000001
 30
0.0
  0
SPLINE
  5
1AA
330
1F
100
AcDbEntity
  8
DEFAULT
100
AcDbSpline
210
0.0
220
0.0
230
1.0
 70
    24
 71
     2
 72
     6
 73
     3
 74
     0
 42
0.0000000001
 43
0.0000000001
 40
0.0
 40
0.0
 40
0.0
 40
1.0
 40
1.0
 40
1.0
 10
20.08669599999996
 20
1.574804
 30
0.0
 10
20.08669599999996
 20
1.515748500000001
 30
0.0
 10
20.08669599999996
 20
1.456693000000001
 30
0.0
  0
SPLINE
  5
1AB
330
1F
100
AcDbEntity
  8
DEFAULT
100
AcDbSpline
210
0.0
220
0.0
230
1.0
 70
    24
 71
     2
 72
     6
 73
     3
 74
     0
 42
0.0000000001
 43
0.0000000001
 40
0.0
 40
0.0
 40
0.0
 40
1.0
 40
1.0
 40
1.0
 10
20.65756299999995
 20
1.574804
 30
0.0
 10
20.65756299999995
 20
1.515748500000001
 30
0.0
 10
20.65756299999995
 20
1.456693000000001
 30
0.0
  0
SPLINE
  5
1AC
330
1F
100
AcDbEntity
  8
DEFAULT
100
AcDbSpline
210
0.0
220
0.0
230
1.0
 70
    24
 71
     2
 72
     6
 73
     3
 74
     0
 42
0.0000000001
 43
0.0000000001
 40
0.0
 40
0.0
 40
0.0
 40
1.0
 40
1.0
 40
1.0
 10
20.77294399999997
 20
1.632709999999989
 30
0.0
 10
20.79167699999996
 20
2.169149499999989
 30
0.0
 10
20.81040999999996
 20
2.705588999999989
 30
0.0
  0
SPLINE
  5
1AD
330
1F
100
AcDbEntity
  8
DEFAULT
100
AcDbSpline
210
0.0
220
0.0
230
1.0
 70
     8
 71
     3
 72
     9
 73
     5
 74
     0
 42
0.0000000001
 43
0.0000000001
 40
0.0
 40
0.0
 40
0.0
 40
0.0
 40
1.0
 40
2.0
 40
2.0
 40
2.0
 40
2.0
 10
1.409604000000002
 20
1.574804
 30
0.0
 10
1.420397244777234
 20
1.574990467893471
 30
0.0
 10
1.441892352119112
 20
1.58041636949865
 30
0.0
 10
1.458528351373673
 20
1.595120343005945
 30
0.0
 10
1.464743999999996
 20
1.603955999999997
 30
0.0
  0
SPLINE
  5
1AE
330
1F
100
AcDbEntity
  8
DEFAULT
100
AcDbSpline
210
0.0
220
0.0
230
1.0
 70
     8
 71
     3
 72
     9
 73
     5
 74
     0
 42
0.0000000001
 43
0.0000000001
 40
0.0
 40
0.0
 40
0.0
 40
0.0
 40
1.0
 40
2.0
 40
2.0
 40
2.0
 40
2.0
 10
1.464743999999996
 20
1.603955999999997
 30
0.0
 10
1.508851797999341
 20
1.689077144698913
 30
0.0
 10
1.627550598238827
 20
1.845994617982839
 30
0.0
 10
1.806956824348731
 20
1.931692016828237
 30
0.0
 10
1.93693751723697
 20
1.948920408199996
 30
0.0
  0
SPLINE
  5
1AF
330
1F
100
AcDbEntity
  8
DEFAULT
100
AcDbSpline
210
0.0
220
0.0
230
1.0
 70
    24
 71
     2
 72
     6
 73
     3
 74
     0
 42
0.0000000001
 43
0.0000000001
 40
0.0
 40
0.0
 40
0.0
 40
1.0
 40
1.0
 40
1.0
 10
10.41712999999999
 20
0.2237559999999945
 30
0.0
 10
10.41712999999999
 20
-0.3362440000000078
 30
0.0
 10
10.41712999999999
 20
-0.89624400000001
 30
0.0
  0
SPLINE
  5
1B0
330
1F
100
AcDbEntity
  8
DEFAULT
100
AcDbSpline
210
0.0
220
0.0
230
1.0
 70
    24
 71
     2
 72
     6
 73
     3
 74
     0
 42
0.0000000001
 43
0.0000000001
 40
0.0
 40
0.0
 40
0.0
 40
1.0
 40
1.0
 40
1.0
 10
10.28712999999999
 20
-1.026244000000005
 30
0.0
 10
9.617129999999975
 20
-1.026244000000005
 30
0.0
 10
8.947129999999959
 20
-1.026244000000005
 30
0.0
  0
SPLINE
  5
1B1
330
1F
100
AcDbEntity
  8
DEFAULT
100
AcDbSpline
210
0.0
220
0.0
230
1.0
 70
     8
 71
     2
 72
    34
 73
    31
 74
     0
 42
0.0000000001
 43
0.0000000001
 40
0.0
 40
0.0
 40
0.0
 40
1.0
 40
1.0
 40
2.0
 40
2.0
 40
3.0
 40
3.0
 40
4.0
 40
4.0
 40
5.0
 40
5.0
 40
6.0
 40
6.0
 40
7.0
 40
7.0
 40
8.0
 40
8.0
 40
9.0
 40
9.0
 40
10.0
 40
10.0
 40
11.0
 40
11.0
 40
12.0
 40
12.0
 40
13.0
 40
13.0
 40
14.0
 40
14.0
 40
15.0
 40
15.0
 40
15.0
 10
4.83164499999998
 20
11.880832
 30
0.0
 10
4.831643499999984
 20
11.878713
 30
0.0
 10
4.831641999999988
 20
11.876594
 30
0.0
 10
4.831416499999989
 20
11.8744865
 30
0.0
 10
4.83119099999999
 20
11.872379
 30
0.0
 10
4.830743499999983
 20
11.8703075
 30
0.0
 10
4.830295999999976
 20
11.868236
 30
0.0
 10
4.829632499999974
 20
11.8662235
 30
0.0
 10
4.828968999999972
 20
11.864211
 30
0.0
 10
4.828095499999961
 20
11.8622805
 30
0.0
 10
4.827221999999949
 20
11.86035
 30
0.0
 10
4.826149499999957
 20
11.85852199999999
 30
0.0
 10
4.825076999999965
 20
11.85669399999999
 30
0.0
 10
4.823816999999963
 20
11.85498999999999
 30
0.0
 10
4.822556999999961
 20
11.853286
 30
0.0
 10
4.821123999999969
 20
11.85172499999999
 30
0.0
 10
4.819690999999978
 20
11.85016399999999
 30
0.0
 10
4.818100999999984
 20
11.8487635
 30
0.0
 10
4.816510999999991
 20
11.847363
 30
0.0
 10
4.814780999999982
 20
11.8461385
 30
0.0
 10
4.813050999999973
 20
11.844914
 30
0.0
 10
4.81120199999998
 20
11.843879
 30
0.0
 10
4.809352999999987
 20
11.842844
 30
0.0
 10
4.80740449999999
 20
11.842011
 30
0.0
 10
4.805455999999992
 20
11.841178
 30
0.0
 10
4.803429999999992
 20
11.8405555
 30
0.0
 10
4.801403999999991
 20
11.839933
 30
0.0
 10
4.799323999999984
 20
11.8395285
 30
0.0
 10
4.797243999999978
 20
11.839124
 30
0.0
 10
4.795192999999983
 20
11.838944
 30
0.0
 10
4.793141999999989
 20
11.838764
 30
0.0
  0
SPLINE
  5
1B2
330
1F
100
AcDbEntity
  8
DEFAULT
100
AcDbSpline
210
0.0
220
0.0
230
1.0
 70
     8
 71
     3
 72
     9
 73
     5
 74
     0
 42
0.0000000001
 43
0.0000000001
 40
-2.0
 40
-2.0
 40
-2.0
 40
-2.0
 40
-1.0
 40
0.0
 40
0.0
 40
0.0
 40
0.0
 10
25.84181073846537
 20
17.15285666166001
 30
0.0
 10
25.80006240881963
 20
17.17133880732369
 30
0.0
 10
25.77972141696085
 20
17.26526500239775
 30
0.0
 10
25.77006236517681
 20
17.34892965985755
 30
0.0
 10
25.77003687114538
 20
17.39831884055
 30
0.0
  0
SPLINE
  5
1B3
330
1F
100
AcDbEntity
  8
DEFAULT
100
AcDbSpline
210
0.0
220
0.0
230
1.0
 70
     8
 71
     3
 72
     9
 73
     5
 74
     0
 42
0.0000000001
 43
0.0000000001
 40
0.0
 40
0.0
 40
0.0
 40
0.0
 40
1.000000508007676
 40
2.0
 40
2.0
 40
2.0
 40
2.0
 10
25.77003687114538
 20
17.39831884055
 30
0.0
 10
25.80980459134418
 20
18.18605496209238
 30
0.0
 10
25.89593209792605
 20
19.74303699212089
 30
0.0
 10
26.3274265565324
 20
21.31343571995485
 30
0.0
 10
26.91110819817038
 20
21.86748925988501
 30
0.0
  0
SPLINE
  5
1B4
330
1F
100
AcDbEntity
  8
DEFAULT
100
AcDbSpline
210
0.0
220
0.0
230
1.0
 70
     8
 71
     3
 72
     9
 73
     5
 74
     0
 42
0.0000000001
 43
0.0000000001
 40
0.0
 40
0.0
 40
0.0
 40
0.0
 40
0.9999985642876146
 40
2.0
 40
2.0
 40
2.0
 40
2.0
 10
26.91110819817038
 20
21.86748925988501
 30
0.0
 10
27.08510723774168
 20
22.02902852694444
 30
0.0
 10
27.61238276523383
 20
22.22014310742541
 30
0.0
 10
27.60881326512308
 20
22.79681715497152
 30
0.0
 10
27.64342526338538
 20
23.02479488799001
 30
0.0
  0
SPLINE
  5
1B5
330
1F
100
AcDbEntity
  8
DEFAULT
100
AcDbSpline
210
0.0
220
0.0
230
1.0
 70
     8
 71
     3
 72
     9
 73
     5
 74
     0
 42
0.0000000001
 43
0.0000000001
 40
0.0
 40
0.0
 40
0.0
 40
0.0
 40
0.9999999089585676
 40
2.0
 40
2.0
 40
2.0
 40
2.0
 10
27.64342526338538
 20
23.02479488799001
 30
0.0
 10
27.65264235730956
 20
23.47972166652366
 30
0.0
 10
27.62987809900201
 20
24.39007994030331
 30
0.0
 10
27.58592035485981
 20
25.29918709770163
 30
0.0
 10
27.56341833192039
 20
25.75377846917502
 30
0.0
  0
SPLINE
  5
1B6
330
1F
100
AcDbEntity
  8
DEFAULT
100
AcDbSpline
210
0.0
220
0.0
230
1.0
 70
     8
 71
     3
 72
     9
 73
     5
 74
     0
 42
0.0000000001
 43
0.0000000001
 40
0.0
 40
0.0
 40
0.0
 40
0.0
 40
1.000022730311798
 40
2.0
 40
2.0
 40
2.0
 40
2.0
 10
27.56341833192039
 20
25.75377846917502
 30
0.0
 10
27.53986923466439
 20
26.04774254153554
 30
0.0
 10
27.51097088795441
 20
26.65898150887294
 30
0.0
 10
27.11371604137705
 20
27.16115484696383
 30
0.0
 10
26.81498903363538
 20
27.23961209972501
 30
0.0
  0
SPLINE
  5
1B7
330
1F
100
AcDbEntity
  8
DEFAULT
100
AcDbSpline
210
0.0
220
0.0
230
1.0
 70
     8
 71
     3
 72
     9
 73
     5
 74
     0
 42
0.0000000001
 43
0.0000000001
 40
0.0
 40
0.0
 40
0.0
 40
0.0
 40
0.9999825116577769
 40
2.0
 40
2.0
 40
2.0
 40
2.0
 10
26.81498903363538
 20
27.23961209972501
 30
0.0
 10
26.38592064127636
 20
27.36632838379346
 30
0.0
 10
25.50872369462328
 20
27.54657594678727
 30
0.0
 10
24.61989594884264
 20
27.64907060878421
 30
0.0
 10
24.17750394088537
 20
27.71372896663
 30
0.0
  0
SPLINE
  5
1B8
330
1F
100
AcDbEntity
  8
DEFAULT
100
AcDbSpline
210
0.0
220
0.0
230
1.0
 70
    24
 71
     2
 72
     6
 73
     3
 74
     0
 42
0.0000000001
 43
0.0000000001
 40
0.0
 40
0.0
 40
0.0
 40
1.0
 40
1.0
 40
1.0
 10
39.23942773909539
 20
1.441068000000001
 30
0.0
 10
39.23942773909539
 20
1.360298
 30
0.0
 10
39.23942773909539
 20
1.279527999999999
 30
0.0
  0
SPLINE
  5
1B9
330
1F
100
AcDbEntity
  8
DEFAULT
100
AcDbSpline
210
0.0
220
0.0
230
1.0
 70
    24
 71
     2
 72
     6
 73
     3
 74
     0
 42
0.0000000001
 43
0.0000000001
 40
0.0
 40
0.0
 40
0.0
 40
1.0
 40
1.0
 40
1.0
 10
27.31864573909539
 20
2.797449
 30
0.0
 10
27.31864823909538
 20
2.797449999999998
 30
0.0
 10
27.31865073909538
 20
2.797450999999995
 30
0.0
  0
SPLINE
  5
1BA
330
1F
100
AcDbEntity
  8
DEFAULT
100
AcDbSpline
210
0.0
220
0.0
230
1.0
 70
     8
 71
     3
 72
    10
 73
     6
 74
     0
 42
0.0000000001
 43
0.0000000001
 40
0.0
 40
0.0
 40
0.0
 40
0.0
 40
0.3334081987195
 40
0.6667405702355
 40
1.0
 40
1.0
 40
1.0
 40
1.0
 10
46.88644270622538
 20
1.632709662339991
 30
0.0
 10
46.88679596223537
 20
1.622588450259997
 30
0.0
 10
46.89287956321539
 20
1.60216301138
 30
0.0
 10
46.91563116549537
 20
1.580177131319999
 30
0.0
 10
46.93625200007537
 20
1.574803632149994
 30
0.0
 10
46.94637485614538
 20
1.574803632149994
 30
0.0
  0
ARC
  5
1BB
330
1F
100
AcDbEntity
  8
DEFAULT
100
AcDbCircle
 10
46.61305573909539
 20
1.644803999999993
 30
0.0
 40
0.0700001724710036
100
AcDbArc
 50
212.9717794996485
 51
270.0
  0
SPLINE
  5
1BC
330
1F
100
AcDbEntity
  8
DEFAULT
100
AcDbSpline
210
0.0
220
0.0
230
1.0
 70
    24
 71
     2
 72
     6
 73
     3
 74
     0
 42
0.0000000001
 43
0.0000000001
 40
0.0
 40
0.0
 40
0.0
 40
1.0
 40
1.0
 40
1.0
 10
36.99891373909537
 20
11.24685699999999
 30
0.0
 10
36.99891373909537
 20
10.61030649999999
 30
0.0
 10
36.99891373909537
 20
9.973755999999995
 30
0.0
  0
SPLINE
  5
1BD
330
1F
100
AcDbEntity
  8
DEFAULT
100
AcDbSpline
210
0.0
220
0.0
230
1.0
 70
     8
 71
     3
 72
     9
 73
     5
 74
     0
 42
0.0000000001
 43
0.0000000001
 40
0.0
 40
0.0
 40
0.0
 40
0.0
 40
1.0
 40
2.0
 40
2.0
 40
2.0
 40
2.0
 10
27.78983582637838
 20
2.798339719737001
 30
0.0
 10
27.71339350709178
 20
2.775795252672452
 30
0.0
 10
27.55476231550398
 20
2.764994933903381
 30
0.0
 10
27.39633201757658
 20
2.765340678883916
 30
0.0
 10
27.31712727971339
 20
2.768676004816996
 30
0.0
  0
SPLINE
  5
1BE
330
1F
100
AcDbEntity
  8
DEFAULT
100
AcDbSpline
210
0.0
220
0.0
230
1.0
 70
    24
 71
     2
 72
     6
 73
     3
 74
     0
 42
0.0000000001
 43
0.0000000001
 40
0.0
 40
0.0
 40
0.0
 40
1.0
 40
1.0
 40
1.0
 10
28.77515673909539
 20
13.389357
 30
0.0
 10
28.79605270931272
 20
13.35591648138978
 30
0.0
 10
28.81694867953004
 20
13.32247596277956
 30
0.0
  0
ARC
  5
1BF
330
1F
100
AcDbEntity
  8
DEFAULT
100
AcDbCircle
 10
29.01199986580801
 20
13.44435692976188
 30
0.0
 40
0.2299998595238275
100
AcDbArc
 50
211.99988562929
 51
269.9999684343347
  0
SPLINE
  5
1C0
330
1F
100
AcDbEntity
  8
DEFAULT
100
AcDbSpline
210
0.0
220
0.0
230
1.0
 70
    24
 71
     2
 72
     6
 73
     3
 74
     0
 42
0.0000000001
 43
0.0000000001
 40
-1.0
 40
-1.0
 40
-1.0
 40
0.0
 40
0.0
 40
0.0
 10
29.01199973909539
 20
13.21435707023808
 30
0.0
 10
36.44891323909539
 20
13.21435707023808
 30
0.0
 10
43.88582673909539
 20
13.21435707023808
 30
0.0
  0
ARC
  5
1C1
330
1F
100
AcDbEntity
  8
DEFAULT
100
AcDbCircle
 10
43.88582661238274
 20
13.4443569297619
 30
0.0
 40
0.2299998595238402
100
AcDbArc
 50
270.0000315656679
 51
328.0001143707096
  0
SPLINE
  5
1C2
330
1F
100
AcDbEntity
  8
DEFAULT
100
AcDbSpline
210
0.0
220
0.0
230
1.0
 70
    24
 71
     2
 72
     6
 73
     3
 74
     0
 42
0.0000000001
 43
0.0000000001
 40
-1.0
 40
-1.0
 40
-1.0
 40
0.0
 40
0.0
 40
0.0
 10
44.08087779866071
 20
13.32247596277956
 30
0.0
 10
44.10177376887805
 20
13.35591648138978
 30
0.0
 10
44.12266973909539
 20
13.389357
 30
0.0
  0
CIRCLE
  5
1C3
330
1F
100
AcDbEntity
  8
DEFAULT
100
AcDbCircle
 10
19.44693199999998
 20
0.0
 30
0.0
 40
1.0
  0
SPLINE
  5
1C4
330
1F
100
AcDbEntity
  8
DEFAULT
100
AcDbSpline
210
0.0
220
0.0
230
1.0
 70
    24
 71
     2
 72
     6
 73
     3
 74
     0
 42
0.0000000001
 43
0.0000000001
 40
0.0
 40
0.0
 40
0.0
 40
1.0
 40
1.0
 40
1.0
 10
10.30338
 20
11.337458
 30
0.0
 10
10.30338
 20
11.3171575
 30
0.0
 10
10.30338
 20
11.296857
 30
0.0
  0
ARC
  5
1C5
330
1F
100
AcDbEntity
  8
DEFAULT
100
AcDbCircle
 10
1.038561000049356
 20
50.35689928140032
 30
0.0
 40
0.2362210042417925
100
AcDbArc
 50
0.0
 51
85.33957013679564
  0
SPLINE
  5
1C6
330
1F
100
AcDbEntity
  8
DEFAULT
100
AcDbSpline
210
0.0
220
0.0
230
1.0
 70
     8
 71
     3
 72
    10
 73
     6
 74
     0
 42
0.0000000001
 43
0.0000000001
 40
0.0
 40
0.0
 40
0.0
 40
0.0
 40
0.4283511036586
 40
0.8571038310804
 40
1.0
 40
1.0
 40
1.0
 40
1.0
 10
0.9978667746513565
 20
36.46478754699031
 30
0.0
 10
0.9832863703193482
 20
36.45493722778032
 30
0.0
 10
0.9511414572663455
 20
36.43927481928031
 30
0.0
 10
0.9101747479533344
 20
36.43210632441031
 30
0.0
 10
0.8865940572413535
 20
36.43240132127032
 30
0.0
 10
0.88071508323236
 20
36.43274646558031
 30
0.0
  0
SPLINE
  5
1C7
330
1F
100
AcDbEntity
  8
DEFAULT
100
AcDbSpline
210
0.0
220
0.0
230
1.0
 70
    24
 71
     2
 72
     6
 73
     3
 74
     0
 42
0.0000000001
 43
0.0000000001
 40
-1.0
 40
-1.0
 40
-1.0
 40
0.0
 40
0.0
 40
0.0
 10
44.23016973909537
 20
13.389357
 30
0.0
 10
44.36446917564852
 20
13.60428153964627
 30
0.0
 10
44.49876861220167
 20
13.81920607929253
 30
0.0
  0
ARC
  5
1C8
330
1F
100
AcDbEntity
  8
DEFAULT
100
AcDbCircle
 10
44.21891355615244
 20
13.99407972378857
 30
0.0
 40
0.3299994605081066
100
AcDbArc
 50
327.9998826494996
 51
16.62705623837162
  0
ARC
  5
1C9
330
1F
100
AcDbEntity
  8
DEFAULT
100
AcDbCircle
 10
41.22936518174851
 20
13.1013155073101
 30
0.0
 40
3.450003856198021
100
AcDbArc
 50
16.62711566253552
 51
42.81730653986595
  0
ARC
  5
1CA
330
1F
100
AcDbEntity
  8
DEFAULT
100
AcDbCircle
 10
43.31991355884242
 20
15.0383578823275
 30
0.0
 40
0.5999993510115813
100
AcDbArc
 50
42.81730060376194
 51
86.3989586662215
  0
ARC
  5
1CB
330
1F
100
AcDbEntity
  8
DEFAULT
100
AcDbCircle
 10
36.44865873918732
 20
-94.14559534934045
 30
0.0
 40
109.9999526695194
100
AcDbArc
 50
86.39896361006052
 51
89.99986717795502
  0
ARC
  5
1CC
330
1F
100
AcDbEntity
  8
DEFAULT
100
AcDbCircle
 10
36.44916773916447
 20
-94.14568028151871
 30
0.0
 40
110.0000376016953
100
AcDbArc
 50
90.0001323011549
 51
93.60103361145453
  0
ARC
  5
1CD
330
1F
100
AcDbEntity
  8
DEFAULT
100
AcDbCircle
 10
29.57791351128367
 20
15.0383576886387
 30
0.0
 40
0.5999997491751065
100
AcDbArc
 50
93.6010965861326
 51
137.182724247455
  0
ARC
  5
1CE
330
1F
100
AcDbEntity
  8
DEFAULT
100
AcDbCircle
 10
31.66845953475635
 20
13.10131615693635
 30
0.0
 40
3.450001954752505
100
AcDbArc
 50
137.1826814888866
 51
163.3728863033159
  0
ARC
  5
1CF
330
1F
100
AcDbEntity
  8
DEFAULT
100
AcDbCircle
 10
28.67891391309419
 20
13.99407979006394
 30
0.0
 40
0.3300003636263555
100
AcDbArc
 50
163.3730040238575
 51
212.0000359252183
  0
SPLINE
  5
1D0
330
1F
100
AcDbEntity
  8
DEFAULT
100
AcDbSpline
210
0.0
220
0.0
230
1.0
 70
    24
 71
     2
 72
     6
 73
     3
 74
     0
 42
0.0000000001
 43
0.0000000001
 40
0.0
 40
0.0
 40
0.0
 40
1.0
 40
1.0
 40
1.0
 10
28.39905784263803
 20
13.81920606470084
 30
0.0
 10
28.5333572908667
 20
13.60428153235042
 30
0.0
 10
28.66765673909538
 20
13.389357
 30
0.0
  0
SPLINE
  5
1D1
330
1F
100
AcDbEntity
  8
DEFAULT
100
AcDbSpline
210
0.0
220
0.0
230
1.0
 70
    24
 71
     2
 72
     6
 73
     3
 74
     0
 42
0.0000000001
 43
0.0000000001
 40
0.8510900741627315
 40
0.8510900741627315
 40
0.8510900741627315
 40
1.0
 40
1.0
 40
1.0
 10
12.76697772677633
 20
51.21607518272238
 30
0.0
 10
12.70765186341283
 20
51.00778973206134
 30
0.0
 10
12.64832600004934
 20
50.7995042814003
 30
0.0
  0
SPLINE
  5
1D2
330
1F
100
AcDbEntity
  8
DEFAULT
100
AcDbSpline
210
0.0
220
0.0
230
1.0
 70
     8
 71
     3
 72
     8
 73
     4
 74
     0
 42
0.0000000001
 43
0.0000000001
 40
0.0
 40
0.0
 40
0.0
 40
0.0
 40
0.055013661607921
 40
0.055013661607921
 40
0.055013661607921
 40
0.055013661607921
 10
11.57920600004934
 20
51.14697328140032
 30
0.0
 10
11.59769832409668
 20
51.19743508230637
 30
0.0
 10
11.61618538768863
 20
51.24789904112846
 30
0.0
 10
11.63466805900515
 20
51.29836480169253
 30
0.0
  0
SPLINE
  5
1D3
330
1F
100
AcDbEntity
  8
DEFAULT
100
AcDbSpline
210
0.0
220
0.0
230
1.0
 70
    24
 71
     2
 72
     6
 73
     3
 74
     0
 42
0.0000000001
 43
0.0000000001
 40
-1.0
 40
-1.0
 40
-1.0
 40
0.0
 40
0.0
 40
0.0
 10
17.39838599999996
 20
13.389357
 30
0.0
 10
17.53268543655311
 20
13.60428153964627
 30
0.0
 10
17.66698487310626
 20
13.81920607929253
 30
0.0
  0
ARC
  5
1D4
330
1F
100
AcDbEntity
  8
DEFAULT
100
AcDbCircle
 10
17.38712981705703
 20
13.99407972378857
 30
0.0
 40
0.3299994605081066
100
AcDbArc
 50
327.9998826494996
 51
16.62705623837144
  0
ARC
  5
1D5
330
1F
100
AcDbEntity
  8
DEFAULT
100
AcDbCircle
 10
14.39758144265309
 20
13.1013155073101
 30
0.0
 40
3.450003856198021
100
AcDbArc
 50
16.62711566253549
 51
42.81730653986593
  0
ARC
  5
1D6
330
1F
100
AcDbEntity
  8
DEFAULT
100
AcDbCircle
 10
16.488129819747
 20
15.0383578823275
 30
0.0
 40
0.5999993510115813
100
AcDbArc
 50
42.81730060376216
 51
86.3989586662215
  0
ARC
  5
1D7
330
1F
100
AcDbEntity
  8
DEFAULT
100
AcDbCircle
 10
9.616875000091909
 20
-94.14559534934045
 30
0.0
 40
109.9999526695194
100
AcDbArc
 50
86.39896361006052
 51
89.99986717795502
  0
ARC
  5
1D8
330
1F
100
AcDbEntity
  8
DEFAULT
100
AcDbCircle
 10
9.61738400006908
 20
-94.14568028151871
 30
0.0
 40
110.0000376016953
100
AcDbArc
 50
90.00013230115653
 51
93.60103361145616
  0
ARC
  5
1D9
330
1F
100
AcDbEntity
  8
DEFAULT
100
AcDbCircle
 10
2.746129772188283
 20
15.0383576886387
 30
0.0
 40
0.5999997491751065
100
AcDbArc
 50
93.60109658613247
 51
137.182724247455
  0
ARC
  5
1DA
330
1F
100
AcDbEntity
  8
DEFAULT
100
AcDbCircle
 10
4.836675795660938
 20
13.10131615693635
 30
0.0
 40
3.450001954752505
100
AcDbArc
 50
137.1826814888855
 51
163.3728863033148
  0
ARC
  5
1DB
330
1F
100
AcDbEntity
  8
DEFAULT
100
AcDbCircle
 10
1.847130173998778
 20
13.99407979006394
 30
0.0
 40
0.3300003636263555
100
AcDbArc
 50
163.3730040238584
 51
212.0000359252194
  0
SPLINE
  5
1DC
330
1F
100
AcDbEntity
  8
DEFAULT
100
AcDbSpline
210
0.0
220
0.0
230
1.0
 70
    24
 71
     2
 72
     6
 73
     3
 74
     0
 42
0.0000000001
 43
0.0000000001
 40
0.0
 40
0.0
 40
0.0
 40
1.0
 40
1.0
 40
1.0
 10
1.567274103542616
 20
13.81920606470084
 30
0.0
 10
1.701573551771304
 20
13.60428153235042
 30
0.0
 10
1.835872999999992
 20
13.389357
 30
0.0
  0
SPLINE
  5
1DD
330
1F
100
AcDbEntity
  8
DEFAULT
100
AcDbSpline
210
0.0
220
0.0
230
1.0
 70
    24
 71
     2
 72
     6
 73
     3
 74
     0
 42
0.0000000001
 43
0.0000000001
 40
0.0
 40
0.0
 40
0.0
 40
1.0
 40
1.0
 40
1.0
 10
12.65862899999996
 20
1.574804
 30
0.0
 10
12.65862899999996
 20
1.515748500000001
 30
0.0
 10
12.65862899999996
 20
1.456693000000001
 30
0.0
  0
ARC
  5
1DE
330
1F
100
AcDbEntity
  8
DEFAULT
100
AcDbCircle
 10
0.4044039999999995
 20
1.441068000000001
 30
0.0
 40
0.015625
100
AcDbArc
 50
90.0
 51
180.0
  0
ARC
  5
1DF
330
1F
100
AcDbEntity
  8
DEFAULT
100
AcDbCircle
 10
9.417782999999986
 20
-87.525449
 30
0.0
 40
90.00000008861713
100
AcDbArc
 50
83.77635464235605
 51
87.43672945249743
  0
SPLINE
  5
1E0
330
1F
100
AcDbEntity
  8
DEFAULT
100
AcDbSpline
210
0.0
220
0.0
230
1.0
 70
    24
 71
     2
 72
     6
 73
     3
 74
     0
 42
0.0000000001
 43
0.0000000001
 40
0.0
 40
0.0
 40
0.0
 40
1.0
 40
1.0
 40
1.0
 10
8.930880000000002
 20
11.337458
 30
0.0
 10
8.930880000000002
 20
11.3171575
 30
0.0
 10
8.930880000000002
 20
11.296857
 30
0.0
  0
SPLINE
  5
1E1
330
1F
100
AcDbEntity
  8
DEFAULT
100
AcDbSpline
210
0.0
220
0.0
230
1.0
 70
    24
 71
     2
 72
     6
 73
     3
 74
     0
 42
0.0000000001
 43
0.0000000001
 40
0.0
 40
0.0
 40
0.0
 40
1.0
 40
1.0
 40
1.0
 10
1.943373000000008
 20
13.389357
 30
0.0
 10
1.964268970217319
 20
13.35591648138978
 30
0.0
 10
1.985164940434629
 20
13.32247596277956
 30
0.0
  0
ARC
  5
1E2
330
1F
100
AcDbEntity
  8
DEFAULT
100
AcDbCircle
 10
2.180216126712594
 20
13.44435692976188
 30
0.0
 40
0.2299998595238275
100
AcDbArc
 50
211.9998856292909
 51
269.9999684343358
  0
SPLINE
  5
1E3
330
1F
100
AcDbEntity
  8
DEFAULT
100
AcDbSpline
210
0.0
220
0.0
230
1.0
 70
    24
 71
     2
 72
     6
 73
     3
 74
     0
 42
0.0000000001
 43
0.0000000001
 40
-1.0
 40
-1.0
 40
-1.0
 40
0.0
 40
0.0
 40
0.0
 10
2.180215999999973
 20
13.21435707023808
 30
0.0
 10
9.617129499999976
 20
13.21435707023808
 30
0.0
 10
17.05404299999998
 20
13.21435707023808
 30
0.0
  0
ARC
  5
1E4
330
1F
100
AcDbEntity
  8
DEFAULT
100
AcDbCircle
 10
17.05404287328733
 20
13.4443569297619
 30
0.0
 40
0.2299998595238402
100
AcDbArc
 50
270.0000315656671
 51
328.0001143707091
  0
SPLINE
  5
1E5
330
1F
100
AcDbEntity
  8
DEFAULT
100
AcDbSpline
210
0.0
220
0.0
230
1.0
 70
    24
 71
     2
 72
     6
 73
     3
 74
     0
 42
0.0000000001
 43
0.0000000001
 40
-1.0
 40
-1.0
 40
-1.0
 40
0.0
 40
0.0
 40
0.0
 10
17.24909405956529
 20
13.32247596277956
 30
0.0
 10
17.26999002978263
 20
13.35591648138978
 30
0.0
 10
17.29088599999997
 20
13.389357
 30
0.0
  0
SPLINE
  5
1E6
330
1F
100
AcDbEntity
  8
DEFAULT
100
AcDbSpline
210
0.0
220
0.0
230
1.0
 70
    24
 71
     2
 72
     6
 73
     3
 74
     0
 42
0.0000000001
 43
0.0000000001
 40
0.0
 40
0.0
 40
0.0
 40
1.0
 40
1.0
 40
1.0
 10
12.40764399999998
 20
1.441068000000001
 30
0.0
 10
12.40764399999998
 20
1.360298
 30
0.0
 10
12.40764399999998
 20
1.279527999999999
 30
0.0
  0
SPLINE
  5
1E7
330
1F
100
AcDbEntity
  8
DEFAULT
100
AcDbSpline
210
0.0
220
0.0
230
1.0
 70
     8
 71
     3
 72
     8
 73
     4
 74
     0
 42
0.0000000001
 43
0.0000000001
 40
0.0
 40
0.0
 40
0.0
 40
0.0
 40
0.8409155661108819
 40
0.8409155661108819
 40
0.8409155661108819
 40
0.8409155661108819
 10
30.28602763645839
 20
13.21316063682799
 30
0.0
 10
31.38938748808422
 20
13.19558926908392
 30
0.0
 10
32.85334369356892
 20
12.97586407802278
 30
0.0
 10
34.63140909104419
 20
11.98846976177113
 30
0.0
  0
SPLINE
  5
1E8
330
1F
100
AcDbEntity
  8
DEFAULT
100
AcDbSpline
210
0.0
220
0.0
230
1.0
 70
     8
 71
     3
 72
     8
 73
     4
 74
     0
 42
0.0000000001
 43
0.0000000001
 40
0.9408887256975499
 40
0.9408887256975499
 40
0.9408887256975499
 40
0.9408887256975499
 40
1.0
 40
1.0
 40
1.0
 40
1.0
 10
35.27881144511221
 20
11.60280669969114
 30
0.0
 10
35.40900249733892
 20
11.52000622171661
 30
0.0
 10
35.54071832952371
 20
11.43308029823699
 30
0.0
 10
35.67394279485339
 20
11.34183250362399
 30
0.0
  0
SPLINE
  5
1E9
330
1F
100
AcDbEntity
  8
DEFAULT
100
AcDbSpline
210
0.0
220
0.0
230
1.0
 70
     8
 71
     3
 72
     8
 73
     4
 74
     0
 42
0.0000000001
 43
0.0000000001
 40
0.9529520386703998
 40
0.9529520386703998
 40
0.9529520386703998
 40
0.9529520386703998
 40
1.0
 40
1.0
 40
1.0
 40
1.0
 10
37.53911725481112
 20
11.55159630478146
 30
0.0
 10
37.43500053192008
 20
11.48434688099887
 30
0.0
 10
37.32991996096723
 20
11.41445862720235
 30
0.0
 10
37.22388368333739
 20
11.34183250362399
 30
0.0
  0
SPLINE
  5
1EA
330
1F
100
AcDbEntity
  8
DEFAULT
100
AcDbSpline
210
0.0
220
0.0
230
1.0
 70
     8
 71
     3
 72
     8
 73
     4
 74
     0
 42
0.0000000001
 43
0.0000000001
 40
0.0
 40
0.0
 40
0.0
 40
0.0
 40
0.8574165979482922
 40
0.8574165979482922
 40
0.8574165979482922
 40
0.8574165979482922
 10
42.61179884173239
 20
13.21316063682799
 30
0.0
 10
41.48678809342496
 20
13.19524447144876
 30
0.0
 10
39.98689039714421
 20
12.96716303669425
 30
0.0
 10
38.16138357623879
 20
11.92945269514792
 30
0.0
  0
SPLINE
  5
1EB
330
1F
100
AcDbEntity
  8
DEFAULT
100
AcDbSpline
210
0.0
220
0.0
230
1.0
 70
     8
 71
     3
 72
     8
 73
     4
 74
     0
 42
0.0000000001
 43
0.0000000001
 40
0.0
 40
0.0
 40
0.0
 40
0.0
 40
1.0
 40
1.0
 40
1.0
 40
1.0
 10
0.449794178232338
 20
37.19083333531032
 30
0.0
 10
0.4538539035003453
 20
37.19462783683032
 30
0.0
 10
0.458076809591347
 20
37.19823886220031
 30
0.0
 10
0.4624452956523442
 20
37.20164763347032
 30
0.0
  0
ARC
  5
1EC
330
1F
100
AcDbEntity
  8
DEFAULT
100
AcDbCircle
 10
0.9204510000493542
 20
49.60885928140031
 30
0.0
 40
0.5364169213292546
100
AcDbArc
 50
25.95700397527346
 51
89.76415820922506
  0
ARC
  5
1ED
330
1F
100
AcDbEntity
  8
DEFAULT
100
AcDbCircle
 10
46.27871573909539
 20
0.0
 30
0.0
 40
1.279527939310224
100
AcDbArc
 50
15.76206956729274
 51
18.5756033351671
  0
SPLINE
  5
1EE
330
1F
100
AcDbEntity
  8
DEFAULT
100
AcDbSpline
210
0.0
220
0.0
230
1.0
 70
     8
 71
     3
 72
    10
 73
     6
 74
     0
 42
0.0000000001
 43
0.0000000001
 40
0.0
 40
0.0
 40
0.0
 40
0.0
 40
0.3415628690301
 40
0.6759514705783
 40
1.0
 40
1.0
 40
1.0
 40
1.0
 10
36.06373066955538
 20
4.227643913922989
 30
0.0
 10
36.06353364804536
 20
4.238039358083995
 30
0.0
 10
36.06834589610537
 20
4.259064678979996
 30
0.0
 10
36.08930920072538
 20
4.282866337741993
 30
0.0
 10
36.10954208981539
 20
4.289386926784999
 30
0.0
 10
36.11940229976537
 20
4.289666319490991
 30
0.0
  0
SPLINE
  5
1EF
330
1F
100
AcDbEntity
  8
DEFAULT
100
AcDbSpline
210
0.0
220
0.0
230
1.0
 70
     8
 71
     3
 72
    24
 73
    20
 74
     0
 42
0.0000000001
 43
0.0000000001
 40
0.0
 40
0.0
 40
0.0
 40
0.0
 40
1.0
 40
2.0
 40
3.0
 40
4.0
 40
5.0
 40
6.0
 40
7.0
 40
8.0
 40
9.0
 40
10.0
 40
11.0
 40
12.0
 40
13.0
 40
14.0
 40
15.0
 40
16.0
 40
17.0
 40
17.0
 40
17.0
 40
17.0
 10
1.723260000049351
 20
45.09552828140032
 30
0.0
 10
1.62858578236731
 20
45.13409717433716
 30
0.0
 10
1.414201775793885
 20
45.11385834091359
 30
0.0
 10
1.183301123884348
 20
44.90607667103951
 30
0.0
 10
1.034293859699744
 20
44.64165533650318
 30
0.0
 10
0.9068290858654109
 20
44.36759439848204
 30
0.0
 10
0.8005337073956014
 20
44.08432649850224
 30
0.0
 10
0.7075627343827477
 20
43.79660544928713
 30
0.0
 10
0.6291821651286966
 20
43.50452354321421
 30
0.0
 10
0.565156355970629
 20
43.20897929786129
 30
0.0
 10
0.5162674158834761
 20
42.91048315996349
 30
0.0
 10
0.482767218052345
 20
42.61014688471717
 30
0.0
 10
0.4712335817665974
 20
42.30684576418658
 30
0.0
 10
0.4954808040087357
 20
42.00798686638454
 30
0.0
 10
0.5447990918816856
 20
41.69922526864217
 30
0.0
 10
0.800597264485333
 20
41.49128945624616
 30
0.0
 10
1.112662643870351
 20
41.58957389091233
 30
0.0
 10
1.374992092268627
 20
41.72742548145034
 30
0.0
 10
1.556812612769647
 20
41.81830309206971
 30
0.0
 10
1.645751000049358
 20
41.86508928140032
 30
0.0
  0
ARC
  5
1F0
330
1F
100
AcDbEntity
  8
DEFAULT
100
AcDbCircle
 10
0.9204510000493542
 20
36.97147628140031
 30
0.0
 40
0.5364176929571642
100
AcDbArc
 50
171.8583419509514
 51
260.257054140064
  0
SPLINE
  5
1F1
330
1F
100
AcDbEntity
  8
DEFAULT
100
AcDbSpline
210
0.0
220
0.0
230
1.0
 70
    24
 71
     2
 72
     6
 73
     3
 74
     0
 42
0.0000000001
 43
0.0000000001
 40
0.0
 40
0.0
 40
0.0
 40
1.0
 40
1.0
 40
1.0
 10
47.74032973909539
 20
1.441068000000001
 30
0.0
 10
47.74032973909539
 20
0.9929814999999991
 30
0.0
 10
47.74032973909539
 20
0.5448949999999968
 30
0.0
  0
SPLINE
  5
1F2
330
1F
100
AcDbEntity
  8
DEFAULT
100
AcDbSpline
210
0.0
220
0.0
230
1.0
 70
    24
 71
     2
 72
     6
 73
     3
 74
     0
 42
0.0000000001
 43
0.0000000001
 40
0.0
 40
0.0
 40
0.0
 40
1.0
 40
1.0
 40
1.0
 10
36.06758573909539
 20
4.007722000000001
 30
0.0
 10
36.06565823909538
 20
4.117683
 30
0.0
 10
36.06373073909538
 20
4.227643999999998
 30
0.0
  0
CIRCLE
  5
1F3
330
1F
100
AcDbEntity
  8
DEFAULT
100
AcDbCircle
 10
38.85064873909539
 20
0.0
 30
0.0
 40
1.279528000000001
  0
SPLINE
  5
1F4
330
1F
100
AcDbEntity
  8
DEFAULT
100
AcDbSpline
210
0.0
220
0.0
230
1.0
 70
    24
 71
     2
 72
     6
 73
     3
 74
     0
 42
0.0000000001
 43
0.0000000001
 40
0.0
 40
0.0
 40
0.0
 40
1.0
 40
1.0
 40
1.0
 10
40.06127873909537
 20
1.574804
 30
0.0
 10
40.06127873909537
 20
1.515748500000001
 30
0.0
 10
40.06127873909537
 20
1.456693000000001
 30
0.0
  0
ARC
  5
1F5
330
1F
100
AcDbEntity
  8
DEFAULT
100
AcDbCircle
 10
47.72470473909539
 20
1.441068000000001
 30
0.0
 40
0.015625
100
AcDbArc
 50
0.0
 51
90.0
  0
CIRCLE
  5
1F6
330
1F
100
AcDbEntity
  8
DEFAULT
100
AcDbCircle
 10
26.83178373909539
 20
0.0
 30
0.0
 40
1.279528000000001
  0
ARC
  5
1F7
330
1F
100
AcDbEntity
  8
DEFAULT
100
AcDbCircle
 10
46.68311973909539
 20
1.441068000000001
 30
0.0
 40
0.015625
100
AcDbArc
 50
90.0
 51
180.0
  0
SPLINE
  5
1F8
330
1F
100
AcDbEntity
  8
DEFAULT
100
AcDbSpline
210
0.0
220
0.0
230
1.0
 70
     8
 71
     3
 72
     9
 73
     5
 74
     0
 42
0.0000000001
 43
0.0000000001
 40
0.0
 40
0.0
 40
0.0
 40
0.0
 40
1.000000115485941
 40
2.0
 40
2.0
 40
2.0
 40
2.0
 10
39.21384173909539
 20
2.60146499999999
 30
0.0
 10
39.23089319998689
 20
2.574127984616013
 30
0.0
 10
39.24764187981586
 20
2.511463308169638
 30
0.0
 10
39.25513095936972
 20
2.44789504975401
 30
0.0
 10
39.25655823909537
 20
2.415829000000002
 30
0.0
  0
SPLINE
  5
1F9
330
1F
100
AcDbEntity
  8
DEFAULT
100
AcDbSpline
210
0.0
220
0.0
230
1.0
 70
    24
 71
     2
 72
     6
 73
     3
 74
     0
 42
0.0000000001
 43
0.0000000001
 40
0.0
 40
0.0
 40
0.0
 40
1.0
 40
1.0
 40
1.0
 10
39.25655823909537
 20
2.415829000000002
 30
0.0
 10
39.27434444980653
 20
2.023956498217061
 30
0.0
 10
39.2921306605177
 20
1.632083996434119
 30
0.0
  0
ARC
  5
1FA
330
1F
100
AcDbEntity
  8
DEFAULT
100
AcDbCircle
 10
39.35206882146244
 20
1.63480392134403
 30
0.0
 40
0.0599998427410689
100
AcDbArc
 50
182.598234190645
 51
269.9975340146277
  0
SPLINE
  5
1FB
330
1F
100
AcDbEntity
  8
DEFAULT
100
AcDbSpline
210
0.0
220
0.0
230
1.0
 70
    24
 71
     2
 72
     6
 73
     3
 74
     0
 42
0.0000000001
 43
0.0000000001
 40
0.0
 40
0.0
 40
0.0
 40
1.0
 40
1.0
 40
1.0
 10
39.35206623909539
 20
1.574804078658531
 30
0.0
 10
39.76762198909539
 20
1.574804088336712
 30
0.0
 10
40.18317773909538
 20
1.574804098014894
 30
0.0
  0
ARC
  5
1FC
330
1F
100
AcDbEntity
  8
DEFAULT
100
AcDbCircle
 10
40.18317763688646
 20
1.634804423377844
 30
0.0
 40
0.0600003253630366
100
AcDbArc
 50
270.0000976017951
 51
357.6001198212153
  0
SPLINE
  5
1FD
330
1F
100
AcDbEntity
  8
DEFAULT
100
AcDbSpline
210
0.0
220
0.0
230
1.0
 70
    24
 71
     2
 72
     6
 73
     3
 74
     0
 42
0.0000000001
 43
0.0000000001
 40
0.0
 40
0.0
 40
0.0
 40
1.0
 40
1.0
 40
1.0
 10
40.24312533702434
 20
1.632291995896409
 30
0.0
 10
40.26605603805986
 20
2.180653997948205
 30
0.0
 10
40.28898673909538
 20
2.729016000000001
 30
0.0
  0
SPLINE
  5
1FE
330
1F
100
AcDbEntity
  8
DEFAULT
100
AcDbSpline
210
0.0
220
0.0
230
1.0
 70
     8
 71
     3
 72
     9
 73
     5
 74
     0
 42
0.0000000001
 43
0.0000000001
 40
0.0
 40
0.0
 40
0.0
 40
0.0
 40
0.9999377902530446
 40
2.0
 40
2.0
 40
2.0
 40
2.0
 10
40.28898673909538
 20
2.729016000000001
 30
0.0
 10
40.28918266417924
 20
2.739728213790485
 30
0.0
 10
40.28485053373643
 20
2.761353775542503
 30
0.0
 10
40.27118456028518
 20
2.778628490951661
 30
0.0
 10
40.26303473909539
 20
2.785572999999999
 30
0.0
  0
SPLINE
  5
1FF
330
1F
100
AcDbEntity
  8
DEFAULT
100
AcDbSpline
210
0.0
220
0.0
230
1.0
 70
    24
 71
     2
 72
     6
 73
     3
 74
     0
 42
0.0000000001
 43
0.0000000001
 40
0.0
 40
0.0
 40
0.0
 40
1.0
 40
1.0
 40
1.0
 10
47.51887273909537
 20
0.3149609999999967
 30
0.0
 10
47.53855823909538
 20
0.3149609999999967
 30
0.0
 10
47.55824373909539
 20
0.3149609999999967
 30
0.0
  0
ARC
  5
200
330
1F
100
AcDbEntity
  8
DEFAULT
100
AcDbCircle
 10
26.83178373909539
 20
0.0
 30
0.0
 40
1.279527939310224
100
AcDbArc
 50
15.7620695672927
 51
18.57560333516714
  0
ARC
  5
201
330
1F
100
AcDbEntity
  8
DEFAULT
100
AcDbCircle
 10
1.038561000049356
 20
37.71951628140032
 30
0.0
 40
0.2362208002419703
100
AcDbArc
 50
25.37306874266321
 51
85.3395701367955
  0
SPLINE
  5
202
330
1F
100
AcDbEntity
  8
DEFAULT
100
AcDbSpline
210
0.0
220
0.0
230
1.0
 70
     8
 71
     3
 72
     9
 73
     5
 74
     0
 42
0.0000000001
 43
0.0000000001
 40
0.0
 40
0.0
 40
0.0
 40
0.0
 40
0.3275070810799
 40
1.0
 40
1.0
 40
1.0
 40
1.0
 10
0.416134321224348
 20
37.14893518478031
 30
0.0
 10
0.4191303862143343
 20
37.15399866073031
 30
0.0
 10
0.4289996733973567
 20
37.16903802454031
 30
0.0
 10
0.4409721843123577
 20
37.18258768639031
 30
0.0
 10
0.449794178232338
 20
37.19083333531032
 30
0.0
  0
SPLINE
  5
203
330
1F
100
AcDbEntity
  8
DEFAULT
100
AcDbSpline
210
0.0
220
0.0
230
1.0
 70
     8
 71
     3
 72
     9
 73
     5
 74
     0
 42
0.0000000001
 43
0.0000000001
 40
0.0
 40
0.0
 40
0.0
 40
0.0
 40
0.5003465925173
 40
1.0
 40
1.0
 40
1.0
 40
1.0
 10
0.88071508323236
 20
36.43274646558031
 30
0.0
 10
0.86896481218335
 20
36.43343630350032
 30
0.0
 10
0.8456045918923394
 20
36.43698191428031
 30
0.0
 10
0.8233108671663558
 20
36.44475979846031
 30
0.0
 10
0.8126144801993576
 20
36.44963247602031
 30
0.0
  0
SPLINE
  5
204
330
1F
100
AcDbEntity
  8
DEFAULT
100
AcDbSpline
210
0.0
220
0.0
230
1.0
 70
    24
 71
     2
 72
     6
 73
     3
 74
     0
 42
0.0000000001
 43
0.0000000001
 40
0.0
 40
0.0
 40
0.0
 40
1.0
 40
1.0
 40
1.0
 10
12.01411900004936
 20
32.70693928140031
 30
0.0
 10
12.01411900004936
 20
33.06630978140031
 30
0.0
 10
12.01411900004936
 20
33.42568028140032
 30
0.0
  0
SPLINE
  5
205
330
1F
100
AcDbEntity
  8
DEFAULT
100
AcDbSpline
210
0.0
220
0.0
230
1.0
 70
    24
 71
     2
 72
     6
 73
     3
 74
     0
 42
0.0000000001
 43
0.0000000001
 40
0.0
 40
0.0
 40
0.0
 40
1.0
 40
1.0
 40
1.0
 10
1.274782000049356
 20
50.35689928140032
 30
0.0
 10
1.274782000049356
 20
50.20925678140031
 30
0.0
 10
1.274782000049356
 20
50.06161428140031
 30
0.0
  0
ARC
  5
206
330
1F
100
AcDbEntity
  8
DEFAULT
100
AcDbCircle
 10
12.93931600004936
 20
33.06631028140031
 30
0.0
 40
0.5364171269626883
100
AcDbArc
 50
169.9322926763974
 51
233.7404372445395
  0
ARC
  5
207
330
1F
100
AcDbEntity
  8
DEFAULT
100
AcDbCircle
 10
-1.048052999950642
 20
36.22343528140031
 30
0.0
 40
0.2362210042417907
100
AcDbArc
 50
180.0
 51
265.3395701367955
  0
SPLINE
  5
208
330
1F
100
AcDbEntity
  8
DEFAULT
100
AcDbSpline
210
0.0
220
0.0
230
1.0
 70
    24
 71
     2
 72
     6
 73
     3
 74
     0
 42
0.0000000001
 43
0.0000000001
 40
0.0
 40
0.0
 40
0.0
 40
1.0
 40
1.0
 40
1.0
 10
-1.284273999950642
 20
37.71951628140032
 30
0.0
 10
-1.284273999950642
 20
37.57187428140031
 30
0.0
 10
-1.284273999950642
 20
37.42423228140031
 30
0.0
  0
SPLINE
  5
209
330
1F
100
AcDbEntity
  8
DEFAULT
100
AcDbSpline
210
0.0
220
0.0
230
1.0
 70
     8
 71
     3
 72
     9
 73
     5
 74
     0
 42
0.0000000001
 43
0.0000000001
 40
0.0
 40
0.0
 40
0.0
 40
0.0
 40
0.400659934113
 40
1.0
 40
1.0
 40
1.0
 40
1.0
 10
0.3896396528603532
 20
49.53258586665031
 30
0.0
 10
0.3898906635883463
 20
49.54431852361031
 30
0.0
 10
0.3932085680593502
 20
49.57354825021031
 30
0.0
 10
0.4031682640313363
 20
49.60146791456032
 30
0.0
 10
0.4112641911573576
 20
49.61698665043032
 30
0.0
  0
SPLINE
  5
20A
330
1F
100
AcDbEntity
  8
DEFAULT
100
AcDbSpline
210
0.0
220
0.0
230
1.0
 70
    24
 71
     2
 72
     6
 73
     3
 74
     0
 42
0.0000000001
 43
0.0000000001
 40
0.0
 40
0.0
 40
0.0
 40
1.0
 40
1.0
 40
1.0
 10
-1.284273999950642
 20
49.15610328140032
 30
0.0
 10
-1.284273999950642
 20
49.00846078140032
 30
0.0
 10
-1.284273999950642
 20
48.86081828140031
 30
0.0
  0
SPLINE
  5
20B
330
1F
100
AcDbEntity
  8
DEFAULT
100
AcDbSpline
210
0.0
220
0.0
230
1.0
 70
     8
 71
     3
 72
     9
 73
     5
 74
     0
 42
0.0000000001
 43
0.0000000001
 40
0.0
 40
0.0
 40
0.0
 40
0.0
 40
0.5991008538013
 40
1.0
 40
1.0
 40
1.0
 40
1.0
 10
0.4112700712213382
 20
36.96333680964031
 30
0.0
 10
0.4031768246923377
 20
36.97885144418031
 30
0.0
 10
0.393211291833353
 20
37.00677218062032
 30
0.0
 10
0.3898908383153525
 20
37.03600554388031
 30
0.0
 10
0.3896395933653594
 20
37.04774672982032
 30
0.0
  0
ARC
  5
20C
330
1F
100
AcDbEntity
  8
DEFAULT
100
AcDbCircle
 10
-1.225217999950644
 20
36.51872028140032
 30
0.0
 40
0.0590555000000004
100
AcDbArc
 50
90.0
 51
180.0
  0
ARC
  5
20D
330
1F
100
AcDbEntity
  8
DEFAULT
100
AcDbCircle
 10
0.9204510000493542
 20
36.97147628140031
 30
0.0
 40
0.5364172339838719
100
AcDbArc
 50
270.2356277291128
 51
334.043808538358
  0
ARC
  5
20E
330
1F
100
AcDbEntity
  8
DEFAULT
100
AcDbCircle
 10
12.93931600004936
 20
33.06631028140031
 30
0.0
 40
0.5364179064991967
100
AcDbArc
 50
342.2460424476051
 51
46.04543262749258
  0
ARC
  5
20F
330
1F
100
AcDbEntity
  8
DEFAULT
100
AcDbCircle
 10
-1.048052999950642
 20
48.86081828140031
 30
0.0
 40
0.2362210042417925
100
AcDbArc
 50
180.0
 51
265.3395701367957
  0
ARC
  5
210
330
1F
100
AcDbEntity
  8
DEFAULT
100
AcDbCircle
 10
0.9204510000493542
 20
49.60885928140031
 30
0.0
 40
0.5207924728214128
100
AcDbArc
 50
204.5899815201698
 51
258.9297129242994
  0
SPLINE
  5
211
330
1F
100
AcDbEntity
  8
DEFAULT
100
AcDbSpline
210
0.0
220
0.0
230
1.0
 70
     8
 71
     3
 72
     9
 73
     5
 74
     0
 42
0.0000000001
 43
0.0000000001
 40
0.0
 40
0.0
 40
0.0
 40
0.0
 40
0.4997935423101
 40
1.0
 40
1.0
 40
1.0
 40
1.0
 10
0.8125983800763379
 20
50.13069512191031
 30
0.0
 10
0.8233027431573419
 20
50.1355726388003
 30
0.0
 10
0.8456080775973476
 20
50.14335476272031
 30
0.0
 10
0.8689804006053521
 20
50.14690042384031
 30
0.0
 10
0.8807333420003545
 20
50.14758930903032
 30
0.0
  0
SPLINE
  5
212
330
1F
100
AcDbEntity
  8
DEFAULT
100
AcDbSpline
210
0.0
220
0.0
230
1.0
 70
    24
 71
     2
 72
     6
 73
     3
 74
     0
 42
0.0000000001
 43
0.0000000001
 40
0.0
 40
0.0
 40
0.0
 40
1.0
 40
1.0
 40
1.0
 10
13.29364700004936
 20
33.51906528140032
 30
0.0
 10
13.29309550004936
 20
33.51906528140032
 30
0.0
 10
13.29254400004936
 20
33.51906528140032
 30
0.0
  0
SPLINE
  5
213
330
1F
100
AcDbEntity
  8
DEFAULT
100
AcDbSpline
210
0.0
220
0.0
230
1.0
 70
    24
 71
     2
 72
     6
 73
     3
 74
     0
 42
0.0000000001
 43
0.0000000001
 40
0.0
 40
0.0
 40
0.0
 40
1.0
 40
1.0
 40
1.0
 10
-1.284273999950642
 20
36.51872028140032
 30
0.0
 10
-1.284273999950642
 20
36.37107778140032
 30
0.0
 10
-1.284273999950642
 20
36.22343528140031
 30
0.0
  0
SPLINE
  5
214
330
1F
100
AcDbEntity
  8
DEFAULT
100
AcDbSpline
210
0.0
220
0.0
230
1.0
 70
    24
 71
     2
 72
     6
 73
     3
 74
     0
 42
0.0000000001
 43
0.0000000001
 40
0.0
 40
0.0
 40
0.0
 40
1.0
 40
1.0
 40
1.0
 10
0.9978670000493537
 20
50.11554728140031
 30
0.0
 10
2.204678000049356
 20
49.30464928140031
 30
0.0
 10
3.411489000049357
 20
48.49375128140031
 30
0.0
  0
ARC
  5
215
330
1F
100
AcDbEntity
  8
DEFAULT
100
AcDbCircle
 10
13.05742600004936
 20
32.31826928140032
 30
0.0
 40
0.236221004241791
100
AcDbArc
 50
274.6604298632046
 51
0.0
  0
ARC
  5
216
330
1F
100
AcDbEntity
  8
DEFAULT
100
AcDbCircle
 10
11.71230777049982
 20
1.695055056010403
 30
0.0
 40
0.7499957291095208
100
AcDbArc
 50
126.1124709469598
 51
140.000094432963
  0
SPLINE
  5
217
330
1F
100
AcDbEntity
  8
DEFAULT
100
AcDbSpline
210
0.0
220
0.0
230
1.0
 70
    24
 71
     2
 72
     6
 73
     3
 74
     0
 42
0.0000000001
 43
0.0000000001
 40
-1.0
 40
-1.0
 40
-1.0
 40
0.0
 40
0.0
 40
0.0
 10
11.13777691529225
 20
2.17714207107818
 30
0.0
 10
11.00044445764613
 20
2.013476035539085
 30
0.0
 10
10.863112
 20
1.849809999999991
 30
0.0
  0
SPLINE
  5
218
330
1F
100
AcDbEntity
  8
DEFAULT
100
AcDbSpline
210
0.0
220
0.0
230
1.0
 70
     8
 71
     5
 72
    12
 73
     6
 74
     0
 42
0.0000000001
 43
0.0000000001
 40
0.0
 40
0.0
 40
0.0
 40
0.0
 40
0.0
 40
0.0
 40
1.0
 40
1.0
 40
1.0
 40
1.0
 40
1.0
 40
1.0
 10
10.863112
 20
1.849809999999991
 30
0.0
 10
10.85550551895975
 20
1.840744971836983
 30
0.0
 10
10.84789903791949
 20
1.831679943673976
 30
0.0
 10
10.83315513243394
 20
1.824804023785589
 30
0.0
 10
10.82132156621697
 20
1.82480402365708
 30
0.0
 10
10.80948799999999
 20
1.824804023528571
 30
0.0
  0
POLYLINE
  5
219
330
1F
100
AcDbEntity
  8
DEFAULT
100
AcDb2dPolyline
 66
     1
 10
0.0
 20
0.0
 30
0.0
  0
VERTEX
  5
21B
330
219
100
AcDbEntity
  8
DEFAULT
100
AcDbVertex
100
AcDb2dVertex
 10
10.80948799999999
 20
1.824804023528571
 30
0.0
  0
VERTEX
  5
21C
330
219
100
AcDbEntity
  8
DEFAULT
100
AcDbVertex
100
AcDb2dVertex
 10
8.642810317854469
 20
1.824804
 30
0.0
  0
SEQEND
  5
21A
330
219
100
AcDbEntity
  8
DEFAULT
  0
SPLINE
  5
21D
330
1F
100
AcDbEntity
  8
DEFAULT
100
AcDbSpline
210
0.0
220
0.0
230
1.0
 70
     8
 71
     5
 72
    12
 73
     6
 74
     0
 42
0.0000000001
 43
0.0000000001
 40
-1.0
 40
-1.0
 40
-1.0
 40
-1.0
 40
-1.0
 40
-1.0
 40
0.0
 40
0.0
 40
0.0
 40
0.0
 40
0.0
 40
0.0
 10
8.642810317854469
 20
1.824804
 30
0.0
 10
8.632981934685859
 20
1.824803999893263
 30
0.0
 10
8.623153551517305
 20
1.824803999786539
 30
0.0
 10
8.612525904975996
 20
1.834292244106521
 30
0.0
 10
8.606488366428692
 20
1.842048500978152
 30
0.0
 10
8.600545999999952
 20
1.849876999999992
 30
0.0
  0
SPLINE
  5
21E
330
1F
100
AcDbEntity
  8
DEFAULT
100
AcDbSpline
210
0.0
220
0.0
230
1.0
 70
     8
 71
     3
 72
     9
 73
     5
 74
     0
 42
0.0000000001
 43
0.0000000001
 40
-2.0
 40
-2.0
 40
-2.0
 40
-2.0
 40
-1.0
 40
0.0
 40
0.0
 40
0.0
 40
0.0
 10
8.600545999999952
 20
1.849876999999992
 30
0.0
 10
8.504169424748227
 20
1.976843913625686
 30
0.0
 10
8.370532700381204
 20
2.277656347947797
 30
0.0
 10
8.073228294861963
 20
2.449455917370571
 30
0.0
 10
7.909675637059991
 20
2.444418629514999
 30
0.0
  0
SPLINE
  5
21F
330
1F
100
AcDbEntity
  8
DEFAULT
100
AcDbSpline
210
0.0
220
0.0
230
1.0
 70
    24
 71
     2
 72
     6
 73
     3
 74
     0
 42
0.0000000001
 43
0.0000000001
 40
0.0
 40
0.0
 40
0.0
 40
1.0
 40
1.0
 40
1.0
 10
3.411489000049357
 20
38.08658428140031
 30
0.0
 10
2.204678000049356
 20
37.27568578140031
 30
0.0
 10
0.9978670000493537
 20
36.46478728140032
 30
0.0
  0
SPLINE
  5
220
330
1F
100
AcDbEntity
  8
DEFAULT
100
AcDbSpline
210
0.0
220
0.0
230
1.0
 70
    24
 71
     2
 72
     6
 73
     3
 74
     0
 42
0.0000000001
 43
0.0000000001
 40
0.0
 40
0.0
 40
0.0
 40
1.0
 40
1.0
 40
1.0
 10
-1.284273999950642
 20
50.35689928140032
 30
0.0
 10
-1.284273999950642
 20
50.20925678140031
 30
0.0
 10
-1.284273999950642
 20
50.06161428140031
 30
0.0
  0
ARC
  5
221
330
1F
100
AcDbEntity
  8
DEFAULT
100
AcDbCircle
 10
10.97081200004936
 20
32.31826928140032
 30
0.0
 40
0.2362205042417904
100
AcDbArc
 50
180.0
 51
265.3395701367958
  0
SPLINE
  5
222
330
1F
100
AcDbEntity
  8
DEFAULT
100
AcDbSpline
210
0.0
220
0.0
230
1.0
 70
     8
 71
     3
 72
    10
 73
     6
 74
     0
 42
0.0000000001
 43
0.0000000001
 40
0.0
 40
0.0
 40
0.0
 40
0.0
 40
0.3333954294379
 40
0.6666145814545
 40
1.0
 40
1.0
 40
1.0
 40
1.0
 10
0.4112641829873382
 20
49.61698665520031
 30
0.0
 10
0.4414787380163432
 20
49.67483974141031
 30
0.0
 10
0.5076051085483471
 20
49.78763768712032
 30
0.0
 10
0.6228404772873546
 20
49.94624593333033
 30
0.0
 10
0.7096815408243344
 20
50.04399145619031
 30
0.0
 10
0.7553647495883524
 20
50.09060355285031
 30
0.0
  0
SPLINE
  5
223
330
1F
100
AcDbEntity
  8
DEFAULT
100
AcDbSpline
210
0.0
220
0.0
230
1.0
 70
     8
 71
     3
 72
     9
 73
     5
 74
     0
 42
0.0000000001
 43
0.0000000001
 40
0.0
 40
0.0
 40
0.0
 40
0.0
 40
0.7494677026309
 40
1.0
 40
1.0
 40
1.0
 40
1.0
 10
0.7553647495883524
 20
50.09060355285031
 30
0.0
 10
0.7676189741803512
 20
50.10309483226031
 30
0.0
 10
0.7863836881423367
 20
50.11756783463029
 30
0.0
 10
0.807258210596359
 20
50.12826183684031
 30
0.0
 10
0.8125983800763379
 20
50.13069512191031
 30
0.0
  0
SPLINE
  5
224
330
1F
100
AcDbEntity
  8
DEFAULT
100
AcDbSpline
210
0.0
220
0.0
230
1.0
 70
    24
 71
     2
 72
     6
 73
     3
 74
     0
 42
0.0000000001
 43
0.0000000001
 40
0.0
 40
0.0
 40
0.0
 40
1.0
 40
1.0
 40
1.0
 10
12.54107400004935
 20
32.70693928140031
 30
0.0
 10
11.63783300004935
 20
32.70693928140031
 30
0.0
 10
10.73459200004936
 20
32.70693928140031
 30
0.0
  0
SPLINE
  5
225
330
1F
100
AcDbEntity
  8
DEFAULT
100
AcDbSpline
210
0.0
220
0.0
230
1.0
 70
    24
 71
     2
 72
     6
 73
     3
 74
     0
 42
0.0000000001
 43
0.0000000001
 40
0.0
 40
0.0
 40
0.0
 40
1.0
 40
1.0
 40
1.0
 10
2.750958000049337
 20
47.58416828140031
 30
0.0
 10
1.606721000049347
 20
48.48141228140031
 30
0.0
 10
0.4624840000493577
 20
49.37865628140031
 30
0.0
  0
CIRCLE
  5
226
330
1F
100
AcDbEntity
  8
DEFAULT
100
AcDbCircle
 10
9.617384000049356
 20
43.29016728140031
 30
0.0
 40
6.908685000000002
  0
SPLINE
  5
227
330
1F
100
AcDbEntity
  8
DEFAULT
100
AcDbSpline
210
0.0
220
0.0
230
1.0
 70
    24
 71
     2
 72
     6
 73
     3
 74
     0
 42
0.0000000001
 43
0.0000000001
 40
0.0
 40
0.0
 40
0.0
 40
1.0
 40
1.0
 40
1.0
 10
1.274782000049356
 20
36.51872028140032
 30
0.0
 10
1.274782000049356
 20
36.37107778140032
 30
0.0
 10
1.274782000049356
 20
36.22343528140031
 30
0.0
  0
SPLINE
  5
228
330
1F
100
AcDbEntity
  8
DEFAULT
100
AcDbSpline
210
0.0
220
0.0
230
1.0
 70
    24
 71
     2
 72
     6
 73
     3
 74
     0
 42
0.0000000001
 43
0.0000000001
 40
0.5735485216136772
 40
0.5735485216136772
 40
0.5735485216136772
 40
1.0
 40
1.0
 40
1.0
 10
8.676024143901884
 20
1.824804000360672
 30
0.0
 10
8.691413071950933
 20
1.211780000180333
 30
0.0
 10
8.706801999999982
 20
0.5987559999999945
 30
0.0
  0
SPLINE
  5
229
330
1F
100
AcDbEntity
  8
DEFAULT
100
AcDbSpline
210
0.0
220
0.0
230
1.0
 70
    24
 71
     2
 72
     6
 73
     3
 74
     0
 42
0.0000000001
 43
0.0000000001
 40
0.0
 40
0.0
 40
0.0
 40
1.0
 40
1.0
 40
1.0
 10
13.48047899999997
 20
1.441068000000001
 30
0.0
 10
13.48047899999997
 20
0.9929814999999991
 30
0.0
 10
13.48047899999997
 20
0.5448949999999968
 30
0.0
  0
SPLINE
  5
22A
330
1F
100
AcDbEntity
  8
DEFAULT
100
AcDbSpline
210
0.0
220
0.0
230
1.0
 70
    24
 71
     2
 72
     6
 73
     3
 74
     0
 42
0.0000000001
 43
0.0000000001
 40
0.0
 40
0.0
 40
0.0
 40
1.0
 40
1.0
 40
1.0
 10
40.31226273909539
 20
1.441068000000001
 30
0.0
 10
40.31226273909539
 20
0.9929814999999991
 30
0.0
 10
40.31226273909539
 20
0.5448949999999968
 30
0.0
  0
SPLINE
  5
22B
330
1F
100
AcDbEntity
  8
DEFAULT
100
AcDbSpline
210
0.0
220
0.0
230
1.0
 70
    24
 71
     2
 72
     6
 73
     3
 74
     0
 42
0.0000000001
 43
0.0000000001
 40
0.5735485216136772
 40
0.5735485216136772
 40
0.5735485216136772
 40
1.0
 40
1.0
 40
1.0
 10
35.50780788299727
 20
1.824804000360672
 30
0.0
 10
35.52319681104632
 20
1.211780000180333
 30
0.0
 10
35.53858573909537
 20
0.5987559999999945
 30
0.0
  0
SPLINE
  5
22C
330
1F
100
AcDbEntity
  8
DEFAULT
100
AcDbSpline
210
0.0
220
0.0
230
1.0
 70
    24
 71
     2
 72
     6
 73
     3
 74
     0
 42
0.0000000001
 43
0.0000000001
 40
0.5735485145042899
 40
0.5735485145042899
 40
0.5735485145042899
 40
1.0
 40
1.0
 40
1.0
 10
37.39002016925508
 20
1.824804020800158
 30
0.0
 10
37.37463145417523
 20
1.211780010400076
 30
0.0
 10
37.35924273909538
 20
0.5987559999999945
 30
0.0
  0
SPLINE
  5
22D
330
1F
100
AcDbEntity
  8
DEFAULT
100
AcDbSpline
210
0.0
220
0.0
230
1.0
 70
    24
 71
     2
 72
     6
 73
     3
 74
     0
 42
0.0000000001
 43
0.0000000001
 40
0.0
 40
0.0
 40
0.0
 40
1.0
 40
1.0
 40
1.0
 10
37.08516373909538
 20
11.24685699999999
 30
0.0
 10
36.44891373909537
 20
11.24685699999999
 30
0.0
 10
35.81266373909537
 20
11.24685699999999
 30
0.0
  0
SPLINE
  5
22E
330
1F
100
AcDbEntity
  8
DEFAULT
100
AcDbSpline
210
0.0
220
0.0
230
1.0
 70
     8
 71
     3
 72
    14
 73
    10
 74
     0
 42
0.0000000001
 43
0.0000000001
 40
0.0
 40
0.0
 40
0.0
 40
0.0
 40
1.0
 40
2.0
 40
3.0
 40
4.0
 40
5.0
 40
6.0
 40
7.0
 40
7.0
 40
7.0
 40
7.0
 10
36.23699673909539
 20
12.34753500000001
 30
0.0
 10
36.25724335297514
 20
12.35882799777346
 30
0.0
 10
36.29980895868474
 20
12.37773171749132
 30
0.0
 10
36.36792127056827
 20
12.39308524924535
 30
0.0
 10
36.43725645753815
 20
12.3998200273072
 30
0.0
 10
36.5069086286934
 20
12.39649424466677
 30
0.0
 10
36.57531993653146
 20
12.3830547192245
 30
0.0
 10
36.64085132808785
 20
12.35881040885087
 30
0.0
 10
36.67964212921311
 20
12.33270225272709
 30
0.0
 10
36.69695213383537
 20
12.31728089792001
 30
0.0
  0
SPLINE
  5
22F
330
1F
100
AcDbEntity
  8
DEFAULT
100
AcDbSpline
210
0.0
220
0.0
230
1.0
 70
    24
 71
     2
 72
     6
 73
     3
 74
     0
 42
0.0000000001
 43
0.0000000001
 40
0.0
 40
0.0
 40
0.0
 40
0.798951089876579
 40
0.798951089876579
 40
0.798951089876579
 10
36.28891373909539
 20
12.37142300000001
 30
0.0
 10
36.28891609723038
 20
12.65350666392501
 30
0.0
 10
36.28891845536538
 20
12.93559032785001
 30
0.0
  0
SPLINE
  5
230
330
1F
100
AcDbEntity
  8
DEFAULT
100
AcDbSpline
210
0.0
220
0.0
230
1.0
 70
     8
 71
     3
 72
    13
 73
     9
 74
     0
 42
0.0000000001
 43
0.0000000001
 40
0.0
 40
0.0
 40
0.0
 40
0.0
 40
0.08277311707151
 40
0.251067299128
 40
0.4265204253965
 40
0.6109298907422
 40
0.8032025873094
 40
1.0
 40
1.0
 40
1.0
 40
1.0
 10
36.28891845536538
 20
12.93559032785001
 30
0.0
 10
36.28892317163539
 20
12.94198778142001
 30
0.0
 10
36.29055987437539
 20
12.96139252833001
 30
0.0
 10
36.30177409499538
 20
12.99286495475
 30
0.0
 10
36.32711156885537
 20
13.02540793103002
 30
0.0
 10
36.36206476387537
 20
13.05044530696001
 30
0.0
 10
36.40372970848537
 20
13.06620519615001
 30
0.0
 10
36.43377881074537
 20
13.06977761872001
 30
0.0
 10
36.44891339125539
 20
13.06977761872001
 30
0.0
  0
SPLINE
  5
231
330
1F
100
AcDbEntity
  8
DEFAULT
100
AcDbSpline
210
0.0
220
0.0
230
1.0
 70
     8
 71
     3
 72
    13
 73
     9
 74
     0
 42
0.0000000001
 43
0.0000000001
 40
0.0
 40
0.0
 40
0.0
 40
0.0
 40
0.1967974126906
 40
0.3890701092578
 40
0.5734795746035
 40
0.748932700872
 40
0.9172268829285
 40
1.0
 40
1.0
 40
1.0
 40
1.0
 10
36.44891339125539
 20
13.06977761872001
 30
0.0
 10
36.46404797176538
 20
13.06977761872001
 30
0.0
 10
36.49409707402538
 20
13.06620519615001
 30
0.0
 10
36.53576201863538
 20
13.05044530696001
 30
0.0
 10
36.57071521365538
 20
13.02540793103002
 30
0.0
 10
36.59605268751537
 20
12.99286495475
 30
0.0
 10
36.60726690813539
 20
12.96139252833001
 30
0.0
 10
36.60890361087539
 20
12.94198778142001
 30
0.0
 10
36.60893689776279
 20
12.93559032785001
 30
0.0
  0
SPLINE
  5
232
330
1F
100
AcDbEntity
  8
DEFAULT
100
AcDbSpline
210
0.0
220
0.0
230
1.0
 70
    24
 71
     2
 72
     6
 73
     3
 74
     0
 42
0.0000000001
 43
0.0000000001
 40
-0.798951089876579
 40
-0.798951089876579
 40
-0.798951089876579
 40
0.0
 40
0.0
 40
0.0
 10
36.60893689776279
 20
12.93559032785001
 30
0.0
 10
36.60895354120649
 20
12.65350666392501
 30
0.0
 10
36.60897018465019
 20
12.37142300000001
 30
0.0
  0
SPLINE
  5
233
330
1F
100
AcDbEntity
  8
DEFAULT
100
AcDbSpline
210
0.0
220
0.0
230
1.0
 70
     8
 71
     3
 72
     9
 73
     5
 74
     0
 42
0.0000000001
 43
0.0000000001
 40
0.0
 40
0.0
 40
0.0
 40
0.0
 40
1.0
 40
2.0
 40
2.0
 40
2.0
 40
2.0
 10
24.07126498336538
 20
27.52933758542001
 30
0.0
 10
24.5186855899517
 20
25.88692489119832
 30
0.0
 10
24.97443919988444
 20
22.50461976407797
 30
0.0
 10
24.99335036435784
 20
19.10150718366347
 30
0.0
 10
25.00101755600858
 20
17.4017520078135
 30
0.0
  0
ARC
  5
234
330
1F
100
AcDbEntity
  8
DEFAULT
100
AcDbCircle
 10
25.25101487919639
 20
17.40285690427756
 30
0.0
 40
0.2499997647944185
100
AcDbArc
 50
180.2532246793642
 51
269.9999678911831
  0
SPLINE
  5
235
330
1F
100
AcDbEntity
  8
DEFAULT
100
AcDbSpline
210
0.0
220
0.0
230
1.0
 70
    24
 71
     2
 72
     6
 73
     3
 74
     0
 42
0.0000000001
 43
0.0000000001
 40
0.0
 40
0.0
 40
0.0
 40
1.0
 40
1.0
 40
1.0
 10
25.25101473909538
 20
17.15285713948317
 30
0.0
 10
26.31771848909538
 20
17.1528570117124
 30
0.0
 10
27.38442223909539
 20
17.15285688394162
 30
0.0
  0
ARC
  5
236
330
1F
100
AcDbEntity
  8
DEFAULT
100
AcDbCircle
 10
27.38428385085061
 20
17.40285695856731
 30
0.0
 40
0.2500001129282869
100
AcDbArc
 50
270.0317162367323
 51
339.657982420215
  0
ARC
  5
237
330
1F
100
AcDbEntity
  8
DEFAULT
100
AcDbCircle
 10
12.03579060906131
 20
23.11372923752455
 30
0.0
 40
16.62651688018725
100
AcDbArc
 50
339.5917673126222
 51
340.0288855941286
  0
SPLINE
  5
238
330
1F
100
AcDbEntity
  8
DEFAULT
100
AcDbSpline
210
0.0
220
0.0
230
1.0
 70
     8
 71
     3
 72
     9
 73
     5
 74
     0
 42
0.0000000001
 43
0.0000000001
 40
0.0
 40
0.0
 40
0.0
 40
0.0
 40
1.0
 40
2.0
 40
2.0
 40
2.0
 40
2.0
 10
27.66247073909537
 20
17.43500300000001
 30
0.0
 10
27.95235617805616
 20
18.23270777383826
 30
0.0
 10
28.43185776196989
 20
19.86966963689569
 30
0.0
 10
28.61702596255094
 20
21.56241853845709
 30
0.0
 10
28.67145273909537
 20
22.40955500000001
 30
0.0
  0
SPLINE
  5
239
330
1F
100
AcDbEntity
  8
DEFAULT
100
AcDbSpline
210
0.0
220
0.0
230
1.0
 70
    24
 71
     2
 72
     6
 73
     3
 74
     0
 42
0.0000000001
 43
0.0000000001
 40
0.0
 40
0.0
 40
0.0
 40
1.0
 40
1.0
 40
1.0
 10
26.14491373909539
 20
17.15285700000001
 30
0.0
 10
26.14491373909539
 20
16.32860700000001
 30
0.0
 10
26.14491373909539
 20
15.50435700000001
 30
0.0
  0
ARC
  5
23A
330
1F
100
AcDbEntity
  8
DEFAULT
100
AcDbCircle
 10
28.10991373909539
 20
15.50435700000001
 30
0.0
 40
1.965000000000003
100
AcDbArc
 50
180.0
 51
270.0
  0
LINE
  5
23B
330
1F
100
AcDbEntity
  8
DEFAULT
100
AcDbLine
 10
28.10991373909539
 20
13.53935700000001
 30
0.0
 11
28.57392673909538
 21
13.53935700000001
 31
0.0
  0
SPLINE
  5
23C
330
1F
100
AcDbEntity
  8
DEFAULT
100
AcDbSpline
210
0.0
220
0.0
230
1.0
 70
    24
 71
     2
 72
     6
 73
     3
 74
     0
 42
0.0000000001
 43
0.0000000001
 40
0.0
 40
0.0
 40
0.0
 40
1.0
 40
1.0
 40
1.0
 10
28.99150773909537
 20
13.28935700000001
 30
0.0
 10
28.55071073909538
 20
13.28935700000001
 30
0.0
 10
28.10991373909539
 20
13.28935700000001
 30
0.0
  0
ARC
  5
23D
330
1F
100
AcDbEntity
  8
DEFAULT
100
AcDbCircle
 10
28.10991373909539
 20
15.50435700000001
 30
0.0
 40
2.215000000000003
100
AcDbArc
 50
180.0000000000001
 51
270.0
  0
SPLINE
  5
23E
330
1F
100
AcDbEntity
  8
DEFAULT
100
AcDbSpline
210
0.0
220
0.0
230
1.0
 70
    24
 71
     2
 72
     6
 73
     3
 74
     0
 42
0.0000000001
 43
0.0000000001
 40
0.0
 40
0.0
 40
0.0
 40
1.0
 40
1.0
 40
1.0
 10
25.89491373909539
 20
15.50435700000001
 30
0.0
 10
25.89491373909539
 20
16.32860700000001
 30
0.0
 10
25.89491373909539
 20
17.15285700000001
 30
0.0
  0
ARC
  5
23F
330
1F
100
AcDbEntity
  8
DEFAULT
100
AcDbCircle
 10
24.21599473909538
 20
27.56875100000001
 30
0.0
 40
0.1500005583889545
100
AcDbArc
 50
104.8687485525725
 51
195.233443535248
  0
ARC
  5
240
330
1F
100
AcDbEntity
  8
DEFAULT
100
AcDbCircle
 10
12.01886499999998
 20
0.0
 30
0.0
 40
1.279527939310224
100
AcDbArc
 50
15.7620695672927
 51
18.57560333516714
  0
SPLINE
  5
241
330
1F
100
AcDbEntity
  8
DEFAULT
100
AcDbSpline
210
0.0
220
0.0
230
1.0
 70
    24
 71
     2
 72
     6
 73
     3
 74
     0
 42
0.0000000001
 43
0.0000000001
 40
0.0
 40
0.0
 40
0.0
 40
1.0
 40
1.0
 40
1.0
 10
0.5269549999999867
 20
1.279527999999999
 30
0.0
 10
0.2634774999999934
 20
1.279527999999999
 30
0.0
 10
0.0
 20
1.279527999999999
 30
0.0
  0
SPLINE
  5
242
330
1F
100
AcDbEntity
  8
DEFAULT
100
AcDbSpline
210
0.0
220
0.0
230
1.0
 70
    24
 71
     2
 72
     6
 73
     3
 74
     0
 42
0.0000000001
 43
0.0000000001
 40
0.0
 40
0.0
 40
0.0
 40
1.0
 40
1.0
 40
1.0
 10
28.07194073909537
 20
0.3149609999999967
 30
0.0
 10
28.09162623909538
 20
0.3149609999999967
 30
0.0
 10
28.11131173909538
 20
0.3149609999999967
 30
0.0
  0
ARC
  5
243
330
1F
100
AcDbEntity
  8
DEFAULT
100
AcDbCircle
 10
38.54409150959523
 20
1.695055056010403
 30
0.0
 40
0.7499957291095208
100
AcDbArc
 50
126.1124709469619
 51
140.000094432965
  0
SPLINE
  5
244
330
1F
100
AcDbEntity
  8
DEFAULT
100
AcDbSpline
210
0.0
220
0.0
230
1.0
 70
    24
 71
     2
 72
     6
 73
     3
 74
     0
 42
0.0000000001
 43
0.0000000001
 40
-1.0
 40
-1.0
 40
-1.0
 40
0.0
 40
0.0
 40
0.0
 10
37.96956065438764
 20
2.17714207107818
 30
0.0
 10
37.83222819674151
 20
2.013476035539085
 30
0.0
 10
37.69489573909539
 20
1.849809999999991
 30
0.0
  0
SPLINE
  5
245
330
1F
100
AcDbEntity
  8
DEFAULT
100
AcDbSpline
210
0.0
220
0.0
230
1.0
 70
     8
 71
     5
 72
    12
 73
     6
 74
     0
 42
0.0000000001
 43
0.0000000001
 40
0.0
 40
0.0
 40
0.0
 40
0.0
 40
0.0
 40
0.0
 40
1.0
 40
1.0
 40
1.0
 40
1.0
 40
1.0
 40
1.0
 10
37.69489573909539
 20
1.849809999999991
 30
0.0
 10
37.68728925805516
 20
1.840744971836983
 30
0.0
 10
37.6796827770149
 20
1.831679943673976
 30
0.0
 10
37.66493887152933
 20
1.824804023785589
 30
0.0
 10
37.65310530531235
 20
1.82480402365708
 30
0.0
 10
37.64127173909537
 20
1.824804023528571
 30
0.0
  0
POLYLINE
  5
246
330
1F
100
AcDbEntity
  8
DEFAULT
100
AcDb2dPolyline
 66
     1
 10
0.0
 20
0.0
 30
0.0
  0
VERTEX
  5
248
330
246
100
AcDbEntity
  8
DEFAULT
100
AcDbVertex
100
AcDb2dVertex
 10
37.64127173909537
 20
1.824804023528571
 30
0.0
  0
VERTEX
  5
249
330
246
100
AcDbEntity
  8
DEFAULT
100
AcDbVertex
100
AcDb2dVertex
 10
35.47459405694985
 20
1.824804
 30
0.0
  0
SEQEND
  5
247
330
246
100
AcDbEntity
  8
DEFAULT
  0
SPLINE
  5
24A
330
1F
100
AcDbEntity
  8
DEFAULT
100
AcDbSpline
210
0.0
220
0.0
230
1.0
 70
     8
 71
     5
 72
    12
 73
     6
 74
     0
 42
0.0000000001
 43
0.0000000001
 40
-1.0
 40
-1.0
 40
-1.0
 40
-1.0
 40
-1.0
 40
-1.0
 40
0.0
 40
0.0
 40
0.0
 40
0.0
 40
0.0
 40
0.0
 10
35.47459405694985
 20
1.824804
 30
0.0
 10
35.46476567378127
 20
1.824803999893263
 30
0.0
 10
35.45493729061272
 20
1.824803999786539
 30
0.0
 10
35.44430964407138
 20
1.834292244106521
 30
0.0
 10
35.43827210552411
 20
1.842048500978152
 30
0.0
 10
35.43232973909537
 20
1.849876999999992
 30
0.0
  0
SPLINE
  5
24B
330
1F
100
AcDbEntity
  8
DEFAULT
100
AcDbSpline
210
0.0
220
0.0
230
1.0
 70
     8
 71
     3
 72
     9
 73
     5
 74
     0
 42
0.0000000001
 43
0.0000000001
 40
-2.0
 40
-2.0
 40
-2.0
 40
-2.0
 40
-1.0
 40
0.0
 40
0.0
 40
0.0
 40
0.0
 10
35.43232973909537
 20
1.849876999999992
 30
0.0
 10
35.33595316384361
 20
1.976843913625686
 30
0.0
 10
35.20231643947662
 20
2.277656347947797
 30
0.0
 10
34.90501203395738
 20
2.449455917370571
 30
0.0
 10
34.74145937615538
 20
2.444418629514999
 30
0.0
  0
SPLINE
  5
24C
330
1F
100
AcDbEntity
  8
DEFAULT
100
AcDbSpline
210
0.0
220
0.0
230
1.0
 70
    24
 71
     2
 72
     6
 73
     3
 74
     0
 42
0.0000000001
 43
0.0000000001
 40
0.0
 40
0.0
 40
0.0
 40
1.0
 40
1.0
 40
1.0
 10
46.80567073909538
 20
1.279527999999999
 30
0.0
 10
46.80567073909538
 20
1.222747499999997
 30
0.0
 10
46.80567073909538
 20
1.165966999999995
 30
0.0
  0
SPLINE
  5
24D
330
1F
100
AcDbEntity
  8
DEFAULT
100
AcDbSpline
210
0.0
220
0.0
230
1.0
 70
     8
 71
     3
 72
    11
 73
     7
 74
     0
 42
0.0000000001
 43
0.0000000001
 40
0.0
 40
0.0
 40
0.0
 40
0.0
 40
1.0
 40
2.0
 40
3.0
 40
4.0
 40
4.0
 40
4.0
 40
4.0
 10
39.47560423309537
 20
2.798339706023
 30
0.0
 10
39.22001408844676
 20
2.970974997370789
 30
0.0
 10
38.69708770885032
 20
3.299194294987373
 30
0.0
 10
37.87596554358856
 20
3.727251635542771
 30
0.0
 10
37.02304171026623
 20
4.088726584775003
 30
0.0
 10
36.4269017104676
 20
4.256366617407082
 30
0.0
 10
36.11940228511537
 20
4.289667635103001
 30
0.0
  0
SPLINE
  5
24E
330
1F
100
AcDbEntity
  8
DEFAULT
100
AcDbSpline
210
0.0
220
0.0
230
1.0
 70
     8
 71
     3
 72
     9
 73
     5
 74
     0
 42
0.0000000001
 43
0.0000000001
 40
0.0
 40
0.0
 40
0.0
 40
0.0
 40
1.0
 40
2.0
 40
2.0
 40
2.0
 40
2.0
 10
40.22879194795539
 20
2.798339705936996
 30
0.0
 10
40.24035405085274
 20
2.789806686439277
 30
0.0
 10
40.21840904474675
 20
2.774210389125884
 30
0.0
 10
40.20070931658515
 20
2.77293623354646
 30
0.0
 10
40.19056411202538
 20
2.772304271371993
 30
0.0
  0
SPLINE
  5
24F
330
1F
100
AcDbEntity
  8
DEFAULT
100
AcDbSpline
210
0.0
220
0.0
230
1.0
 70
     8
 71
     3
 72
     9
 73
     5
 74
     0
 42
0.0000000001
 43
0.0000000001
 40
0.0
 40
0.0
 40
0.0
 40
0.0
 40
1.0
 40
2.0
 40
2.0
 40
2.0
 40
2.0
 10
40.19056411202538
 20
2.772304271371993
 30
0.0
 10
40.07065700050447
 20
2.764835051950755
 30
0.0
 10
39.83236175392574
 20
2.771281816186629
 30
0.0
 10
39.58924098663832
 20
2.757915190050738
 30
0.0
 10
39.47560423309537
 20
2.798339706023
 30
0.0
  0
SPLINE
  5
250
330
1F
100
AcDbEntity
  8
DEFAULT
100
AcDbSpline
210
0.0
220
0.0
230
1.0
 70
    24
 71
     2
 72
     6
 73
     3
 74
     0
 42
0.0000000001
 43
0.0000000001
 40
0.0
 40
0.0
 40
0.0
 40
1.0
 40
1.0
 40
1.0
 10
0.5222090000493438
 20
36.61210628140032
 30
0.0
 10
-0.3810324999506491
 20
36.61210628140032
 30
0.0
 10
-1.284273999950642
 20
36.61210628140032
 30
0.0
  0
SPLINE
  5
251
330
1F
100
AcDbEntity
  8
DEFAULT
100
AcDbSpline
210
0.0
220
0.0
230
1.0
 70
    24
 71
     2
 72
     6
 73
     3
 74
     0
 42
0.0000000001
 43
0.0000000001
 40
0.0
 40
0.0
 40
0.0
 40
1.0
 40
1.0
 40
1.0
 10
-1.284273999950642
 20
37.33084628140031
 30
0.0
 10
-1.284273999950642
 20
36.97147628140031
 30
0.0
 10
-1.284273999950642
 20
36.61210628140032
 30
0.0
  0
SPLINE
  5
252
330
1F
100
AcDbEntity
  8
DEFAULT
100
AcDbSpline
210
0.0
220
0.0
230
1.0
 70
     8
 71
     3
 72
     9
 73
     5
 74
     0
 42
0.0000000001
 43
0.0000000001
 40
0.0
 40
0.0
 40
0.0
 40
0.0
 40
1.0
 40
2.0
 40
2.0
 40
2.0
 40
2.0
 10
35.88691073909538
 20
3.920969999999997
 30
0.0
 10
34.6148170833147
 20
3.861311733474992
 30
0.0
 10
32.0968875340071
 20
3.469277630728996
 30
0.0
 10
29.61273615104119
 20
2.917788578833225
 30
0.0
 10
28.38395473909537
 20
2.587086999999997
 30
0.0
  0
ARC
  5
253
330
1F
100
AcDbEntity
  8
DEFAULT
100
AcDbCircle
 10
4.749004526649401
 20
-65.37724701432583
 30
0.0
 40
70.00000232123381
100
AcDbArc
 50
76.77588180357772
 51
83.00237981336923
  0
ARC
  5
254
330
1F
100
AcDbEntity
  8
DEFAULT
100
AcDbCircle
 10
9.622130100421373
 20
-25.67519294001684
 30
0.0
 40
29.99999668902039
100
AcDbArc
 50
83.00238018814096
 51
88.1203612938394
  0
SPLINE
  5
255
330
1F
100
AcDbEntity
  8
DEFAULT
100
AcDbSpline
210
0.0
220
0.0
230
1.0
 70
    24
 71
     2
 72
     6
 73
     3
 74
     0
 42
0.0000000001
 43
0.0000000001
 40
0.0
 40
0.0
 40
0.0
 40
1.0
 40
1.0
 40
1.0
 10
0.3887789999999995
 20
1.441068000000001
 30
0.0
 10
0.3887789999999995
 20
1.360298
 30
0.0
 10
0.3887789999999995
 20
1.279527999999999
 30
0.0
  0
CIRCLE
  5
256
330
1F
100
AcDbEntity
  8
DEFAULT
100
AcDbCircle
 10
19.44693199999998
 20
0.0
 30
0.0
 40
1.279528000000001
  0
ENDSEC
  0
SECTION
  2
OBJECTS
  0
DICTIONARY
  5
C
330
0
100
AcDbDictionary
281
     1
  3
ACAD_GROUP
350
D
  3
ACAD_LAYOUT
350
1A
  3
ACAD_MLEADERSTYLE
350
258
  3
ACAD_MLINESTYLE
350
17
  3
ACAD_PLOTSETTINGS
350
19
  3
ACAD_PLOTSTYLENAME
350
E
  3
ACAD_SCALELIST
350
3B
  3
ACAD_TABLESTYLE
350
257
  3
ACAD_VISUALSTYLE
350
2A
  0
DICTIONARY
  5
D
102
{ACAD_REACTORS
330
C
102
}
330
C
100
AcDbDictionary
281
     1
  0
DICTIONARY
  5
1A
102
{ACAD_REACTORS
330
C
102
}
330
C
100
AcDbDictionary
281
     1
  3
Layout1
350
1E
  3
Layout2
350
26
  3
Model
350
22
  0
DICTIONARY
  5
258
102
{ACAD_REACTORS
330
C
102
}
330
C
100
AcDbDictionary
281
     1
  0
DICTIONARY
  5
17
102
{ACAD_REACTORS
330
C
102
}
330
C
100
AcDbDictionary
281
     1
  3
Standard
350
18
  0
DICTIONARY
  5
19
102
{ACAD_REACTORS
330
C
102
}
330
C
100
AcDbDictionary
281
     1
  0
ACDBDICTIONARYWDFLT
  5
E
102
{ACAD_REACTORS
330
C
102
}
330
C
100
AcDbDictionary
281
     1
  3
Normal
350
F
100
AcDbDictionaryWithDefault
340
F
  0
DICTIONARY
  5
3B
102
{ACAD_REACTORS
330
C
102
}
330
C
100
AcDbDictionary
281
     1
  3
A0
350
3C
  3
A1
350
3D
  3
A2
350
3E
  3
A3
350
3F
  3
A4
350
40
  3
A5
350
41
  3
A6
350
42
  3
A7
350
43
  3
A8
350
44
  3
A9
350
45
  3
B0
350
46
  3
B1
350
47
  3
B2
350
48
  3
B3
350
49
  3
B4
350
4A
  3
B5
350
4B
  3
B6
350
4C
  3
B7
350
4D
  3
B8
350
4E
  3
B9
350
4F
  3
C0
350
50
  3
C1
350
51
  3
C2
350
52
  3
C3
350
53
  3
C4
350
54
  3
C5
350
55
  3
C6
350
56
  3
C7
350
57
  3
C8
350
58
  3
C9
350
59
  3
D0
350
5A
  3
D1
350
5B
  3
D2
350
5C
  0
DICTIONARY
  5
257
102
{ACAD_REACTORS
330
C
102
}
330
C
100
AcDbDictionary
281
     1
  0
DICTIONARY
  5
2A
102
{ACAD_REACTORS
330
C
102
}
330
C
100
AcDbDictionary
281
     1
  3
2dWireframe
350
2F
  3
3D Hidden
350
31
  3
3dWireframe
350
30
  3
Basic
350
32
  3
Brighten
350
36
  3
ColorChange
350
3A
  3
Conceptual
350
34
  3
Dim
350
35
  3
Facepattern
350
39
  3
Flat
350
2B
  3
FlatWithEdges
350
2C
  3
Gouraud
350
2D
  3
GouraudWithEdges
350
2E
  3
Linepattern
350
38
  3
Realistic
350
33
  3
Thicken
350
37
  0
LAYOUT
  5
1E
102
{ACAD_REACTORS
330
1A
102
}
330
1A
100
AcDbPlotSettings
  1

  2
none_device
  4

  6

 40
0.0
 41
0.0
 42
0.0
 43
0.0
 44
0.0
 45
0.0
 46
0.0
 47
0.0
 48
0.0
 49
0.0
140
0.0
141
0.0
142
1.0
143
1.0
 70
   688
 72
     0
 73
     0
 74
     5
  7

 75
    16
 76
     0
 77
     2
 78
   300
147
1.0
148
0.0
149
0.0
100
AcDbLayout
  1
Layout1
 70
     1
 71
     1
 10
0.0
 20
0.0
 11
12.0
 21
9.0
 12
0.0
 22
0.0
 32
0.0
 14
1.000000000000000E+20
 24
1.000000000000000E+20
 34
1.000000000000000E+20
 15
-1.000000000000000E+20
 25
-1.000000000000000E+20
 35
-1.000000000000000E+20
146
0.0
 13
0.0
 23
0.0
 33
0.0
 16
1.0
 26
0.0
 36
0.0
 17
0.0
 27
1.0
 37
0.0
 76
     0
330
1B
  0
LAYOUT
  5
26
102
{ACAD_REACTORS
330
1A
102
}
330
1A
100
AcDbPlotSettings
  1

  2
none_device
  4

  6

 40
0.0
 41
0.0
 42
0.0
 43
0.0
 44
0.0
 45
0.0
 46
0.0
 47
0.0
 48
0.0
 49
0.0
140
0.0
141
0.0
142
1.0
143
1.0
 70
   688
 72
     0
 73
     0
 74
     5
  7

 75
    16
 76
     0
 77
     2
 78
   300
147
1.0
148
0.0
149
0.0
100
AcDbLayout
  1
Layout2
 70
     1
 71
     2
 10
0.0
 20
0.0
 11
0.0
 21
0.0
 12
0.0
 22
0.0
 32
0.0
 14
0.0
 24
0.0
 34
0.0
 15
0.0
 25
0.0
 35
0.0
146
0.0
 13
0.0
 23
0.0
 33
0.0
 16
1.0
 26
0.0
 36
0.0
 17
0.0
 27
1.0
 37
0.0
 76
     0
330
23
  0
LAYOUT
  5
22
102
{ACAD_REACTORS
330
1A
102
}
330
1A
100
AcDbPlotSettings
  1

  2
none_device
  4

  6

 40
0.0
 41
0.0
 42
0.0
 43
0.0
 44
0.0
 45
0.0
 46
0.0
 47
0.0
 48
0.0
 49
0.0
140
0.0
141
0.0
142
1.0
143
1.0
 70
  1712
 72
     0
 73
     0
 74
     0
  7

 75
     0
 76
     0
 77
     2
 78
   300
147
1.0
148
0.0
149
0.0
100
AcDbLayout
  1
Model
 70
     1
 71
     0
 10
0.0
 20
0.0
 11
12.0
 21
9.0
 12
0.0
 22
0.0
 32
0.0
 14
-1.284274004192434
 24
-1.279528000000001
 34
0.0
 15
47.74033088476988
 25
55.6730862814003
 35
0.0
146
0.0
 13
0.0
 23
0.0
 33
0.0
 16
1.0
 26
0.0
 36
0.0
 17
0.0
 27
1.0
 37
0.0
 76
     0
330
1F
331
29
  0
MLINESTYLE
  5
18
102
{ACAD_REACTORS
330
17
102
}
330
17
100
AcDbMlineStyle
  2
Standard
 70
     0
  3

 62
   256
 51
90.0
 52
90.0
 71
     2
 49
0.5
 62
   256
  6
BYLAYER
 49
-0.5
 62
   256
  6
BYLAYER
  0
ACDBPLACEHOLDER
  5
F
102
{ACAD_REACTORS
330
E
102
}
330
E
  0
SCALE
  5
3C
102
{ACAD_REACTORS
330
3B
102
}
330
3B
100
AcDbScale
 70
     0
300
1:1
140
1.0
141
1.0
290
     1
  0
SCALE
  5
3D
102
{ACAD_REACTORS
330
3B
102
}
330
3B
100
AcDbScale
 70
     0
300
1:2
140
1.0
141
2.0
290
     0
  0
SCALE
  5
3E
102
{ACAD_REACTORS
330
3B
102
}
330
3B
100
AcDbScale
 70
     0
300
1:4
140
1.0
141
4.0
290
     0
  0
SCALE
  5
3F
102
{ACAD_REACTORS
330
3B
102
}
330
3B
100
AcDbScale
 70
     0
300
1:5
140
1.0
141
5.0
290
     0
  0
SCALE
  5
40
102
{ACAD_REACTORS
330
3B
102
}
330
3B
100
AcDbScale
 70
     0
300
1:8
140
1.0
141
8.0
290
     0
  0
SCALE
  5
41
102
{ACAD_REACTORS
330
3B
102
}
330
3B
100
AcDbScale
 70
     0
300
1:10
140
1.0
141
10.0
290
     0
  0
SCALE
  5
42
102
{ACAD_REACTORS
330
3B
102
}
330
3B
100
AcDbScale
 70
     0
300
1:16
140
1.0
141
16.0
290
     0
  0
SCALE
  5
43
102
{ACAD_REACTORS
330
3B
102
}
330
3B
100
AcDbScale
 70
     0
300
1:20
140
1.0
141
20.0
290
     0
  0
SCALE
  5
44
102
{ACAD_REACTORS
330
3B
102
}
330
3B
100
AcDbScale
 70
     0
300
1:30
140
1.0
141
30.0
290
     0
  0
SCALE
  5
45
102
{ACAD_REACTORS
330
3B
102
}
330
3B
100
AcDbScale
 70
     0
300
1:40
140
1.0
141
40.0
290
     0
  0
SCALE
  5
46
102
{ACAD_REACTORS
330
3B
102
}
330
3B
100
AcDbScale
 70
     0
300
1:50
140
1.0
141
50.0
290
     0
  0
SCALE
  5
47
102
{ACAD_REACTORS
330
3B
102
}
330
3B
100
AcDbScale
 70
     0
300
1:100
140
1.0
141
100.0
290
     0
  0
SCALE
  5
48
102
{ACAD_REACTORS
330
3B
102
}
330
3B
100
AcDbScale
 70
     0
300
2:1
140
2.0
141
1.0
290
     0
  0
SCALE
  5
49
102
{ACAD_REACTORS
330
3B
102
}
330
3B
100
AcDbScale
 70
     0
300
4:1
140
4.0
141
1.0
290
     0
  0
SCALE
  5
4A
102
{ACAD_REACTORS
330
3B
102
}
330
3B
100
AcDbScale
 70
     0
300
8:1
140
8.0
141
1.0
290
     0
  0
SCALE
  5
4B
102
{ACAD_REACTORS
330
3B
102
}
330
3B
100
AcDbScale
 70
     0
300
10:1
140
10.0
141
1.0
290
     0
  0
SCALE
  5
4C
102
{ACAD_REACTORS
330
3B
102
}
330
3B
100
AcDbScale
 70
     0
300
100:1
140
100.0
141
1.0
290
     0
  0
SCALE
  5
4D
102
{ACAD_REACTORS
330
3B
102
}
330
3B
100
AcDbScale
 70
     0
300
1/128" = 1'-0"
140
0.0078125
141
12.0
290
     0
  0
SCALE
  5
4E
102
{ACAD_REACTORS
330
3B
102
}
330
3B
100
AcDbScale
 70
     0
300
1/64" = 1'-0"
140
0.015625
141
12.0
290
     0
  0
SCALE
  5
4F
102
{ACAD_REACTORS
330
3B
102
}
330
3B
100
AcDbScale
 70
     0
300
1/32" = 1'-0"
140
0.03125
141
12.0
290
     0
  0
SCALE
  5
50
102
{ACAD_REACTORS
330
3B
102
}
330
3B
100
AcDbScale
 70
     0
300
1/16" = 1'-0"
140
0.0625
141
12.0
290
     0
  0
SCALE
  5
51
102
{ACAD_REACTORS
330
3B
102
}
330
3B
100
AcDbScale
 70
     0
300
3/32" = 1'-0"
140
0.09375
141
12.0
290
     0
  0
SCALE
  5
52
102
{ACAD_REACTORS
330
3B
102
}
330
3B
100
AcDbScale
 70
     0
300
1/8" = 1'-0"
140
0.125
141
12.0
290
     0
  0
SCALE
  5
53
102
{ACAD_REACTORS
330
3B
102
}
330
3B
100
AcDbScale
 70
     0
300
3/16" = 1'-0"
140
0.1875
141
12.0
290
     0
  0
SCALE
  5
54
102
{ACAD_REACTORS
330
3B
102
}
330
3B
100
AcDbScale
 70
     0
300
1/4" = 1'-0"
140
0.25
141
12.0
290
     0
  0
SCALE
  5
55
102
{ACAD_REACTORS
330
3B
102
}
330
3B
100
AcDbScale
 70
     0
300
3/8" = 1'-0"
140
0.375
141
12.0
290
     0
  0
SCALE
  5
56
102
{ACAD_REACTORS
330
3B
102
}
330
3B
100
AcDbScale
 70
     0
300
1/2" = 1'-0"
140
0.5
141
12.0
290
     0
  0
SCALE
  5
57
102
{ACAD_REACTORS
330
3B
102
}
330
3B
100
AcDbScale
 70
     0
300
3/4" = 1'-0"
140
0.75
141
12.0
290
     0
  0
SCALE
  5
58
102
{ACAD_REACTORS
330
3B
102
}
330
3B
100
AcDbScale
 70
     0
300
1" = 1'-0"
140
1.0
141
12.0
290
     0
  0
SCALE
  5
59
102
{ACAD_REACTORS
330
3B
102
}
330
3B
100
AcDbScale
 70
     0
300
1-1/2" = 1'-0"
140
1.5
141
12.0
290
     0
  0
SCALE
  5
5A
102
{ACAD_REACTORS
330
3B
102
}
330
3B
100
AcDbScale
 70
     0
300
3" = 1'-0"
140
3.0
141
12.0
290
     0
  0
SCALE
  5
5B
102
{ACAD_REACTORS
330
3B
102
}
330
3B
100
AcDbScale
 70
     0
300
6" = 1'-0"
140
6.0
141
12.0
290
     0
  0
SCALE
  5
5C
102
{ACAD_REACTORS
330
3B
102
}
330
3B
100
AcDbScale
 70
     0
300
1'-0" = 1'-0"
140
12.0
141
12.0
290
     0
  0
VISUALSTYLE
  5
2F
102
{ACAD_REACTORS
330
2A
102
}
330
2A
100
AcDbVisualStyle
  2
2dWireframe
 70
     4
 71
     0
 72
     2
 73
     0
 90
        0
 40
-0.6
 41
-30.0
 62
     5
 63
     7
421
 16777215
 74
     1
 91
        4
 64
     7
 65
   257
 75
     1
175
     1
 42
1.0
 92
        0
 66
   257
 43
1.0
 76
     1
 77
     6
 78
     2
 67
     7
 79
     5
170
     0
171
     0
290
     0
174
     0
 93
        1
 44
0.0
173
     0
291
     0
 45
0.0
1001
ACAD
1000
AcDbSavedByObjectVersion
1070
     0
  0
VISUALSTYLE
  5
31
102
{ACAD_REACTORS
330
2A
102
}
330
2A
100
AcDbVisualStyle
  2
3D Hidden
 70
     6
 71
     1
 72
     2
 73
     2
 90
        0
 40
-0.6
 41
-30.0
 62
     5
 63
     7
421
 16777215
 74
     2
 91
        2
 64
     7
 65
   257
 75
     2
175
     1
 42
40.0
 92
        0
 66
   257
 43
1.0
 76
     1
 77
     6
 78
     2
 67
     7
 79
     3
170
     0
171
     0
290
     0
174
     0
 93
        1
 44
0.0
173
     0
291
     0
 45
0.0
1001
ACAD
1000
AcDbSavedByObjectVersion
1070
     0
  0
VISUALSTYLE
  5
30
102
{ACAD_REACTORS
330
2A
102
}
330
2A
100
AcDbVisualStyle
  2
3dWireframe
 70
     5
 71
     0
 72
     2
 73
     0
 90
        0
 40
-0.6
 41
-30.0
 62
     5
 63
     7
421
 16777215
 74
     1
 91
        4
 64
     7
 65
   257
 75
     1
175
     1
 42
1.0
 92
        0
 66
   257
 43
1.0
 76
     1
 77
     6
 78
     2
 67
     7
 79
     5
170
     0
171
     0
290
     0
174
     0
 93
        1
 44
0.0
173
     0
291
     0
 45
0.0
1001
ACAD
1000
AcDbSavedByObjectVersion
1070
     0
  0
VISUALSTYLE
  5
32
102
{ACAD_REACTORS
330
2A
102
}
330
2A
100
AcDbVisualStyle
  2
Basic
 70
     7
 71
     1
 72
     0
 73
     1
 90
        0
 40
-0.6
 41
-30.0
 62
     5
 63
     7
421
 16777215
 74
     0
 91
        4
 64
     7
 65
   257
 75
     1
175
     1
 42
1.0
 92
        8
 66
     7
 43
1.0
 76
     1
 77
     6
 78
     2
 67
     7
 79
     5
170
     0
171
     0
290
     0
174
     0
 93
        1
 44
0.0
173
     0
291
     1
 45
0.0
1001
ACAD
1000
AcDbSavedByObjectVersion
1070
     0
  0
VISUALSTYLE
  5
36
102
{ACAD_REACTORS
330
2A
102
}
330
2A
100
AcDbVisualStyle
  2
Brighten
 70
    12
 71
     2
 72
     2
 73
     0
 90
        0
 40
-0.6
 41
-30.0
 62
     5
 63
     7
421
 16777215
 74
     1
 91
        4
 64
     7
 65
   257
 75
     1
175
     1
 42
1.0
 92
        8
 66
     7
 43
1.0
 76
     1
 77
     6
 78
     2
 67
     7
 79
     5
170
     0
171
     0
290
     0
174
     0
 93
        1
 44
50.0
173
     0
291
     1
 45
0.0
1001
ACAD
1000
AcDbSavedByObjectVersion
1070
     0
  0
VISUALSTYLE
  5
3A
102
{ACAD_REACTORS
330
2A
102
}
330
2A
100
AcDbVisualStyle
  2
ColorChange
 70
    16
 71
     2
 72
     2
 73
     3
 90
        0
 40
-0.6
 41
-30.0
 62
     5
 63
     8
421
  8421504
 74
     1
 91
        4
 64
     7
 65
   257
 75
     1
175
     1
 42
1.0
 92
        8
 66
     8
424
  8421504
 43
1.0
 76
     1
 77
     6
 78
     2
 67
     7
 79
     5
170
     0
171
     0
290
     0
174
     0
 93
        1
 44
0.0
173
     0
291
     1
 45
0.0
1001
ACAD
1000
AcDbSavedByObjectVersion
1070
     0
  0
VISUALSTYLE
  5
34
102
{ACAD_REACTORS
330
2A
102
}
330
2A
100
AcDbVisualStyle
  2
Conceptual
 70
     9
 71
     3
 72
     2
 73
     0
 90
        0
 40
-0.6
 41
-30.0
 62
     5
 63
     7
421
 16777215
 74
     2
 91
        2
 64
     7
 65
   257
 75
     1
175
     1
 42
40.0
 92
        8
 66
     7
 43
1.0
 76
     1
 77
     6
 78
     2
 67
     7
 79
     3
170
     0
171
     0
290
     0
174
     0
 93
        1
 44
0.0
173
     0
291
     0
 45
0.0
1001
ACAD
1000
AcDbSavedByObjectVersion
1070
     0
  0
VISUALSTYLE
  5
35
102
{ACAD_REACTORS
330
2A
102
}
330
2A
100
AcDbVisualStyle
  2
Dim
 70
    11
 71
     2
 72
     2
 73
     0
 90
        0
 40
-0.6
 41
-30.0
 62
     5
 63
     7
421
 16777215
 74
     1
 91
        4
 64
     7
 65
   257
 75
     1
175
     1
 42
1.0
 92
        8
 66
     7
 43
1.0
 76
     1
 77
     6
 78
     2
 67
     7
 79
     5
170
     0
171
     0
290
     0
174
     0
 93
        1
 44
-50.0
173
     0
291
     1
 45
0.0
1001
ACAD
1000
AcDbSavedByObjectVersion
1070
     0
  0
VISUALSTYLE
  5
39
102
{ACAD_REACTORS
330
2A
102
}
330
2A
100
AcDbVisualStyle
  2
Facepattern
 70
    15
 71
     2
 72
     2
 73
     0
 90
        0
 40
-0.6
 41
-30.0
 62
     5
 63
     7
421
 16777215
 74
     1
 91
        4
 64
     7
 65
   257
 75
     1
175
     1
 42
1.0
 92
        8
 66
     7
 43
1.0
 76
     1
 77
     6
 78
     2
 67
     7
 79
     5
170
     0
171
     0
290
     0
174
     0
 93
        1
 44
0.0
173
     0
291
     1
 45
0.0
1001
ACAD
1000
AcDbSavedByObjectVersion
1070
     0
  0
VISUALSTYLE
  5
2B
102
{ACAD_REACTORS
330
2A
102
}
330
2A
100
AcDbVisualStyle
  2
Flat
 70
     0
 71
     2
 72
     1
 73
     1
 90
        2
 40
-0.6
 41
30.0
 62
     5
 63
     7
421
 16777215
 74
     0
 91
        4
 64
     7
 65
   257
 75
     1
175
     1
 42
1.0
 92
        8
 66
     7
 43
1.0
 76
     1
 77
     6
 78
     2
 67
     7
 79
     5
170
     0
171
     0
290
     0
174
     0
 93
       13
 44
0.0
173
     0
291
     1
 45
0.0
1001
ACAD
1000
AcDbSavedByObjectVersion
1070
     0
  0
VISUALSTYLE
  5
2C
102
{ACAD_REACTORS
330
2A
102
}
330
2A
100
AcDbVisualStyle
  2
FlatWithEdges
 70
     1
 71
     2
 72
     1
 73
     1
 90
        2
 40
-0.6
 41
30.0
 62
     5
 63
     7
421
 16777215
 74
     1
 91
        4
 64
     7
 65
   257
 75
     1
175
     1
 42
1.0
 92
        0
 66
   257
 43
1.0
 76
     1
 77
     6
 78
     2
 67
     7
 79
     5
170
     0
171
     0
290
     0
174
     0
 93
       13
 44
0.0
173
     0
291
     1
 45
0.0
1001
ACAD
1000
AcDbSavedByObjectVersion
1070
     0
  0
VISUALSTYLE
  5
2D
102
{ACAD_REACTORS
330
2A
102
}
330
2A
100
AcDbVisualStyle
  2
Gouraud
 70
     2
 71
     2
 72
     2
 73
     1
 90
        2
 40
-0.6
 41
30.0
 62
     5
 63
     7
421
 16777215
 74
     0
 91
        4
 64
     7
 65
   257
 75
     1
175
     1
 42
1.0
 92
        0
 66
     7
 43
1.0
 76
     1
 77
     6
 78
     2
 67
     7
 79
     5
170
     0
171
     0
290
     0
174
     0
 93
       13
 44
0.0
173
     0
291
     1
 45
0.0
1001
ACAD
1000
AcDbSavedByObjectVersion
1070
     0
  0
VISUALSTYLE
  5
2E
102
{ACAD_REACTORS
330
2A
102
}
330
2A
100
AcDbVisualStyle
  2
GouraudWithEdges
 70
     3
 71
     2
 72
     2
 73
     1
 90
        2
 40
-0.6
 41
30.0
 62
     5
 63
     7
421
 16777215
 74
     1
 91
        4
 64
     7
 65
   257
 75
     1
175
     1
 42
1.0
 92
        0
 66
   257
 43
1.0
 76
     1
 77
     6
 78
     2
 67
     7
 79
     5
170
     0
171
     0
290
     0
174
     0
 93
       13
 44
0.0
173
     0
291
     1
 45
0.0
1001
ACAD
1000
AcDbSavedByObjectVersion
1070
     0
  0
VISUALSTYLE
  5
38
102
{ACAD_REACTORS
330
2A
102
}
330
2A
100
AcDbVisualStyle
  2
Linepattern
 70
    14
 71
     2
 72
     2
 73
     0
 90
        0
 40
-0.6
 41
-30.0
 62
     5
 63
     7
421
 16777215
 74
     1
 91
        4
 64
     7
 65
   257
 75
     7
175
     7
 42
1.0
 92
        8
 66
     7
 43
1.0
 76
     1
 77
     6
 78
     2
 67
     7
 79
     5
170
     0
171
     0
290
     0
174
     0
 93
        1
 44
0.0
173
     0
291
     1
 45
0.0
1001
ACAD
1000
AcDbSavedByObjectVersion
1070
     0
  0
VISUALSTYLE
  5
33
102
{ACAD_REACTORS
330
2A
102
}
330
2A
100
AcDbVisualStyle
  2
Realistic
 70
     8
 71
     2
 72
     2
 73
     0
 90
        0
 40
-0.6
 41
-30.0
 62
     5
 63
     7
421
 16777215
 74
     1
 91
        0
 64
     7
 65
   257
 75
     1
175
     1
 42
1.0
 92
        8
 66
     8
424
  7895160
 43
1.0
 76
     1
 77
     6
 78
     2
 67
     7
 79
     5
170
     0
171
     0
290
     0
174
     0
 93
       13
 44
0.0
173
     0
291
     0
 45
0.0
1001
ACAD
1000
AcDbSavedByObjectVersion
1070
     0
  0
VISUALSTYLE
  5
37
102
{ACAD_REACTORS
330
2A
102
}
330
2A
100
AcDbVisualStyle
  2
Thicken
 70
    13
 71
     2
 72
     2
 73
     0
 90
        0
 40
-0.6
 41
-30.0
 62
     5
 63
     7
421
 16777215
 74
     1
 91
        4
 64
     7
 65
   257
 75
     1
175
     1
 42
1.0
 92
       12
 66
     7
 43
1.0
 76
     1
 77
     6
 78
     2
 67
     7
 79
     5
170
     0
171
     0
290
     0
174
     0
 93
        1
 44
0.0
173
     0
291
     1
 45
0.0
1001
ACAD
1000
AcDbSavedByObjectVersion
1070
     0
  0
ENDSEC
  0
EOF
