  0
SECTION
  2
HEADER
  9
$ACADVER
  1
AC1018
  9
$ACADMAINTVER
 70
     0
  9
$DWGCODEPAGE
  3
ANSI_1252
  9
$INSBASE
 10
0.0
 20
0.0
 30
0.0
  9
$EXTMIN
 10
-1.279528000000001
 20
-1.279528000000001
 30
0.0
  9
$EXTMAX
 10
56.78541888476988
 20
66.00788978177847
 30
0.0
  9
$LIMMIN
 10
0.0
 20
0.0
  9
$LIMMAX
 10
12.0
 20
9.0
  9
$ORTHOMODE
 70
     0
  9
$REGENMODE
 70
     1
  9
$FILLMODE
 70
     1
  9
$QTEXTMODE
 70
     0
  9
$MIRRTEXT
 70
     1
  9
$LTSCALE
 40
1.0
  9
$ATTMODE
 70
     1
  9
$TEXTSIZE
 40
0.2
  9
$TRACEWID
 40
0.05
  9
$TEXTSTYLE
  7
Standard
  9
$CLAYER
  8
DEFAULT
  9
$CELTYPE
  6
ByLayer
  9
$CECOLOR
 62
   256
  9
$CELTSCALE
 40
1.0
  9
$DISPSILH
 70
     0
  9
$DIMSCALE
 40
1.0
  9
$DIMASZ
 40
0.18
  9
$DIMEXO
 40
0.0625
  9
$DIMDLI
 40
0.38
  9
$DIMRND
 40
0.0
  9
$DIMDLE
 40
0.0
  9
$DIMEXE
 40
0.18
  9
$DIMTP
 40
0.0
  9
$DIMTM
 40
0.0
  9
$DIMTXT
 40
0.18
  9
$DIMCEN
 40
0.09
  9
$DIMTSZ
 40
0.0
  9
$DIMTOL
 70
     0
  9
$DIMLIM
 70
     0
  9
$DIMTIH
 70
     1
  9
$DIMTOH
 70
     1
  9
$DIMSE1
 70
     0
  9
$DIMSE2
 70
     0
  9
$DIMTAD
 70
     0
  9
$DIMZIN
 70
     0
  9
$DIMBLK
  1

  9
$DIMASO
 70
     1
  9
$DIMSHO
 70
     1
  9
$DIMPOST
  1

  9
$DIMAPOST
  1

  9
$DIMALT
 70
     0
  9
$DIMALTD
 70
     2
  9
$DIMALTF
 40
25.4
  9
$DIMLFAC
 40
1.0
  9
$DIMTOFL
 70
     0
  9
$DIMTVP
 40
0.0
  9
$DIMTIX
 70
     0
  9
$DIMSOXD
 70
     0
  9
$DIMSAH
 70
     0
  9
$DIMBLK1
  1

  9
$DIMBLK2
  1

  9
$DIMSTYLE
  2
Standard
  9
$DIMCLRD
 70
     0
  9
$DIMCLRE
 70
     0
  9
$DIMCLRT
 70
     0
  9
$DIMTFAC
 40
1.0
  9
$DIMGAP
 40
0.09
  9
$DIMJUST
 70
     0
  9
$DIMSD1
 70
     0
  9
$DIMSD2
 70
     0
  9
$DIMTOLJ
 70
     1
  9
$DIMTZIN
 70
     0
  9
$DIMALTZ
 70
     0
  9
$DIMALTTZ
 70
     0
  9
$DIMUPT
 70
     0
  9
$DIMDEC
 70
     4
  9
$DIMTDEC
 70
     4
  9
$DIMALTU
 70
     2
  9
$DIMALTTD
 70
     2
  9
$DIMTXSTY
  7
Standard
  9
$DIMAUNIT
 70
     0
  9
$DIMADEC
 70
     0
  9
$DIMALTRND
 40
0.0
  9
$DIMAZIN
 70
     0
  9
$DIMDSEP
 70
    46
  9
$DIMATFIT
 70
     3
  9
$DIMFRAC
 70
     0
  9
$DIMLDRBLK
  1

  9
$DIMLUNIT
 70
     2
  9
$DIMLWD
 70
    -2
  9
$DIMLWE
 70
    -2
  9
$DIMTMOVE
 70
     0
  9
$LUNITS
 70
     2
  9
$LUPREC
 70
     3
  9
$SKETCHINC
 40
0.1
  9
$FILLETRAD
 40
0.5
  9
$AUNITS
 70
     0
  9
$AUPREC
 70
     0
  9
$MENU
  1
.
  9
$ELEVATION
 40
0.0
  9
$PELEVATION
 40
0.0
  9
$THICKNESS
 40
0.0
  9
$LIMCHECK
 70
     0
  9
$CHAMFERA
 40
0.5
  9
$CHAMFERB
 40
0.5
  9
$CHAMFERC
 40
1.0
  9
$CHAMFERD
 40
0.0
  9
$SKPOLY
 70
     0
  9
$TDCREATE
 40
2454651.640855116
  9
$TDUCREATE
 40
2454651.807521782
  9
$TDUPDATE
 40
2454651.640855127
  9
$TDUUPDATE
 40
2454651.807521794
  9
$TDINDWG
 40
0.0000000116
  9
$TDUSRTIMER
 40
0.0000000116
  9
$USRTIMER
 70
     1
  9
$ANGBASE
 50
0.0
  9
$ANGDIR
 70
     0
  9
$PDMODE
 70
     0
  9
$PDSIZE
 40
0.0
  9
$PLINEWID
 40
0.0
  9
$SPLFRAME
 70
     0
  9
$SPLINETYPE
 70
     6
  9
$SPLINESEGS
 70
     8
  9
$HANDSEED
  5
319
  9
$SURFTAB1
 70
     6
  9
$SURFTAB2
 70
     6
  9
$SURFTYPE
 70
     6
  9
$SURFU
 70
     6
  9
$SURFV
 70
     6
  9
$UCSBASE
  2

  9
$UCSNAME
  2

  9
$UCSORG
 10
0.0
 20
0.0
 30
0.0
  9
$UCSXDIR
 10
1.0
 20
0.0
 30
0.0
  9
$UCSYDIR
 10
0.0
 20
1.0
 30
0.0
  9
$UCSORTHOREF
  2

  9
$UCSORTHOVIEW
 70
     0
  9
$UCSORGTOP
 10
0.0
 20
0.0
 30
0.0
  9
$UCSORGBOTTOM
 10
0.0
 20
0.0
 30
0.0
  9
$UCSORGLEFT
 10
0.0
 20
0.0
 30
0.0
  9
$UCSORGRIGHT
 10
0.0
 20
0.0
 30
0.0
  9
$UCSORGFRONT
 10
0.0
 20
0.0
 30
0.0
  9
$UCSORGBACK
 10
0.0
 20
0.0
 30
0.0
  9
$PUCSBASE
  2

  9
$PUCSNAME
  2

  9
$PUCSORG
 10
0.0
 20
0.0
 30
0.0
  9
$PUCSXDIR
 10
1.0
 20
0.0
 30
0.0
  9
$PUCSYDIR
 10
0.0
 20
1.0
 30
0.0
  9
$PUCSORTHOREF
  2

  9
$PUCSORTHOVIEW
 70
     0
  9
$PUCSORGTOP
 10
0.0
 20
0.0
 30
0.0
  9
$PUCSORGBOTTOM
 10
0.0
 20
0.0
 30
0.0
  9
$PUCSORGLEFT
 10
0.0
 20
0.0
 30
0.0
  9
$PUCSORGRIGHT
 10
0.0
 20
0.0
 30
0.0
  9
$PUCSORGFRONT
 10
0.0
 20
0.0
 30
0.0
  9
$PUCSORGBACK
 10
0.0
 20
0.0
 30
0.0
  9
$USERI1
 70
     0
  9
$USERI2
 70
     0
  9
$USERI3
 70
     0
  9
$USERI4
 70
     0
  9
$USERI5
 70
     0
  9
$USERR1
 40
0.0
  9
$USERR2
 40
0.0
  9
$USERR3
 40
0.0
  9
$USERR4
 40
0.0
  9
$USERR5
 40
0.0
  9
$WORLDVIEW
 70
     1
  9
$SHADEDGE
 70
     3
  9
$SHADEDIF
 70
    70
  9
$TILEMODE
 70
     1
  9
$MAXACTVP
 70
    64
  9
$PINSBASE
 10
0.0
 20
0.0
 30
0.0
  9
$PLIMCHECK
 70
     0
  9
$PEXTMIN
 10
1.000000000000000E+20
 20
1.000000000000000E+20
 30
1.000000000000000E+20
  9
$PEXTMAX
 10
-1.000000000000000E+20
 20
-1.000000000000000E+20
 30
-1.000000000000000E+20
  9
$PLIMMIN
 10
0.0
 20
0.0
  9
$PLIMMAX
 10
12.0
 20
9.0
  9
$UNITMODE
 70
     0
  9
$VISRETAIN
 70
     1
  9
$PLINEGEN
 70
     0
  9
$PSLTSCALE
 70
     1
  9
$TREEDEPTH
 70
  3020
  9
$CMLSTYLE
  2
Standard
  9
$CMLJUST
 70
     0
  9
$CMLSCALE
 40
1.0
  9
$PROXYGRAPHICS
 70
     1
  9
$MEASUREMENT
 70
     0
  9
$CELWEIGHT
370
    -1
  9
$ENDCAPS
280
     0
  9
$JOINSTYLE
280
     0
  9
$LWDISPLAY
290
     0
  9
$INSUNITS
 70
     1
  9
$HYPERLINKBASE
  1

  9
$STYLESHEET
  1

  9
$XEDIT
290
     1
  9
$CEPSNTYPE
380
     0
  9
$PSTYLEMODE
290
     1
  9
$FINGERPRINTGUID
  2
{F7C9E120-73DE-4A6B-820D-1F6ECC3F1EFE}
  9
$VERSIONGUID
  2
{FAEB1C32-E019-11D5-929B-00C0DF256EC4}
  9
$EXTNAMES
290
     1
  9
$PSVPSCALE
 40
0.0
  9
$OLESTARTUP
290
     0
  9
$SORTENTS
280
   127
  9
$INDEXCTL
280
     0
  9
$HIDETEXT
280
     1
  9
$XCLIPFRAME
290
     0
  9
$HALOGAP
280
     0
  9
$OBSCOLOR
 70
   257
  9
$OBSLTYPE
280
     0
  9
$INTERSECTIONDISPLAY
280
     0
  9
$INTERSECTIONCOLOR
 70
   257
  9
$DIMASSOC
280
     2
  9
$PROJECTNAME
  1

  0
ENDSEC
  0
SECTION
  2
CLASSES
  0
CLASS
  1
ACDBDICTIONARYWDFLT
  2
AcDbDictionaryWithDefault
  3
ObjectDBX Classes
 90
        0
 91
        3
280
     0
281
     0
  0
CLASS
  1
VISUALSTYLE
  2
AcDbVisualStyle
  3
ObjectDBX Classes
 90
     4095
 91
        3
280
     0
281
     0
  0
CLASS
  1
SCALE
  2
AcDbScale
  3
ObjectDBX Classes
 90
     1153
 91
        3
280
     0
281
     0
  0
ENDSEC
  0
SECTION
  2
TABLES
  0
TABLE
  2
VPORT
  5
8
330
0
100
AcDbSymbolTable
 70
     1
  0
VPORT
  5
29
330
8
100
AcDbSymbolTableRecord
100
AcDbViewportTableRecord
  2
*Active
 70
     0
 10
0.0
 20
0.0
 11
1.0
 21
1.0
 12
0.0
 22
0.0
 13
0.0
 23
0.0
 14
0.5
 24
0.5
 15
0.5
 25
0.5
 16
0.0
 26
0.0
 36
1.0
 17
27.75294544238494
 27
32.36418089088924
 37
0.0
 40
68.63316613741404
 41
0.8629391467076621
 42
50.0
 43
0.0
 44
0.0
 50
0.0
 51
0.0
 71
     0
 72
   100
 73
     1
 74
     3
 75
     0
 76
     0
 77
     0
 78
     0
281
     0
 65
     1
110
0.0
120
0.0
130
0.0
111
1.0
121
0.0
131
0.0
112
0.0
122
1.0
132
0.0
 79
     0
146
0.0
  0
ENDTAB
  0
TABLE
  2
LTYPE
  5
5
330
0
100
AcDbSymbolTable
 70
     1
  0
LTYPE
  5
14
330
5
100
AcDbSymbolTableRecord
100
AcDbLinetypeTableRecord
  2
ByBlock
 70
     0
  3

 72
    65
 73
     0
 40
0.0
  0
LTYPE
  5
15
330
5
100
AcDbSymbolTableRecord
100
AcDbLinetypeTableRecord
  2
ByLayer
 70
     0
  3

 72
    65
 73
     0
 40
0.0
  0
LTYPE
  5
16
330
5
100
AcDbSymbolTableRecord
100
AcDbLinetypeTableRecord
  2
Continuous
 70
     0
  3
Solid line
 72
    65
 73
     0
 40
0.0
  0
ENDTAB
  0
TABLE
  2
LAYER
  5
2
330
0
100
AcDbSymbolTable
 70
     2
  0
LAYER
  5
10
330
2
100
AcDbSymbolTableRecord
100
AcDbLayerTableRecord
  2
0
 70
     0
 62
     7
  6
Continuous
370
    -3
390
F
  0
LAYER
  5
5D
330
2
100
AcDbSymbolTableRecord
100
AcDbLayerTableRecord
  2
DEFAULT
 70
     0
 62
     7
  6
Continuous
370
    -3
390
F
  0
ENDTAB
  0
TABLE
  2
STYLE
  5
3
330
0
100
AcDbSymbolTable
 70
     1
  0
STYLE
  5
11
330
3
100
AcDbSymbolTableRecord
100
AcDbTextStyleTableRecord
  2
Standard
 70
     0
 40
0.0
 41
1.0
 50
0.0
 71
     0
 42
0.2
  3
txt
  4

  0
ENDTAB
  0
TABLE
  2
VIEW
  5
6
330
0
100
AcDbSymbolTable
 70
     0
  0
ENDTAB
  0
TABLE
  2
UCS
  5
7
330
0
100
AcDbSymbolTable
 70
     0
  0
ENDTAB
  0
TABLE
  2
APPID
  5
9
330
0
100
AcDbSymbolTable
 70
     1
  0
APPID
  5
12
330
9
100
AcDbSymbolTableRecord
100
AcDbRegAppTableRecord
  2
ACAD
 70
     0
  0
ENDTAB
  0
TABLE
  2
DIMSTYLE
  5
A
330
0
100
AcDbSymbolTable
 70
     1
100
AcDbDimStyleTable
  0
DIMSTYLE
105
27
330
A
100
AcDbSymbolTableRecord
100
AcDbDimStyleTableRecord
  2
Standard
 70
     0
340
11
  0
ENDTAB
  0
TABLE
  2
BLOCK_RECORD
  5
1
330
0
100
AcDbSymbolTable
 70
     1
  0
BLOCK_RECORD
  5
1F
330
1
100
AcDbSymbolTableRecord
100
AcDbBlockTableRecord
  2
*Model_Space
340
22
  0
BLOCK_RECORD
  5
1B
330
1
100
AcDbSymbolTableRecord
100
AcDbBlockTableRecord
  2
*Paper_Space
340
1E
  0
BLOCK_RECORD
  5
23
330
1
100
AcDbSymbolTableRecord
100
AcDbBlockTableRecord
  2
*Paper_Space0
340
26
  0
ENDTAB
  0
ENDSEC
  0
SECTION
  2
BLOCKS
  0
BLOCK
  5
20
330
1F
100
AcDbEntity
  8
0
100
AcDbBlockBegin
  2
*Model_Space
 70
     0
 10
0.0
 20
0.0
 30
0.0
  3
*Model_Space
  1

  0
ENDBLK
  5
21
330
1F
100
AcDbEntity
  8
0
100
AcDbBlockEnd
  0
BLOCK
  5
1C
330
1B
100
AcDbEntity
 67
     1
  8
0
100
AcDbBlockBegin
  2
*Paper_Space
 70
     0
 10
0.0
 20
0.0
 30
0.0
  3
*Paper_Space
  1

  0
ENDBLK
  5
1D
330
1B
100
AcDbEntity
 67
     1
  8
0
100
AcDbBlockEnd
  0
BLOCK
  5
24
330
23
100
AcDbEntity
  8
0
100
AcDbBlockBegin
  2
*Paper_Space0
 70
     0
 10
0.0
 20
0.0
 30
0.0
  3
*Paper_Space0
  1

  0
ENDBLK
  5
25
330
23
100
AcDbEntity
  8
0
100
AcDbBlockEnd
  0
ENDSEC
  0
SECTION
  2
ENTITIES
  0
SPLINE
  5
5E
330
1F
100
AcDbEntity
  8
DEFAULT
100
AcDbSpline
210
0.0
220
0.0
230
1.0
 70
     8
 71
     3
 72
    12
 73
     8
 74
     0
 42
0.0000000001
 43
0.0000000001
 40
0.0
 40
0.0
 40
0.0
 40
0.0
 40
0.2019030208471
 40
0.4028010810718
 40
0.6033397257016
 40
0.8032226618697
 40
1.0
 40
1.0
 40
1.0
 40
1.0
 10
24.40695736473999
 20
2.57059094089
 30
0.0
 10
24.42276422449
 20
2.567380268959994
 30
0.0
 10
24.45359114860001
 20
2.556651602239995
 30
0.0
 10
24.49372468691
 20
2.528972846960002
 30
0.0
 10
24.52501338127
 20
2.491745313409993
 30
0.0
 10
24.54517843455999
 20
2.447903409709994
 30
0.0
 10
24.55045730142
 20
2.416217846169999
 30
0.0
 10
24.55098437828001
 20
2.40050652731999
 30
0.0
  0
ARC
  5
5F
330
1F
100
AcDbEntity
  8
DEFAULT
100
AcDbCircle
 10
55.6577587390954
 20
1.644802999999996
 30
0.0
 40
0.070000154331804
100
AcDbArc
 50
213.1876810034019
 51
270.0
  0
SPLINE
  5
60
330
1F
100
AcDbEntity
  8
DEFAULT
100
AcDbSpline
210
0.0
220
0.0
230
1.0
 70
    24
 71
     2
 72
     6
 73
     3
 74
     0
 42
0.0000000001
 43
0.0000000001
 40
0.0
 40
0.0
 40
0.0
 40
1.0
 40
1.0
 40
1.0
 10
47.62989273909541
 20
1.441068000000001
 30
0.0
 10
47.62989273909541
 20
0.9929814999999991
 30
0.0
 10
47.62989273909541
 20
0.5448949999999968
 30
0.0
  0
SPLINE
  5
61
330
1F
100
AcDbEntity
  8
DEFAULT
100
AcDbSpline
210
0.0
220
0.0
230
1.0
 70
    24
 71
     2
 72
     6
 73
     3
 74
     0
 42
0.0000000001
 43
0.0000000001
 40
0.0
 40
0.0
 40
0.0
 40
0.3520456048900895
 40
0.3520456048900895
 40
0.3520456048900895
 10
13.53442399999999
 20
64.57165328930706
 30
0.0
 10
13.53442399999999
 20
64.51967639608708
 30
0.0
 10
13.53442399999999
 20
64.46769950286709
 30
0.0
  0
SPLINE
  5
62
330
1F
100
AcDbEntity
  8
DEFAULT
100
AcDbSpline
210
0.0
220
0.0
230
1.0
 70
    24
 71
     2
 72
     6
 73
     3
 74
     0
 42
0.0000000001
 43
0.0000000001
 40
0.6872691236689066
 40
0.6872691236689066
 40
0.6872691236689066
 40
1.0
 40
1.0
 40
1.0
 10
14.56060111732948
 20
64.04092928930704
 30
0.0
 10
14.74469655866474
 20
64.04092928930704
 30
0.0
 10
14.928792
 20
64.04092928930704
 30
0.0
  0
ARC
  5
63
330
1F
100
AcDbEntity
  8
DEFAULT
100
AcDbCircle
 10
11.64467299999999
 20
52.42291028930707
 30
0.0
 40
8.749999999999993
100
AcDbArc
 50
116.0810052408535
 51
172.427706894995
  0
ARC
  5
64
330
1F
100
AcDbEntity
  8
DEFAULT
100
AcDbCircle
 10
11.64467299999999
 20
52.42291028930707
 30
0.0
 40
8.749999999999993
100
AcDbArc
 50
191.3319297640909
 51
63.91901185710019
  0
SPLINE
  5
65
330
1F
100
AcDbEntity
  8
DEFAULT
100
AcDbSpline
210
0.0
220
0.0
230
1.0
 70
    24
 71
     2
 72
     6
 73
     3
 74
     0
 42
0.0000000001
 43
0.0000000001
 40
0.0
 40
0.0
 40
0.0
 40
1.0
 40
1.0
 40
1.0
 10
1.062500999999997
 20
43.65127528930707
 30
0.0
 10
0.0000009999999975
 20
43.65127528930707
 30
0.0
 10
-1.062499000000003
 20
43.65127528930707
 30
0.0
  0
ARC
  5
66
330
1F
100
AcDbEntity
  8
DEFAULT
100
AcDbCircle
 10
13.59347899999999
 20
65.47716528930705
 30
0.0
 40
0.0590550000000007
100
AcDbArc
 50
180.0
 51
270.0
  0
SPLINE
  5
67
330
1F
100
AcDbEntity
  8
DEFAULT
100
AcDbSpline
210
0.0
220
0.0
230
1.0
 70
    24
 71
     2
 72
     6
 73
     3
 74
     0
 42
0.0000000001
 43
0.0000000001
 40
0.0
 40
0.0
 40
0.0
 40
1.0
 40
1.0
 40
1.0
 10
0.5608579999999961
 20
45.02845728930707
 30
0.0
 10
-0.3298060000000049
 20
45.02845728930707
 30
0.0
 10
-1.220470000000006
 20
45.02845728930707
 30
0.0
  0
ARC
  5
68
330
1F
100
AcDbEntity
  8
DEFAULT
100
AcDbCircle
 10
15.73914799999999
 20
65.02440928930706
 30
0.0
 40
0.5364170223207718
100
AcDbArc
 50
307.7420511759722
 51
17.74726778382737
  0
SPLINE
  5
69
330
1F
100
AcDbEntity
  8
DEFAULT
100
AcDbSpline
210
0.0
220
0.0
230
1.0
 70
     8
 71
     3
 72
     9
 73
     5
 74
     0
 42
0.0000000001
 43
0.0000000001
 40
0.831115299114051
 40
0.831115299114051
 40
0.831115299114051
 40
0.831115299114051
 40
0.8872678893821
 40
1.0
 40
1.0
 40
1.0
 40
1.0
 10
5.456075176390591
 20
57.64892760439672
 30
0.0
 10
5.396327592674233
 20
57.6894781606867
 30
0.0
 10
5.216637382502178
 20
57.81144816186453
 30
0.0
 10
5.036967661687989
 20
57.93344834525705
 30
0.0
 10
4.917045605717
 20
58.01489808456706
 30
0.0
  0
SPLINE
  5
6A
330
1F
100
AcDbEntity
  8
DEFAULT
100
AcDbSpline
210
0.0
220
0.0
230
1.0
 70
     8
 71
     3
 72
     9
 73
     5
 74
     0
 42
0.0000000001
 43
0.0000000001
 40
0.0
 40
0.0
 40
0.0
 40
0.0
 40
0.08864575117237
 40
0.1342231965623575
 40
0.1342231965623575
 40
0.1342231965623575
 40
0.1342231965623575
 10
4.246829455018009
 20
57.09370767560706
 30
0.0
 10
4.360268325440991
 20
57.00566452048706
 30
0.0
 10
4.532017244261603
 20
56.87233462045857
 30
0.0
 10
4.703743737273136
 20
56.73897583947202
 30
0.0
 10
4.762053391079213
 20
56.69368859295373
 30
0.0
  0
SPLINE
  5
6B
330
1F
100
AcDbEntity
  8
DEFAULT
100
AcDbSpline
210
0.0
220
0.0
230
1.0
 70
    24
 71
     2
 72
     6
 73
     3
 74
     0
 42
0.0000000001
 43
0.0000000001
 40
0.8744639683697621
 40
0.8744639683697621
 40
0.8744639683697621
 40
1.0
 40
1.0
 40
1.0
 10
11.26967299999999
 20
44.33159550121484
 30
0.0
 10
11.26967299999999
 20
44.00652239526094
 30
0.0
 10
11.26967299999999
 20
43.68144928930705
 30
0.0
  0
SPLINE
  5
6C
330
1F
100
AcDbEntity
  8
DEFAULT
100
AcDbSpline
210
0.0
220
0.0
230
1.0
 70
     8
 71
     3
 72
     9
 73
     5
 74
     0
 42
0.0000000001
 43
0.0000000001
 40
0.8657767706735006
 40
0.8657767706735006
 40
0.8657767706735006
 40
0.8657767706735006
 40
0.9452384792926
 40
1.0
 40
1.0
 40
1.0
 40
1.0
 10
4.7620531174801
 20
48.15213242658207
 30
0.0
 10
4.660393526162188
 20
48.07317666711043
 30
0.0
 10
4.488661344545996
 20
47.93982514217045
 30
0.0
 10
4.316906718331985
 20
47.80650252747706
 30
0.0
 10
4.246829081782984
 20
47.75211326745706
 30
0.0
  0
SPLINE
  5
6D
330
1F
100
AcDbEntity
  8
DEFAULT
100
AcDbSpline
210
0.0
220
0.0
230
1.0
 70
     8
 71
     3
 72
     8
 73
     4
 74
     0
 42
0.0000000001
 43
0.0000000001
 40
0.0
 40
0.0
 40
0.0
 40
0.0
 40
0.1371072377085417
 40
0.1371072377085417
 40
0.1371072377085417
 40
0.1371072377085417
 10
14.88395446891001
 20
44.29675584384707
 30
0.0
 10
14.82344414085553
 20
44.50525230278616
 30
0.0
 10
14.7629689105422
 20
44.71375894759662
 30
0.0
 10
14.70252865517834
 20
44.92227573001183
 30
0.0
  0
SPLINE
  5
6E
330
1F
100
AcDbEntity
  8
DEFAULT
100
AcDbSpline
210
0.0
220
0.0
230
1.0
 70
     8
 71
     3
 72
     8
 73
     4
 74
     0
 42
0.0000000001
 43
0.0000000001
 40
0.875454155899959
 40
0.875454155899959
 40
0.875454155899959
 40
0.875454155899959
 40
1.0
 40
1.0
 40
1.0
 40
1.0
 10
13.57957788011198
 20
44.55740692938669
 30
0.0
 10
13.65321547105411
 20
44.35326588493824
 30
0.0
 10
13.72681883601363
 20
44.14911249437016
 30
0.0
 10
13.8003878443
 20
43.94494672349707
 30
0.0
  0
SPLINE
  5
6F
330
1F
100
AcDbEntity
  8
DEFAULT
100
AcDbSpline
210
0.0
220
0.0
230
1.0
 70
    24
 71
     2
 72
     6
 73
     3
 74
     0
 42
0.0000000001
 43
0.0000000001
 40
0.0
 40
0.0
 40
0.0
 40
1.0
 40
1.0
 40
1.0
 10
16.09347899999999
 20
65.77245028930706
 30
0.0
 10
16.09347899999999
 20
65.62480778930706
 30
0.0
 10
16.09347899999999
 20
65.47716528930705
 30
0.0
  0
ARC
  5
70
330
1F
100
AcDbEntity
  8
DEFAULT
100
AcDbCircle
 10
-1.043306000000001
 20
45.38279728930706
 30
0.0
 40
0.2362205058949281
100
AcDbArc
 50
94.66044957064801
 51
180.0
  0
ARC
  5
71
330
1F
100
AcDbEntity
  8
DEFAULT
100
AcDbCircle
 10
0.9251979999999946
 20
44.63475628930706
 30
0.0
 40
0.5364175276786594
100
AcDbArc
 50
171.7755790160684
 51
260.3163186457281
  0
ARC
  5
72
330
1F
100
AcDbEntity
  8
DEFAULT
100
AcDbCircle
 10
15.85725799999999
 20
65.77245028930706
 30
0.0
 40
0.2362205058949283
100
AcDbArc
 50
0.0
 51
85.339550429352
  0
ARC
  5
73
330
1F
100
AcDbEntity
  8
DEFAULT
100
AcDbCircle
 10
24.894673
 20
52.42291028930707
 30
0.0
 40
0.5364170312406187
100
AcDbArc
 50
235.7390327164817
 51
305.7577012451446
  0
SPLINE
  5
74
330
1F
100
AcDbEntity
  8
DEFAULT
100
AcDbSpline
210
0.0
220
0.0
230
1.0
 70
    24
 71
     2
 72
     6
 73
     3
 74
     0
 42
0.0000000001
 43
0.0000000001
 40
0.0
 40
0.0
 40
0.0
 40
1.0
 40
1.0
 40
1.0
 10
1.279527999999999
 20
60.95910628930706
 30
0.0
 10
1.279527999999999
 20
60.81146378930707
 30
0.0
 10
1.279527999999999
 20
60.66382128930708
 30
0.0
  0
SPLINE
  5
75
330
1F
100
AcDbEntity
  8
DEFAULT
100
AcDbSpline
210
0.0
220
0.0
230
1.0
 70
    24
 71
     2
 72
     6
 73
     3
 74
     0
 42
0.0000000001
 43
0.0000000001
 40
0.0
 40
0.0
 40
0.0
 40
1.0
 40
1.0
 40
1.0
 10
15.14002800000002
 20
40.21511228930706
 30
0.0
 10
14.366754
 20
40.21511228930706
 30
0.0
 10
13.59347999999999
 20
40.21511228930706
 30
0.0
  0
SPLINE
  5
76
330
1F
100
AcDbEntity
  8
DEFAULT
100
AcDbSpline
210
0.0
220
0.0
230
1.0
 70
    24
 71
     2
 72
     6
 73
     3
 74
     0
 42
0.0000000001
 43
0.0000000001
 40
0.0
 40
0.0
 40
0.0
 40
1.0
 40
1.0
 40
1.0
 10
14.81395100000002
 20
39.46204128930707
 30
0.0
 10
14.81395100000002
 20
39.82141178930706
 30
0.0
 10
14.81395100000002
 20
40.18078228930706
 30
0.0
  0
SPLINE
  5
77
330
1F
100
AcDbEntity
  8
DEFAULT
100
AcDbSpline
210
0.0
220
0.0
230
1.0
 70
    24
 71
     2
 72
     6
 73
     3
 74
     0
 42
0.0000000001
 43
0.0000000001
 40
0.0
 40
0.0
 40
0.0
 40
1.0
 40
1.0
 40
1.0
 10
16.09347899999999
 20
39.36865628930705
 30
0.0
 10
16.09347899999999
 20
39.22101378930706
 30
0.0
 10
16.09347899999999
 20
39.07337128930706
 30
0.0
  0
ARC
  5
78
330
1F
100
AcDbEntity
  8
DEFAULT
100
AcDbCircle
 10
15.85725799999999
 20
40.56945228930705
 30
0.0
 40
0.2362210911222643
100
AcDbArc
 50
0.0
 51
79.06229165365468
  0
SPLINE
  5
79
330
1F
100
AcDbEntity
  8
DEFAULT
100
AcDbSpline
210
0.0
220
0.0
230
1.0
 70
    24
 71
     2
 72
     6
 73
     3
 74
     0
 42
0.0000000001
 43
0.0000000001
 40
0.0
 40
0.0
 40
0.0
 40
1.0
 40
1.0
 40
1.0
 10
16.09347899999999
 20
64.57165328930706
 30
0.0
 10
16.09347899999999
 20
64.42401078930706
 30
0.0
 10
16.09347899999999
 20
64.27636828930706
 30
0.0
  0
ARC
  5
7A
330
1F
100
AcDbEntity
  8
DEFAULT
100
AcDbCircle
 10
25.012783
 20
51.67486928930707
 30
0.0
 40
0.2362200058949278
100
AcDbArc
 50
274.6604495706482
 51
0.0
  0
ARC
  5
7B
330
1F
100
AcDbEntity
  8
DEFAULT
100
AcDbCircle
 10
15.85725799999999
 20
39.07337128930706
 30
0.0
 40
0.2362210042417927
100
AcDbArc
 50
274.6604298632041
 51
0.0
  0
ARC
  5
7C
330
1F
100
AcDbEntity
  8
DEFAULT
100
AcDbCircle
 10
-1.220472000000001
 20
60.66382128930708
 30
0.0
 40
0.0590550000000005
100
AcDbArc
 50
180.0
 51
270.0
  0
ARC
  5
7D
330
1F
100
AcDbEntity
  8
DEFAULT
100
AcDbCircle
 10
-1.043306000000001
 20
59.46302428930706
 30
0.0
 40
0.2362205058949281
100
AcDbArc
 50
180.0
 51
265.339550429352
  0
ARC
  5
7E
330
1F
100
AcDbEntity
  8
DEFAULT
100
AcDbCircle
 10
0.9251979999999946
 20
44.63475628930706
 30
0.0
 40
0.5364173590316335
100
AcDbArc
 50
91.74653941234051
 51
161.7311661631166
  0
ARC
  5
7F
330
1F
100
AcDbEntity
  8
DEFAULT
100
AcDbCircle
 10
1.220472999999998
 20
60.66382128930708
 30
0.0
 40
0.0590552853089289
100
AcDbArc
 50
319.6777845980486
 51
0.0
  0
ARC
  5
80
330
1F
100
AcDbEntity
  8
DEFAULT
100
AcDbCircle
 10
13.77064399999999
 20
39.07337128930706
 30
0.0
 40
0.2362205042417922
100
AcDbArc
 50
180.0
 51
265.3395701367958
  0
SPLINE
  5
81
330
1F
100
AcDbEntity
  8
DEFAULT
100
AcDbSpline
210
0.0
220
0.0
230
1.0
 70
     8
 71
     3
 72
    22
 73
    18
 74
     0
 42
0.0000000001
 43
0.0000000001
 40
0.0
 40
0.0
 40
0.0
 40
0.0
 40
0.03224395920562
 40
0.06516053164785
 40
0.09997471003698
 40
0.1385729705325
 40
0.1823155546999
 40
0.2325208678284
 40
0.289874924307
 40
0.3542798855111
 40
0.4249033629272
 40
0.5017027446386
 40
0.5854199733651
 40
0.6765973481372
 40
0.7756816683752
 40
0.8832736446482
 40
1.0
 40
1.0
 40
1.0
 40
1.0
 10
10.733659923453
 20
5.05836325304
 30
0.0
 10
10.74164152919898
 20
5.05836325304
 30
0.0
 10
10.75786262090299
 20
5.056411249039996
 30
0.0
 10
10.78102812073499
 20
5.04693565318
 30
0.0
 10
10.802343747946
 20
5.031103500429992
 30
0.0
 10
10.821710452765
 20
5.009307719459997
 30
0.0
 10
10.83938072980701
 20
4.981537021180003
 30
0.0
 10
10.855480727893
 20
4.947641034079993
 30
0.0
 10
10.870004195969
 20
4.907574229559998
 30
0.0
 10
10.88284881756798
 20
4.861681220080001
 30
0.0
 10
10.893987489926
 20
4.810418153629996
 30
0.0
 10
10.90349117909299
 20
4.753979754629995
 30
0.0
 10
10.91145812863699
 20
4.692174490550002
 30
0.0
 10
10.91794806706398
 20
4.624655516399997
 30
0.0
 10
10.922976641563
 20
4.551089027419991
 30
0.0
 10
10.92653224761401
 20
4.47110722907
 30
0.0
 10
10.92784238028
 20
4.415591244200002
 30
0.0
 10
10.92826910857099
 20
4.386700184839995
 30
0.0
  0
SPLINE
  5
82
330
1F
100
AcDbEntity
  8
DEFAULT
100
AcDbSpline
210
0.0
220
0.0
230
1.0
 70
    24
 71
     2
 72
     6
 73
     3
 74
     0
 42
0.0000000001
 43
0.0000000001
 40
0.0
 40
0.0
 40
0.0
 40
1.0
 40
1.0
 40
1.0
 10
1.279527999999999
 20
0.3149609999999967
 30
0.0
 10
1.279527999999999
 20
0.1574804999999984
 30
0.0
 10
1.279527999999999
 20
0.0
 30
0.0
  0
SPLINE
  5
83
330
1F
100
AcDbEntity
  8
DEFAULT
100
AcDbSpline
210
0.0
220
0.0
230
1.0
 70
    24
 71
     2
 72
     6
 73
     3
 74
     0
 42
0.0000000001
 43
0.0000000001
 40
0.0
 40
0.0
 40
0.0
 40
1.0
 40
1.0
 40
1.0
 10
11.26967299999999
 20
7.183363
 30
0.0
 10
11.20772599999999
 20
7.183363
 30
0.0
 10
11.14577899999998
 20
7.183363
 30
0.0
  0
SPLINE
  5
84
330
1F
100
AcDbEntity
  8
DEFAULT
100
AcDbSpline
210
0.0
220
0.0
230
1.0
 70
    24
 71
     2
 72
     6
 73
     3
 74
     0
 42
0.0000000001
 43
0.0000000001
 40
-1.0
 40
-1.0
 40
-1.0
 40
0.0
 40
0.0
 40
0.0
 10
19.42592900000001
 20
20.64980299999999
 30
0.0
 10
19.56022843655315
 20
20.86472753964626
 30
0.0
 10
19.69452787310628
 20
21.07965207929253
 30
0.0
  0
ARC
  5
85
330
1F
100
AcDbEntity
  8
DEFAULT
100
AcDbCircle
 10
19.41467281705705
 20
21.25452572378856
 30
0.0
 40
0.3299994605081066
100
AcDbArc
 50
327.9998826495006
 51
16.62705623837233
  0
ARC
  5
86
330
1F
100
AcDbEntity
  8
DEFAULT
100
AcDbCircle
 10
16.42512444265314
 20
20.36176150731009
 30
0.0
 40
3.450003856198021
100
AcDbArc
 50
16.62711566253642
 51
42.81730653986691
  0
ARC
  5
87
330
1F
100
AcDbEntity
  8
DEFAULT
100
AcDbCircle
 10
18.51567281974702
 20
22.2988038823275
 30
0.0
 40
0.5999993510115813
100
AcDbArc
 50
42.81730060376013
 51
86.39895866621946
  0
ARC
  5
88
330
1F
100
AcDbEntity
  8
DEFAULT
100
AcDbCircle
 10
11.64441800009195
 20
-86.88514934934047
 30
0.0
 40
109.9999526695194
100
AcDbArc
 50
86.39896361006214
 51
89.99986717795665
  0
ARC
  5
89
330
1F
100
AcDbEntity
  8
DEFAULT
100
AcDbCircle
 10
11.64492700006907
 20
-86.88523428151872
 30
0.0
 40
110.0000376016953
100
AcDbArc
 50
90.00013230115323
 51
93.60103361145285
  0
ARC
  5
8A
330
1F
100
AcDbEntity
  8
DEFAULT
100
AcDbCircle
 10
4.773672772188299
 20
22.2988036886387
 30
0.0
 40
0.5999997491751065
100
AcDbArc
 50
93.60109658613251
 51
137.182724247455
  0
ARC
  5
8B
330
1F
100
AcDbEntity
  8
DEFAULT
100
AcDbCircle
 10
6.864218795660953
 20
20.36176215693634
 30
0.0
 40
3.450001954752505
100
AcDbArc
 50
137.1826814888843
 51
163.3728863033135
  0
ARC
  5
8C
330
1F
100
AcDbEntity
  8
DEFAULT
100
AcDbCircle
 10
3.874673173998822
 20
21.25452579006394
 30
0.0
 40
0.3300003636263555
100
AcDbArc
 50
163.3730040238594
 51
212.0000359252202
  0
SPLINE
  5
8D
330
1F
100
AcDbEntity
  8
DEFAULT
100
AcDbSpline
210
0.0
220
0.0
230
1.0
 70
    24
 71
     2
 72
     6
 73
     3
 74
     0
 42
0.0000000001
 43
0.0000000001
 40
0.0
 40
0.0
 40
0.0
 40
1.0
 40
1.0
 40
1.0
 10
3.59481710354266
 20
21.07965206470084
 30
0.0
 10
3.729116551771334
 20
20.86472753235041
 30
0.0
 10
3.863416000000008
 20
20.64980299999999
 30
0.0
  0
SPLINE
  5
8E
330
1F
100
AcDbEntity
  8
DEFAULT
100
AcDbSpline
210
0.0
220
0.0
230
1.0
 70
    12
 71
     2
 72
     8
 73
     5
 74
     0
 42
0.0000000001
 43
0.0000000001
 40
0.6084078194389045
 40
0.6084078194389045
 40
0.6084078194389045
 40
1.405008326934524
 40
1.405008326934524
 40
2.405008326934524
 40
2.405008326934524
 40
2.405008326934524
 10
9.379957638875034
 20
5.32978074845785
 30
0.0
 41
1.0
 10
8.789919629249669
 20
6.089454019238924
 30
0.0
 41
0.921721575516506
 10
7.944632999999989
 20
6.183374000000001
 30
0.0
 41
1.0
 10
5.707899000000005
 20
6.43189799999999
 30
0.0
 41
1.0
 10
3.471491999999991
 20
6.683363
 30
0.0
 41
1.0
  0
CIRCLE
  5
8F
330
1F
100
AcDbEntity
  8
DEFAULT
100
AcDbCircle
 10
23.969476
 20
0.0
 30
0.0
 40
1.0625
  0
SPLINE
  5
90
330
1F
100
AcDbEntity
  8
DEFAULT
100
AcDbSpline
210
0.0
220
0.0
230
1.0
 70
     8
 71
     2
 72
    30
 73
    27
 74
     0
 42
0.0000000001
 43
0.0000000001
 40
0.0
 40
0.0
 40
0.0
 40
1.0
 40
1.0
 40
2.0
 40
2.0
 40
3.0
 40
3.0
 40
4.0
 40
4.0
 40
5.0
 40
5.0
 40
6.0
 40
6.0
 40
7.0
 40
7.0
 40
8.0
 40
8.0
 40
9.0
 40
9.0
 40
10.0
 40
10.0
 40
11.0
 40
11.0
 40
12.0
 40
12.0
 40
13.0
 40
13.0
 40
13.0
 10
6.792838999999994
 20
19.658829
 30
0.0
 10
6.793647999999983
 20
19.65883849999999
 30
0.0
 10
6.794456999999973
 20
19.65884799999999
 30
0.0
 10
6.796964999999979
 20
19.65866749999999
 30
0.0
 10
6.799472999999985
 20
19.65848699999999
 30
0.0
 10
6.801938499999984
 20
19.657994
 30
0.0
 10
6.804403999999984
 20
19.657501
 30
0.0
 10
6.806787999999976
 20
19.656702
 30
0.0
 10
6.809171999999968
 20
19.655903
 30
0.0
 10
6.811436999999977
 20
19.65481149999999
 30
0.0
 10
6.813701999999985
 20
19.65371999999999
 30
0.0
 10
6.815811999999987
 20
19.65235249999999
 30
0.0
 10
6.817921999999989
 20
19.65098499999999
 30
0.0
 10
6.819843999999982
 20
19.64936399999999
 30
0.0
 10
6.821765999999975
 20
19.64774299999999
 30
0.0
 10
6.82346949999998
 20
19.64589299999999
 30
0.0
 10
6.825172999999985
 20
19.644043
 30
0.0
 10
6.826630999999985
 20
19.6419945
 30
0.0
 10
6.828088999999984
 20
19.63994599999999
 30
0.0
 10
6.829277999999981
 20
19.63773049999999
 30
0.0
 10
6.830466999999977
 20
19.63551499999998
 30
0.0
 10
6.831368999999974
 20
19.63316799999999
 30
0.0
 10
6.83227099999997
 20
19.630821
 30
0.0
 10
6.832870999999976
 20
19.62837949999999
 30
0.0
 10
6.833470999999982
 20
19.62593799999999
 30
0.0
 10
6.833760499999975
 20
19.62343999999999
 30
0.0
 10
6.834049999999969
 20
19.62094199999999
 30
0.0
  0
ARC
  5
91
330
1F
100
AcDbEntity
  8
DEFAULT
100
AcDbCircle
 10
52.64901473909539
 20
6.733362999999997
 30
0.0
 40
0.0499999999999986
100
AcDbArc
 50
270.0
 51
0.0
  0
SPLINE
  5
92
330
1F
100
AcDbEntity
  8
DEFAULT
100
AcDbSpline
210
0.0
220
0.0
230
1.0
 70
    24
 71
     2
 72
     6
 73
     3
 74
     0
 42
0.0000000001
 43
0.0000000001
 40
0.0
 40
0.0
 40
0.0
 40
1.0
 40
1.0
 40
1.0
 10
52.6489667390954
 20
6.683363
 30
0.0
 10
51.91058123909541
 20
6.683363
 30
0.0
 10
51.17219573909541
 20
6.683363
 30
0.0
  0
SPLINE
  5
93
330
1F
100
AcDbEntity
  8
DEFAULT
100
AcDbSpline
210
0.0
220
0.0
230
1.0
 70
    24
 71
     2
 72
     6
 73
     3
 74
     0
 42
0.0000000001
 43
0.0000000001
 40
0.0
 40
0.0
 40
0.0
 40
1.0
 40
1.0
 40
1.0
 10
42.8990007390954
 20
5.720400999999995
 30
0.0
 10
42.8990007390954
 20
6.201881999999998
 30
0.0
 10
42.8990007390954
 20
6.683363
 30
0.0
  0
SPLINE
  5
94
330
1F
100
AcDbEntity
  8
DEFAULT
100
AcDbSpline
210
0.0
220
0.0
230
1.0
 70
    24
 71
     2
 72
     6
 73
     3
 74
     0
 42
0.0000000001
 43
0.0000000001
 40
0.0
 40
0.0
 40
0.0
 40
1.0
 40
1.0
 40
1.0
 10
52.6990147390954
 20
6.733362999999997
 30
0.0
 10
52.6990147390954
 20
7.036862999999997
 30
0.0
 10
52.6990147390954
 20
7.340362999999996
 30
0.0
  0
CIRCLE
  5
95
330
1F
100
AcDbEntity
  8
DEFAULT
100
AcDbCircle
 10
55.3238037390954
 20
0.0
 30
0.0
 40
1.0
  0
SPLINE
  5
96
330
1F
100
AcDbEntity
  8
DEFAULT
100
AcDbSpline
210
0.0
220
0.0
230
1.0
 70
    24
 71
     2
 72
     6
 73
     3
 74
     0
 42
0.0000000001
 43
0.0000000001
 40
0.0
 40
0.0
 40
0.0
 40
1.0
 40
1.0
 40
1.0
 10
15.21835500000002
 20
1.456693000000001
 30
0.0
 10
15.73914750000002
 20
1.456693000000001
 30
0.0
 10
16.25994000000001
 20
1.456693000000001
 30
0.0
  0
SPLINE
  5
97
330
1F
100
AcDbEntity
  8
DEFAULT
100
AcDbSpline
210
0.0
220
0.0
230
1.0
 70
     8
 71
     3
 72
    10
 73
     6
 74
     0
 42
0.0000000001
 43
0.0000000001
 40
0.0
 40
0.0
 40
0.0
 40
0.0
 40
0.3077322598062
 40
0.6415592093998
 40
1.0
 40
1.0
 40
1.0
 40
1.0
 10
20.87698605863942
 20
7.189638580579995
 30
0.0
 10
20.8866179595107
 20
7.191540374799999
 30
0.0
 10
20.90658408634151
 20
7.196085536870001
 30
0.0
 10
20.93743087564893
 20
7.204238708129992
 30
0.0
 10
20.9586833034346
 20
7.210250861239999
 30
0.0
 10
20.96968727017391
 20
7.213363253040001
 30
0.0
  0
SPLINE
  5
98
330
1F
100
AcDbEntity
  8
DEFAULT
100
AcDbSpline
210
0.0
220
0.0
230
1.0
 70
    24
 71
     2
 72
     6
 73
     3
 74
     0
 42
0.0000000001
 43
0.0000000001
 40
0.0
 40
0.0
 40
0.0
 40
1.0
 40
1.0
 40
1.0
 10
12.59467299999999
 20
16.07480299999999
 30
0.0
 10
12.59467299999999
 20
12.00758299999999
 30
0.0
 10
12.59467299999999
 20
7.940362999999991
 30
0.0
  0
SPLINE
  5
99
330
1F
100
AcDbEntity
  8
DEFAULT
100
AcDbSpline
210
0.0
220
0.0
230
1.0
 70
     8
 71
     3
 72
    10
 73
     6
 74
     0
 42
0.0000000001
 43
0.0000000001
 40
0.0
 40
0.0
 40
0.0
 40
0.0
 40
0.3396236604826
 40
0.6742178260732
 40
1.0
 40
1.0
 40
1.0
 40
1.0
 10
11.744672729826
 20
5.71729150022999
 30
0.0
 10
11.74642145940599
 20
5.67632593223
 30
0.0
 10
11.75361613895101
 20
5.595158105319996
 30
0.0
 10
11.77062440535898
 20
5.475612043859996
 30
0.0
 10
11.78429281918901
 20
5.397055141259997
 30
0.0
 10
11.79135886357998
 20
5.358363273839998
 30
0.0
  0
SPLINE
  5
9A
330
1F
100
AcDbEntity
  8
DEFAULT
100
AcDbSpline
210
0.0
220
0.0
230
1.0
 70
    24
 71
     2
 72
     6
 73
     3
 74
     0
 42
0.0000000001
 43
0.0000000001
 40
0.0
 40
0.0
 40
0.0
 40
1.0
 40
1.0
 40
1.0
 10
42.2292637390954
 20
5.358362999999997
 30
0.0
 10
42.2292637390954
 20
6.334362999999996
 30
0.0
 10
42.2292637390954
 20
7.310362999999995
 30
0.0
  0
SPLINE
  5
9B
330
1F
100
AcDbEntity
  8
DEFAULT
100
AcDbSpline
210
0.0
220
0.0
230
1.0
 70
    24
 71
     2
 72
     6
 73
     3
 74
     0
 42
0.0000000001
 43
0.0000000001
 40
0.0
 40
0.0
 40
0.0
 40
1.0
 40
1.0
 40
1.0
 10
42.24900073909539
 20
1.824803000000003
 30
0.0
 10
42.24900073909539
 20
1.699803000000003
 30
0.0
 10
42.24900073909539
 20
1.574803000000003
 30
0.0
  0
SPLINE
  5
9C
330
1F
100
AcDbEntity
  8
DEFAULT
100
AcDbSpline
210
0.0
220
0.0
230
1.0
 70
     8
 71
     3
 72
    11
 73
     7
 74
     0
 42
0.0000000001
 43
0.0000000001
 40
0.0
 40
0.0
 40
0.0
 40
0.0
 40
0.2075532299286
 40
0.4418436459466
 40
0.7053076879961
 40
1.0
 40
1.0
 40
1.0
 40
1.0
 10
42.5001070423604
 20
7.18336325304
 30
0.0
 10
42.48124073522139
 20
7.18336325304
 30
0.0
 10
42.44108285409739
 20
7.185444161429999
 30
0.0
 10
42.3773242098104
 20
7.192246030159993
 30
0.0
 10
42.30595424065139
 20
7.202041154520003
 30
0.0
 10
42.25577090096239
 20
7.209501280349997
 30
0.0
 10
42.2292636268164
 20
7.213363253040001
 30
0.0
  0
SPLINE
  5
9D
330
1F
100
AcDbEntity
  8
DEFAULT
100
AcDbSpline
210
0.0
220
0.0
230
1.0
 70
     8
 71
     3
 72
    14
 73
    10
 74
     0
 42
0.0000000001
 43
0.0000000001
 40
0.0
 40
0.0
 40
0.0
 40
0.0
 40
0.06772835396254
 40
0.1354567079251
 40
0.2709134158502
 40
0.4063701237752
 40
0.5418268317003
 40
0.8127402475505
 40
1.0
 40
1.0
 40
1.0
 40
1.0
 10
41.5990004689214
 20
5.05836325304
 30
0.0
 10
41.62035463558841
 20
5.05836325304
 30
0.0
 10
41.65652127415639
 20
5.051821558269992
 30
0.0
 10
41.7129383644144
 20
5.022821981859991
 30
0.0
 10
41.76313962089638
 20
4.966252405009996
 30
0.0
 10
41.8048307285914
 20
4.879818512710003
 30
0.0
 10
41.84338320588439
 20
4.747537656669991
 30
0.0
 10
41.86558270791339
 20
4.58257077159999
 30
0.0
 10
41.87201027305339
 20
4.444540282969996
 30
0.0
 10
41.87321162695942
 20
4.386700249779992
 30
0.0
  0
SPLINE
  5
9E
330
1F
100
AcDbEntity
  8
DEFAULT
100
AcDbSpline
210
0.0
220
0.0
230
1.0
 70
    24
 71
     2
 72
     6
 73
     3
 74
     0
 42
0.0000000001
 43
0.0000000001
 40
0.0
 40
0.0
 40
0.0
 40
1.0
 40
1.0
 40
1.0
 10
10.58163199999999
 20
5.058363
 30
0.0
 10
10.58163199999999
 20
5.183363
 30
0.0
 10
10.58163199999999
 20
5.308363
 30
0.0
  0
SPLINE
  5
9F
330
1F
100
AcDbEntity
  8
DEFAULT
100
AcDbSpline
210
0.0
220
0.0
230
1.0
 70
    24
 71
     2
 72
     6
 73
     3
 74
     0
 42
0.0000000001
 43
0.0000000001
 40
0.0
 40
0.0
 40
0.0
 40
1.0
 40
1.0
 40
1.0
 10
43.91001373909539
 20
5.058363
 30
0.0
 10
43.91001373909539
 20
5.183363
 30
0.0
 10
43.91001373909539
 20
5.308363
 30
0.0
  0
ARC
  5
A0
330
1F
100
AcDbEntity
  8
DEFAULT
100
AcDbCircle
 10
54.9715177390954
 20
1.195945999999992
 30
0.0
 40
0.7499994176200921
100
AcDbArc
 50
33.18794770287642
 51
83.9324215644768
  0
SPLINE
  5
A1
330
1F
100
AcDbEntity
  8
DEFAULT
100
AcDbSpline
210
0.0
220
0.0
230
1.0
 70
     8
 71
     3
 72
     9
 73
     5
 74
     0
 42
0.0000000001
 43
0.0000000001
 40
-2.0
 40
-2.0
 40
-2.0
 40
-2.0
 40
-1.0
 40
0.0
 40
0.0
 40
0.0
 40
0.0
 10
9.993865551112982
 20
2.442549823210001
 30
0.0
 10
8.647643317228365
 20
2.454920364761605
 30
0.0
 10
5.954272633150374
 20
2.37872904503017
 30
0.0
 10
3.245585045562514
 20
2.137066928192624
 30
0.0
 10
1.913233083400485
 20
1.94313179884
 30
0.0
  0
SPLINE
  5
A2
330
1F
100
AcDbEntity
  8
DEFAULT
100
AcDbSpline
210
0.0
220
0.0
230
1.0
 70
    12
 71
     3
 72
    22
 73
    18
 74
     0
 42
0.0000000001
 43
0.0000000001
 40
-9.762480602687548
 40
-9.762480602687548
 40
-9.762480602687548
 40
-9.762480602687548
 40
-8.762480221164985
 40
-7.762480602687548
 40
-7.762480602687548
 40
-7.762480602687548
 40
-6.762483223644307
 40
-5.762480602687548
 40
-5.762480602687548
 40
-5.762480602687548
 40
-4.71238898038469
 40
-4.71238898038469
 40
-4.71238898038469
 40
-3.904808554698578
 40
-3.904808554698578
 40
-3.904808554698578
 40
-3.097228129012466
 40
-3.097228129012466
 40
-3.097228129012466
 40
-3.097228129012466
 10
1.913233083400485
 20
1.94313179884
 30
0.0
 41
1.0
 10
1.821879763048713
 20
1.929834548186747
 30
0.0
 41
1.0
 10
1.62770637989388
 20
1.841701474365493
 30
0.0
 41
1.0
 10
1.51244751980235
 20
1.693038631826994
 30
0.0
 41
1.0
 10
1.469762499999973
 20
1.611790499999998
 30
0.0
 41
1.0
 10
1.463773803765662
 20
1.601039310068984
 30
0.0
 41
1.0
 10
1.446710431666844
 20
1.582013823979253
 30
0.0
 41
1.0
 10
1.422026032382149
 20
1.575069698283471
 30
0.0
 41
1.0
 10
1.409711999999985
 20
1.574803000000003
 30
0.0
 41
1.0
 10
1.091279166666652
 20
1.574802996943049
 30
0.0
 41
1.0
 10
0.7728463333333195
 20
1.574802993886109
 30
0.0
 41
1.0
 10
0.4544134999999869
 20
1.57480299082917
 30
0.0
 41
1.0
 10
0.4378038921703369
 20
1.574798421360472
 30
0.0
 41
0.9463675853276875
 10
0.4225287087394533
 20
1.581321293756043
 30
0.0
 41
0.9463675853276875
 10
0.4110456846232751
 20
1.593322095824348
 30
0.0
 41
1.0
 10
0.3995626605070806
 20
1.605322897892655
 30
0.0
 41
0.9463675853276875
 10
0.3937193826388609
 20
1.620870733654899
 30
0.0
 41
0.9463675853276875
 10
0.3944560183236092
 20
1.637463999186551
 30
0.0
 41
1.0
  0
ARC
  5
A3
330
1F
100
AcDbEntity
  8
DEFAULT
100
AcDbCircle
 10
25.272541
 20
1.634802999999991
 30
0.0
 40
0.0599997758533285
100
AcDbArc
 50
270.0
 51
2.000043803911041
  0
SPLINE
  5
A4
330
1F
100
AcDbEntity
  8
DEFAULT
100
AcDbSpline
210
0.0
220
0.0
230
1.0
 70
    24
 71
     2
 72
     6
 73
     3
 74
     0
 42
0.0000000001
 43
0.0000000001
 40
0.0
 40
0.0
 40
0.0
 40
1.0
 40
1.0
 40
1.0
 10
20.96968700000001
 20
7.310362999999995
 30
0.0
 10
20.96968700000001
 20
7.261862999999998
 30
0.0
 10
20.96968700000001
 20
7.213363000000001
 30
0.0
  0
SPLINE
  5
A5
330
1F
100
AcDbEntity
  8
DEFAULT
100
AcDbSpline
210
0.0
220
0.0
230
1.0
 70
    12
 71
     2
 72
     8
 73
     5
 74
     0
 42
0.0000000001
 43
0.0000000001
 40
0.6084078194389045
 40
0.6084078194389045
 40
0.6084078194389045
 40
1.405008326934524
 40
1.405008326934524
 40
2.405008326934524
 40
2.405008326934524
 40
2.405008326934524
 10
13.90940236112498
 20
5.32978074845785
 30
0.0
 41
1.0
 10
14.49944037075035
 20
6.089454019238924
 30
0.0
 41
0.921721575516506
 10
15.34472700000002
 20
6.183374000000001
 30
0.0
 41
1.0
 10
17.581461
 20
6.43189799999999
 30
0.0
 41
1.0
 10
19.81786800000002
 20
6.683363
 30
0.0
 41
1.0
  0
LINE
  5
A6
330
1F
100
AcDbEntity
  8
DEFAULT
100
AcDbLine
 10
20.876986
 20
7.189639
 30
0.0
 11
20.876986
 21
6.683363
 31
0.0
  0
LINE
  5
A7
330
1F
100
AcDbEntity
  8
DEFAULT
100
AcDbLine
 10
19.84468700000001
 20
7.183363
 30
0.0
 11
19.84468700000001
 21
6.683363
 31
0.0
  0
SPLINE
  5
A8
330
1F
100
AcDbEntity
  8
DEFAULT
100
AcDbSpline
210
0.0
220
0.0
230
1.0
 70
    24
 71
     2
 72
     6
 73
     3
 74
     0
 42
0.0000000001
 43
0.0000000001
 40
0.0
 40
0.0
 40
0.0
 40
1.0
 40
1.0
 40
1.0
 10
12.01968700000002
 20
7.183363
 30
0.0
 10
12.08163400000002
 20
7.183363
 30
0.0
 10
12.14358100000003
 20
7.183363
 30
0.0
  0
SPLINE
  5
A9
330
1F
100
AcDbEntity
  8
DEFAULT
100
AcDbSpline
210
0.0
220
0.0
230
1.0
 70
    24
 71
     2
 72
     6
 73
     3
 74
     0
 42
0.0000000001
 43
0.0000000001
 40
0.0
 40
0.0
 40
0.0
 40
1.0
 40
1.0
 40
1.0
 10
13.271159
 20
7.183363
 30
0.0
 10
17.038087
 20
7.183363
 30
0.0
 10
20.80501500000001
 20
7.183363
 30
0.0
  0
SPLINE
  5
AA
330
1F
100
AcDbEntity
  8
DEFAULT
100
AcDbSpline
210
0.0
220
0.0
230
1.0
 70
    24
 71
     2
 72
     6
 73
     3
 74
     0
 42
0.0000000001
 43
0.0000000001
 40
0.0
 40
0.0
 40
0.0
 40
1.0
 40
1.0
 40
1.0
 10
12.41442400000001
 20
5.358362999999997
 30
0.0
 10
12.41442400000001
 20
6.334362999999996
 30
0.0
 10
12.41442400000001
 20
7.310362999999995
 30
0.0
  0
SPLINE
  5
AB
330
1F
100
AcDbEntity
  8
DEFAULT
100
AcDbSpline
210
0.0
220
0.0
230
1.0
 70
    24
 71
     2
 72
     6
 73
     3
 74
     0
 42
0.0000000001
 43
0.0000000001
 40
0.0
 40
0.0
 40
0.0
 40
1.0
 40
1.0
 40
1.0
 10
11.31982199999999
 20
6.683363
 30
0.0
 10
11.644676
 20
6.683363
 30
0.0
 10
11.96953000000001
 20
6.683363
 30
0.0
  0
SPLINE
  5
AC
330
1F
100
AcDbEntity
  8
DEFAULT
100
AcDbSpline
210
0.0
220
0.0
230
1.0
 70
    24
 71
     2
 72
     6
 73
     3
 74
     0
 42
0.0000000001
 43
0.0000000001
 40
0.0
 40
0.0
 40
0.0
 40
1.0
 40
1.0
 40
1.0
 10
24.55098400000001
 20
2.40050699999999
 30
0.0
 10
24.56403100000001
 20
2.016607999999991
 30
0.0
 10
24.57707800000001
 20
1.632708999999991
 30
0.0
  0
SPLINE
  5
AD
330
1F
100
AcDbEntity
  8
DEFAULT
100
AcDbSpline
210
0.0
220
0.0
230
1.0
 70
    24
 71
     2
 72
     6
 73
     3
 74
     0
 42
0.0000000001
 43
0.0000000001
 40
0.0
 40
0.0
 40
0.0
 40
1.0
 40
1.0
 40
1.0
 10
24.358255
 20
1.441068000000001
 30
0.0
 10
24.358255
 20
1.360298
 30
0.0
 10
24.358255
 20
1.279527999999999
 30
0.0
  0
ARC
  5
AE
330
1F
100
AcDbEntity
  8
DEFAULT
100
AcDbCircle
 10
23.969476
 20
0.0
 30
0.0
 40
1.279527939310224
100
AcDbArc
 50
15.7620695672927
 51
18.57560333516714
  0
ARC
  5
AF
330
1F
100
AcDbEntity
  8
DEFAULT
100
AcDbCircle
 10
25.415465
 20
1.441068000000001
 30
0.0
 40
0.015625
100
AcDbArc
 50
0.0
 51
90.0
  0
ARC
  5
B0
330
1F
100
AcDbEntity
  8
DEFAULT
100
AcDbCircle
 10
10.51904399999999
 20
-65.659356
 30
0.0
 40
70.00000031907848
100
AcDbArc
 50
77.85516270624356
 51
88.26313167518948
  0
ARC
  5
B1
330
1F
100
AcDbEntity
  8
DEFAULT
100
AcDbCircle
 10
1.364131999999984
 20
1.634803190376303
 30
0.0
 40
0.0600005682155926
100
AcDbArc
 50
270.0
 51
359.5615067429646
  0
SPLINE
  5
B2
330
1F
100
AcDbEntity
  8
DEFAULT
100
AcDbSpline
210
0.0
220
0.0
230
1.0
 70
    24
 71
     2
 72
     6
 73
     3
 74
     0
 42
0.0000000001
 43
0.0000000001
 40
0.0
 40
0.0
 40
0.0
 40
1.0
 40
1.0
 40
1.0
 10
1.42413081108586
 20
1.634344001445214
 30
0.0
 10
1.427083155542931
 20
2.018644750722608
 30
0.0
 10
1.430035500000002
 20
2.402945500000001
 30
0.0
  0
SPLINE
  5
B3
330
1F
100
AcDbEntity
  8
DEFAULT
100
AcDbSpline
210
0.0
220
0.0
230
1.0
 70
     8
 71
     3
 72
     9
 73
     5
 74
     0
 42
0.0000000001
 43
0.0000000001
 40
0.0
 40
0.0
 40
0.0
 40
0.0
 40
0.999997703594369
 40
2.0
 40
2.0
 40
2.0
 40
2.0
 10
1.430035500000002
 20
2.402945500000001
 30
0.0
 10
1.430882119689102
 20
2.438346468171957
 30
0.0
 10
1.446066907143859
 20
2.510162831119729
 30
0.0
 10
1.501230681855219
 20
2.562402556786694
 30
0.0
 10
1.535724999999985
 20
2.571394999999995
 30
0.0
  0
SPLINE
  5
B4
330
1F
100
AcDbEntity
  8
DEFAULT
100
AcDbSpline
210
0.0
220
0.0
230
1.0
 70
     8
 71
     3
 72
     9
 73
     5
 74
     0
 42
0.0000000001
 43
0.0000000001
 40
0.0
 40
0.0
 40
0.0
 40
0.0
 40
1.0
 40
2.0
 40
2.0
 40
2.0
 40
2.0
 10
25.09611547995
 20
2.746231044040002
 30
0.0
 10
23.13437454894874
 20
3.163952168860774
 30
0.0
 10
19.17486964232701
 20
3.829848246230782
 30
0.0
 10
15.17271397120628
 20
4.153258967043271
 30
0.0
 10
13.16829873778001
 20
4.225897412319995
 30
0.0
  0
SPLINE
  5
B5
330
1F
100
AcDbEntity
  8
DEFAULT
100
AcDbSpline
210
0.0
220
0.0
230
1.0
 70
    24
 71
     2
 72
     6
 73
     3
 74
     0
 42
0.0000000001
 43
0.0000000001
 40
0.0
 40
0.0
 40
0.0
 40
1.0
 40
1.0
 40
1.0
 10
10.24467300000001
 20
5.058363
 30
0.0
 10
10.24467300000001
 20
5.183363
 30
0.0
 10
10.24467300000001
 20
5.308363
 30
0.0
  0
SPLINE
  5
B6
330
1F
100
AcDbEntity
  8
DEFAULT
100
AcDbSpline
210
0.0
220
0.0
230
1.0
 70
    24
 71
     2
 72
     6
 73
     3
 74
     0
 42
0.0000000001
 43
0.0000000001
 40
0.0
 40
0.0
 40
0.0
 40
1.0
 40
1.0
 40
1.0
 10
10.694673
 20
16.07480299999999
 30
0.0
 10
10.694673
 20
12.00758299999999
 30
0.0
 10
10.694673
 20
7.940362999999991
 30
0.0
  0
SPLINE
  5
B7
330
1F
100
AcDbEntity
  8
DEFAULT
100
AcDbSpline
210
0.0
220
0.0
230
1.0
 70
    24
 71
     2
 72
     6
 73
     3
 74
     0
 42
0.0000000001
 43
0.0000000001
 40
0.0
 40
0.0
 40
0.0
 40
1.0
 40
1.0
 40
1.0
 10
13.53442399999999
 20
40.56945228930705
 30
0.0
 10
13.53442399999999
 20
40.42180978930705
 30
0.0
 10
13.53442399999999
 20
40.27416728930706
 30
0.0
  0
ARC
  5
B8
330
1F
100
AcDbEntity
  8
DEFAULT
100
AcDbCircle
 10
16.03442399999999
 20
64.57165328930706
 30
0.0
 40
0.0590549041019516
100
AcDbArc
 50
0.0
 51
40.32284321305513
  0
SPLINE
  5
B9
330
1F
100
AcDbEntity
  8
DEFAULT
100
AcDbSpline
210
0.0
220
0.0
230
1.0
 70
    24
 71
     2
 72
     6
 73
     3
 74
     0
 42
0.0000000001
 43
0.0000000001
 40
0.0
 40
0.0
 40
0.0
 40
1.0
 40
1.0
 40
1.0
 10
0.5269559999999842
 20
44.27538628930706
 30
0.0
 10
-0.3762855000000087
 20
44.27538628930706
 30
0.0
 10
-1.279527000000002
 20
44.27538628930706
 30
0.0
  0
SPLINE
  5
BA
330
1F
100
AcDbEntity
  8
DEFAULT
100
AcDbSpline
210
0.0
220
0.0
230
1.0
 70
    24
 71
     2
 72
     6
 73
     3
 74
     0
 42
0.0000000001
 43
0.0000000001
 40
0.0
 40
0.0
 40
0.0
 40
1.0
 40
1.0
 40
1.0
 10
25.249003
 20
51.97015428930708
 30
0.0
 10
25.249003
 20
51.82251178930707
 30
0.0
 10
25.249003
 20
51.67486928930707
 30
0.0
  0
SPLINE
  5
BB
330
1F
100
AcDbEntity
  8
DEFAULT
100
AcDbSpline
210
0.0
220
0.0
230
1.0
 70
     8
 71
     3
 72
     8
 73
     4
 74
     0
 42
0.0000000001
 43
0.0000000001
 40
0.0
 40
0.0
 40
0.0
 40
0.0
 40
0.8574165979482888
 40
0.8574165979482888
 40
0.8574165979482888
 40
0.8574165979482888
 10
49.1618858417324
 20
20.47360663682799
 30
0.0
 10
48.03687509342497
 20
20.45569047144875
 30
0.0
 10
46.53697739714421
 20
20.22760903669425
 30
0.0
 10
44.71147057623881
 20
19.18989869514793
 30
0.0
  0
SPLINE
  5
BC
330
1F
100
AcDbEntity
  8
DEFAULT
100
AcDbSpline
210
0.0
220
0.0
230
1.0
 70
     8
 71
     3
 72
     9
 73
     5
 74
     0
 42
0.0000000001
 43
0.0000000001
 40
-2.0
 40
-2.0
 40
-2.0
 40
-2.0
 40
-1.0
 40
0.0
 40
0.0
 40
0.0
 40
0.0
 10
32.3918977384654
 20
24.41330266166
 30
0.0
 10
32.35014940881963
 20
24.43178480732368
 30
0.0
 10
32.32980841696086
 20
24.52571100239774
 30
0.0
 10
32.32014936517685
 20
24.60937565985753
 30
0.0
 10
32.32012387114538
 20
24.65876484054999
 30
0.0
  0
SPLINE
  5
BD
330
1F
100
AcDbEntity
  8
DEFAULT
100
AcDbSpline
210
0.0
220
0.0
230
1.0
 70
     8
 71
     3
 72
     9
 73
     5
 74
     0
 42
0.0000000001
 43
0.0000000001
 40
0.0
 40
0.0
 40
0.0
 40
0.0
 40
1.000000508007676
 40
2.0
 40
2.0
 40
2.0
 40
2.0
 10
32.32012387114538
 20
24.65876484054999
 30
0.0
 10
32.35989159134421
 20
25.44650096209237
 30
0.0
 10
32.44601909792608
 20
27.00348299212088
 30
0.0
 10
32.87751355653241
 20
28.57388171995484
 30
0.0
 10
33.46119519817039
 20
29.12793525988499
 30
0.0
  0
SPLINE
  5
BE
330
1F
100
AcDbEntity
  8
DEFAULT
100
AcDbSpline
210
0.0
220
0.0
230
1.0
 70
     8
 71
     3
 72
     9
 73
     5
 74
     0
 42
0.0000000001
 43
0.0000000001
 40
0.0
 40
0.0
 40
0.0
 40
0.0
 40
0.9999985642876146
 40
2.0
 40
2.0
 40
2.0
 40
2.0
 10
33.46119519817039
 20
29.12793525988499
 30
0.0
 10
33.6351942377417
 20
29.28947452694443
 30
0.0
 10
34.16246976523384
 20
29.4805891074254
 30
0.0
 10
34.15890026512309
 20
30.05726315497151
 30
0.0
 10
34.19351226338539
 20
30.28524088799
 30
0.0
  0
SPLINE
  5
BF
330
1F
100
AcDbEntity
  8
DEFAULT
100
AcDbSpline
210
0.0
220
0.0
230
1.0
 70
     8
 71
     3
 72
     9
 73
     5
 74
     0
 42
0.0000000001
 43
0.0000000001
 40
0.0
 40
0.0
 40
0.0
 40
0.0
 40
0.9999999089585676
 40
2.0
 40
2.0
 40
2.0
 40
2.0
 10
34.19351226338539
 20
30.28524088799
 30
0.0
 10
34.20272935730956
 20
30.74016766652365
 30
0.0
 10
34.17996509900203
 20
31.6505259403033
 30
0.0
 10
34.13600735485981
 20
32.55963309770162
 30
0.0
 10
34.11350533192039
 20
33.01422446917501
 30
0.0
  0
SPLINE
  5
C0
330
1F
100
AcDbEntity
  8
DEFAULT
100
AcDbSpline
210
0.0
220
0.0
230
1.0
 70
     8
 71
     3
 72
     9
 73
     5
 74
     0
 42
0.0000000001
 43
0.0000000001
 40
0.0
 40
0.0
 40
0.0
 40
0.0
 40
1.000022730311798
 40
2.0
 40
2.0
 40
2.0
 40
2.0
 10
34.11350533192039
 20
33.01422446917501
 30
0.0
 10
34.08995623466443
 20
33.30818854153553
 30
0.0
 10
34.06105788795442
 20
33.91942750887293
 30
0.0
 10
33.66380304137705
 20
34.42160084696381
 30
0.0
 10
33.36507603363539
 20
34.500058099725
 30
0.0
  0
SPLINE
  5
C1
330
1F
100
AcDbEntity
  8
DEFAULT
100
AcDbSpline
210
0.0
220
0.0
230
1.0
 70
     8
 71
     3
 72
     9
 73
     5
 74
     0
 42
0.0000000001
 43
0.0000000001
 40
0.0
 40
0.0
 40
0.0
 40
0.0
 40
0.9999825116577769
 40
2.0
 40
2.0
 40
2.0
 40
2.0
 10
33.36507603363539
 20
34.500058099725
 30
0.0
 10
32.93600764127636
 20
34.62677438379345
 30
0.0
 10
32.05881069462329
 20
34.80702194678726
 30
0.0
 10
31.16998294884266
 20
34.9095166087842
 30
0.0
 10
30.72759094088541
 20
34.97417496662999
 30
0.0
  0
ARC
  5
C2
330
1F
100
AcDbEntity
  8
DEFAULT
100
AcDbCircle
 10
15.85725799999999
 20
64.27636828930706
 30
0.0
 40
0.2362205385879642
100
AcDbArc
 50
280.9350427142624
 51
0.0
  0
SPLINE
  5
C3
330
1F
100
AcDbEntity
  8
DEFAULT
100
AcDbSpline
210
0.0
220
0.0
230
1.0
 70
     8
 71
     3
 72
     9
 73
     5
 74
     0
 42
0.0000000001
 43
0.0000000001
 40
0.0
 40
0.0
 40
0.0
 40
0.0
 40
1.0
 40
2.0
 40
2.0
 40
2.0
 40
2.0
 10
41.3740368380054
 20
19.36852384329001
 30
0.0
 10
41.34542227388691
 20
19.35555447966887
 30
0.0
 10
41.26829653236875
 20
19.33256017962078
 30
0.0
 10
41.27173722026549
 20
19.25021250919991
 30
0.0
 10
41.30082269380038
 20
19.22909633556999
 30
0.0
  0
SPLINE
  5
C4
330
1F
100
AcDbEntity
  8
DEFAULT
100
AcDbSpline
210
0.0
220
0.0
230
1.0
 70
     8
 71
     3
 72
    14
 73
    10
 74
     0
 42
0.0000000001
 43
0.0000000001
 40
0.0
 40
0.0
 40
0.0
 40
0.0
 40
1.000000000495217
 40
2.000000000990435
 40
3.000000001485652
 40
4.00000000198087
 40
5.000000002476088
 40
6.000000002971305
 40
7.0
 40
7.0
 40
7.0
 40
7.0
 10
41.30082269380038
 20
19.22909633556999
 30
0.0
 10
41.42090241646419
 20
19.1376599389843
 30
0.0
 10
41.71831123854888
 20
19.08098208951837
 30
0.0
 10
42.1535040491721
 20
18.99336086599546
 30
0.0
 10
42.59889991564204
 20
18.95416034236462
 30
0.0
 10
43.04462072093743
 20
18.94425286050756
 30
0.0
 10
43.49052535494377
 20
18.95629174810441
 30
0.0
 10
43.93551475243466
 20
18.98553989989415
 30
0.0
 10
44.23137378894033
 20
19.01488369652532
 30
0.0
 10
44.37901461894539
 20
19.032024375105
 30
0.0
  0
SPLINE
  5
C5
330
1F
100
AcDbEntity
  8
DEFAULT
100
AcDbSpline
210
0.0
220
0.0
230
1.0
 70
     8
 71
     3
 72
    17
 73
    13
 74
     0
 42
0.0000000001
 43
0.0000000001
 40
0.0
 40
0.0
 40
0.0
 40
0.0
 40
0.9999999582271532
 40
1.999999962868581
 40
2.999999967510008
 40
3.999999972151436
 40
4.999999976792863
 40
5.99999998143429
 40
6.999999986075718
 40
7.999999990717145
 40
8.999999995358573
 40
10.0
 40
10.0
 40
10.0
 40
10.0
 10
44.37901461894539
 20
19.032024375105
 30
0.0
 10
44.39632248962134
 20
19.0340391340799
 30
0.0
 10
44.43085033686587
 20
19.03879075375663
 30
0.0
 10
44.48227066840272
 20
19.04835759917782
 30
0.0
 10
44.53297034790704
 20
19.06104898882407
 30
0.0
 10
44.5826150457353
 20
19.07810567314306
 30
0.0
 10
44.62888754139628
 20
19.10167208425626
 30
0.0
 10
44.67139810624029
 20
19.13597826788232
 30
0.0
 10
44.67775124966745
 20
19.19256668440553
 30
0.0
 10
44.63963056010842
 20
19.23281342062107
 30
0.0
 10
44.59619854736026
 20
19.26095619393293
 30
0.0
 10
44.56453340170872
 20
19.27607321755376
 30
0.0
 10
44.54859473909539
 20
19.28302600000001
 30
0.0
  0
SPLINE
  5
C6
330
1F
100
AcDbEntity
  8
DEFAULT
100
AcDbSpline
210
0.0
220
0.0
230
1.0
 70
    24
 71
     2
 72
     6
 73
     3
 74
     0
 42
0.0000000001
 43
0.0000000001
 40
0.0
 40
0.0
 40
0.0
 40
0.1255360316302392
 40
0.1255360316302392
 40
0.1255360316302392
 10
12.019673
 20
43.68144928930705
 30
0.0
 10
12.019673
 20
44.00652239526094
 30
0.0
 10
12.019673
 20
44.33159550121484
 30
0.0
  0
ARC
  5
C7
330
1F
100
AcDbEntity
  8
DEFAULT
100
AcDbCircle
 10
15.73914799999999
 20
39.82141128930705
 30
0.0
 40
0.5364170029785152
100
AcDbArc
 50
243.6955708544836
 51
332.2365592904708
  0
SPLINE
  5
C8
330
1F
100
AcDbEntity
  8
DEFAULT
100
AcDbSpline
210
0.0
220
0.0
230
1.0
 70
    24
 71
     2
 72
     6
 73
     3
 74
     0
 42
0.0000000001
 43
0.0000000001
 40
0.0
 40
0.0
 40
0.0
 40
1.0
 40
1.0
 40
1.0
 10
0.5269559999999842
 20
44.99412628930706
 30
0.0
 10
-0.3762855000000087
 20
44.99412628930706
 30
0.0
 10
-1.279527000000002
 20
44.99412628930706
 30
0.0
  0
SPLINE
  5
C9
330
1F
100
AcDbEntity
  8
DEFAULT
100
AcDbSpline
210
0.0
220
0.0
230
1.0
 70
    24
 71
     2
 72
     6
 73
     3
 74
     0
 42
0.0000000001
 43
0.0000000001
 40
0.0
 40
0.0
 40
0.0
 40
1.0
 40
1.0
 40
1.0
 10
13.59347999999999
 20
64.63070828930707
 30
0.0
 10
14.36675799999999
 20
64.63070828930707
 30
0.0
 10
15.14003599999999
 20
64.63070828930707
 30
0.0
  0
SPLINE
  5
CA
330
1F
100
AcDbEntity
  8
DEFAULT
100
AcDbSpline
210
0.0
220
0.0
230
1.0
 70
    24
 71
     2
 72
     6
 73
     3
 74
     0
 42
0.0000000001
 43
0.0000000001
 40
0.0
 40
0.0
 40
0.0
 40
1.0
 40
1.0
 40
1.0
 10
15.152327
 20
64.66503928930707
 30
0.0
 10
14.34337549999999
 20
64.66503928930707
 30
0.0
 10
13.53442399999999
 20
64.66503928930707
 30
0.0
  0
SPLINE
  5
CB
330
1F
100
AcDbEntity
  8
DEFAULT
100
AcDbSpline
210
0.0
220
0.0
230
1.0
 70
    24
 71
     2
 72
     6
 73
     3
 74
     0
 42
0.0000000001
 43
0.0000000001
 40
0.0
 40
0.0
 40
0.0
 40
1.0
 40
1.0
 40
1.0
 10
25.249003
 20
53.17095128930707
 30
0.0
 10
25.249003
 20
53.02330878930707
 30
0.0
 10
25.249003
 20
52.87566628930706
 30
0.0
  0
SPLINE
  5
CC
330
1F
100
AcDbEntity
  8
DEFAULT
100
AcDbSpline
210
0.0
220
0.0
230
1.0
 70
    24
 71
     2
 72
     6
 73
     3
 74
     0
 42
0.0000000001
 43
0.0000000001
 40
0.0
 40
0.0
 40
0.0
 40
1.0
 40
1.0
 40
1.0
 10
10.89473200000001
 20
1.574803000000003
 30
0.0
 10
11.64467250000001
 20
1.574803000000003
 30
0.0
 10
12.39461300000001
 20
1.574803000000003
 30
0.0
  0
SPLINE
  5
CD
330
1F
100
AcDbEntity
  8
DEFAULT
100
AcDbSpline
210
0.0
220
0.0
230
1.0
 70
    24
 71
     2
 72
     6
 73
     3
 74
     0
 42
0.0000000001
 43
0.0000000001
 40
0.0
 40
0.0
 40
0.0
 40
1.0
 40
1.0
 40
1.0
 10
2.319673000000002
 20
7.310362999999995
 30
0.0
 10
6.794672999999996
 20
7.310362999999995
 30
0.0
 10
11.26967299999999
 20
7.310362999999995
 30
0.0
  0
SPLINE
  5
CE
330
1F
100
AcDbEntity
  8
DEFAULT
100
AcDbSpline
210
0.0
220
0.0
230
1.0
 70
    24
 71
     2
 72
     6
 73
     3
 74
     0
 42
0.0000000001
 43
0.0000000001
 40
0.0
 40
0.0
 40
0.0
 40
1.0
 40
1.0
 40
1.0
 10
1.994720999999998
 20
6.683363
 30
0.0
 10
2.733106499999995
 20
6.683363
 30
0.0
 10
3.471491999999991
 20
6.683363
 30
0.0
  0
SPLINE
  5
CF
330
1F
100
AcDbEntity
  8
DEFAULT
100
AcDbSpline
210
0.0
220
0.0
230
1.0
 70
    24
 71
     2
 72
     6
 73
     3
 74
     0
 42
0.0000000001
 43
0.0000000001
 40
0.0
 40
0.0
 40
0.0
 40
1.0
 40
1.0
 40
1.0
 10
10.694673
 20
16.07480299999999
 30
0.0
 10
11.64467299999999
 20
16.07480299999999
 30
0.0
 10
12.59467299999999
 20
16.07480299999999
 30
0.0
  0
SPLINE
  5
D0
330
1F
100
AcDbEntity
  8
DEFAULT
100
AcDbSpline
210
0.0
220
0.0
230
1.0
 70
    24
 71
     2
 72
     6
 73
     3
 74
     0
 42
0.0000000001
 43
0.0000000001
 40
0.0
 40
0.0
 40
0.0
 40
1.0
 40
1.0
 40
1.0
 10
10.21354399999999
 20
7.310362999999995
 30
0.0
 10
10.21354399999999
 20
6.334362999999996
 30
0.0
 10
10.21354399999999
 20
5.358362999999997
 30
0.0
  0
SPLINE
  5
D1
330
1F
100
AcDbEntity
  8
DEFAULT
100
AcDbSpline
210
0.0
220
0.0
230
1.0
 70
     8
 71
     3
 72
     9
 73
     5
 74
     0
 42
0.0000000001
 43
0.0000000001
 40
0.0
 40
0.0
 40
0.0
 40
0.0
 40
1.0
 40
2.0
 40
2.0
 40
2.0
 40
2.0
 10
0.5382180000000005
 20
2.801450000000003
 30
0.0
 10
2.186675033426951
 20
3.245090324252757
 30
0.0
 10
5.533680975848888
 20
3.946407243978669
 30
0.0
 10
8.939548176160464
 20
4.258948954957404
 30
0.0
 10
10.64602299864917
 20
4.308404044493145
 30
0.0
  0
SPLINE
  5
D2
330
1F
100
AcDbEntity
  8
DEFAULT
100
AcDbSpline
210
0.0
220
0.0
230
1.0
 70
    24
 71
     2
 72
     6
 73
     3
 74
     0
 42
0.0000000001
 43
0.0000000001
 40
0.0
 40
0.0
 40
0.0
 40
1.0
 40
1.0
 40
1.0
 10
12.330923
 20
18.59790399999999
 30
0.0
 10
12.330923
 20
18.57760349999999
 30
0.0
 10
12.330923
 20
18.55730299999999
 30
0.0
  0
CIRCLE
  5
D3
330
1F
100
AcDbEntity
  8
DEFAULT
100
AcDbCircle
 10
0.0
 20
0.0
 30
0.0
 40
1.279528000000001
  0
SPLINE
  5
D4
330
1F
100
AcDbEntity
  8
DEFAULT
100
AcDbSpline
210
0.0
220
0.0
230
1.0
 70
     8
 71
     3
 72
     8
 73
     4
 74
     0
 42
0.0000000001
 43
0.0000000001
 40
0.0
 40
0.0
 40
0.0
 40
0.0
 40
1.0
 40
1.0
 40
1.0
 40
1.0
 10
17.807558102637
 20
20.47360663682799
 30
0.0
 10
16.49546459873299
 20
20.45271111716799
 30
0.0
 10
14.67343406787801
 20
20.145939940292
 30
0.0
 10
12.419642944242
 20
18.60227850362399
 30
0.0
  0
ARC
  5
D5
330
1F
100
AcDbEntity
  8
DEFAULT
100
AcDbCircle
 10
12.40551600000002
 20
18.62290399999999
 30
0.0
 40
0.0250000400499361
100
AcDbArc
 50
270.0
 51
304.4077211030437
  0
ARC
  5
D6
330
1F
100
AcDbEntity
  8
DEFAULT
100
AcDbCircle
 10
12.28092300000002
 20
18.55730299999999
 30
0.0
 40
0.0500000000000007
100
AcDbArc
 50
270.0
 51
0.0
  0
SPLINE
  5
D7
330
1F
100
AcDbEntity
  8
DEFAULT
100
AcDbSpline
210
0.0
220
0.0
230
1.0
 70
    24
 71
     2
 72
     6
 73
     3
 74
     0
 42
0.0000000001
 43
0.0000000001
 40
0.0
 40
0.0
 40
0.0
 40
1.0
 40
1.0
 40
1.0
 10
10.95842299999999
 20
18.59790399999999
 30
0.0
 10
10.95842299999999
 20
18.57760349999999
 30
0.0
 10
10.95842299999999
 20
18.55730299999999
 30
0.0
  0
SPLINE
  5
D8
330
1F
100
AcDbEntity
  8
DEFAULT
100
AcDbSpline
210
0.0
220
0.0
230
1.0
 70
    24
 71
     2
 72
     6
 73
     3
 74
     0
 42
0.0000000001
 43
0.0000000001
 40
0.0
 40
0.0
 40
0.0
 40
1.0
 40
1.0
 40
1.0
 10
12.019673
 20
7.310362999999995
 30
0.0
 10
12.019673
 20
7.261862999999998
 30
0.0
 10
12.019673
 20
7.213363000000001
 30
0.0
  0
SPLINE
  5
D9
330
1F
100
AcDbEntity
  8
DEFAULT
100
AcDbSpline
210
0.0
220
0.0
230
1.0
 70
    24
 71
     2
 72
     6
 73
     3
 74
     0
 42
0.0000000001
 43
0.0000000001
 40
0.0
 40
0.0
 40
0.0
 40
1.0
 40
1.0
 40
1.0
 10
3.863416000000008
 20
20.64980299999999
 30
0.0
 10
11.64467250000001
 20
20.64980299999999
 30
0.0
 10
19.42592900000001
 20
20.64980299999999
 30
0.0
  0
ARC
  5
DA
330
1F
100
AcDbEntity
  8
DEFAULT
100
AcDbCircle
 10
11.29967299999999
 20
7.310362999999995
 30
0.0
 40
0.0300000000000011
100
AcDbArc
 50
90.0
 51
180.0
  0
SPLINE
  5
DB
330
1F
100
AcDbEntity
  8
DEFAULT
100
AcDbSpline
210
0.0
220
0.0
230
1.0
 70
    24
 71
     2
 72
     6
 73
     3
 74
     0
 42
0.0000000001
 43
0.0000000001
 40
0.0
 40
0.0
 40
0.0
 40
1.0
 40
1.0
 40
1.0
 10
0.6397639999999853
 20
1.574803000000003
 30
0.0
 10
0.6397639999999853
 20
1.515748000000002
 30
0.0
 10
0.6397639999999853
 20
1.456693000000001
 30
0.0
  0
SPLINE
  5
DC
330
1F
100
AcDbEntity
  8
DEFAULT
100
AcDbSpline
210
0.0
220
0.0
230
1.0
 70
    24
 71
     2
 72
     6
 73
     3
 74
     0
 42
0.0000000001
 43
0.0000000001
 40
0.0
 40
0.0
 40
0.0
 40
1.0
 40
1.0
 40
1.0
 10
15.340906
 20
1.279527999999999
 30
0.0
 10
15.07742850000001
 20
1.279527999999999
 30
0.0
 10
14.81395100000002
 20
1.279527999999999
 30
0.0
  0
SPLINE
  5
DD
330
1F
100
AcDbEntity
  8
DEFAULT
100
AcDbSpline
210
0.0
220
0.0
230
1.0
 70
     8
 71
     3
 72
    10
 73
     6
 74
     0
 42
0.0000000001
 43
0.0000000001
 40
0.0
 40
0.0
 40
0.0
 40
0.0
 40
0.3333950301424
 40
0.6667275652557
 40
1.0
 40
1.0
 40
1.0
 40
1.0
 10
24.57707751026003
 20
1.632709143930001
 30
0.0
 10
24.57743080103999
 20
1.622587860059994
 30
0.0
 10
24.58351526746002
 20
1.602161892189997
 30
0.0
 10
24.60626922508
 20
1.580176337929998
 30
0.0
 10
24.62689140645999
 20
1.574803113729999
 30
0.0
 10
24.63701513034
 20
1.574803113729999
 30
0.0
  0
SPLINE
  5
DE
330
1F
100
AcDbEntity
  8
DEFAULT
100
AcDbSpline
210
0.0
220
0.0
230
1.0
 70
     8
 71
     3
 72
    11
 73
     7
 74
     0
 42
0.0000000001
 43
0.0000000001
 40
0.0
 40
0.0
 40
0.0
 40
0.0
 40
0.2099554840264
 40
0.4464767505974
 40
0.7142005668392
 40
1.0
 40
1.0
 40
1.0
 40
1.0
 10
10.83307709285501
 20
4.30836325304
 30
0.0
 10
10.82566431240199
 20
4.30836325304
 30
0.0
 10
10.80971263169099
 20
4.313068125499996
 30
0.0
 10
10.79125051806401
 20
4.33129974117
 30
0.0
 10
10.77928873430799
 20
4.356988368529997
 30
0.0
 10
10.7763901745
 20
4.376610725139997
 30
0.0
 10
10.77624115061599
 20
4.386700184839995
 30
0.0
  0
SPLINE
  5
DF
330
1F
100
AcDbEntity
  8
DEFAULT
100
AcDbSpline
210
0.0
220
0.0
230
1.0
 70
    24
 71
     2
 72
     6
 73
     3
 74
     0
 42
0.0000000001
 43
0.0000000001
 40
0.0
 40
0.0
 40
0.0
 40
1.0
 40
1.0
 40
1.0
 10
11.74467300000001
 20
6.683363
 30
0.0
 10
11.74467300000001
 20
6.201881999999998
 30
0.0
 10
11.74467300000001
 20
5.720400999999995
 30
0.0
  0
SPLINE
  5
E0
330
1F
100
AcDbEntity
  8
DEFAULT
100
AcDbSpline
210
0.0
220
0.0
230
1.0
 70
    24
 71
     2
 72
     6
 73
     3
 74
     0
 42
0.0000000001
 43
0.0000000001
 40
0.0
 40
0.0
 40
0.0
 40
1.0
 40
1.0
 40
1.0
 10
13.59347999999999
 20
39.42771128930706
 30
0.0
 10
14.484144
 20
39.42771128930706
 30
0.0
 10
15.37480800000002
 20
39.42771128930706
 30
0.0
  0
ARC
  5
E1
330
1F
100
AcDbEntity
  8
DEFAULT
100
AcDbCircle
 10
0.9251979999999946
 20
60.21106528930706
 30
0.0
 40
0.5364170644051076
100
AcDbArc
 50
19.7211470921406
 51
89.83732513497368
  0
SPLINE
  5
E2
330
1F
100
AcDbEntity
  8
DEFAULT
100
AcDbSpline
210
0.0
220
0.0
230
1.0
 70
     8
 71
     2
 72
   184
 73
   181
 74
     0
 42
0.0000000001
 43
0.0000000001
 40
-90.0
 40
-90.0
 40
-90.0
 40
-89.0
 40
-89.0
 40
-88.0
 40
-88.0
 40
-87.0
 40
-87.0
 40
-86.0
 40
-86.0
 40
-85.0
 40
-85.0
 40
-84.0
 40
-84.0
 40
-83.0
 40
-83.0
 40
-82.0
 40
-82.0
 40
-81.0
 40
-81.0
 40
-80.0
 40
-80.0
 40
-79.0
 40
-79.0
 40
-78.0
 40
-78.0
 40
-77.0
 40
-77.0
 40
-76.0
 40
-76.0
 40
-75.0
 40
-75.0
 40
-74.0
 40
-74.0
 40
-73.0
 40
-73.0
 40
-72.0
 40
-72.0
 40
-71.0
 40
-71.0
 40
-70.0
 40
-70.0
 40
-69.0
 40
-69.0
 40
-68.0
 40
-68.0
 40
-67.0
 40
-67.0
 40
-66.0
 40
-66.0
 40
-65.0
 40
-65.0
 40
-64.0
 40
-64.0
 40
-63.0
 40
-63.0
 40
-62.0
 40
-62.0
 40
-61.0
 40
-61.0
 40
-60.0
 40
-60.0
 40
-59.0
 40
-59.0
 40
-58.0
 40
-58.0
 40
-57.0
 40
-57.0
 40
-56.0
 40
-56.0
 40
-55.0
 40
-55.0
 40
-54.0
 40
-54.0
 40
-53.0
 40
-53.0
 40
-52.0
 40
-52.0
 40
-51.0
 40
-51.0
 40
-50.0
 40
-50.0
 40
-49.0
 40
-49.0
 40
-48.0
 40
-48.0
 40
-47.0
 40
-47.0
 40
-46.0
 40
-46.0
 40
-45.0
 40
-45.0
 40
-44.0
 40
-44.0
 40
-43.0
 40
-43.0
 40
-42.0
 40
-42.0
 40
-41.0
 40
-41.0
 40
-40.0
 40
-40.0
 40
-39.0
 40
-39.0
 40
-38.0
 40
-38.0
 40
-37.0
 40
-37.0
 40
-36.0
 40
-36.0
 40
-35.0
 40
-35.0
 40
-34.0
 40
-34.0
 40
-33.0
 40
-33.0
 40
-32.0
 40
-32.0
 40
-31.0
 40
-31.0
 40
-30.0
 40
-30.0
 40
-29.0
 40
-29.0
 40
-28.0
 40
-28.0
 40
-27.0
 40
-27.0
 40
-26.0
 40
-26.0
 40
-25.0
 40
-25.0
 40
-24.0
 40
-24.0
 40
-23.0
 40
-23.0
 40
-22.0
 40
-22.0
 40
-21.0
 40
-21.0
 40
-20.0
 40
-20.0
 40
-19.0
 40
-19.0
 40
-18.0
 40
-18.0
 40
-17.0
 40
-17.0
 40
-16.0
 40
-16.0
 40
-15.0
 40
-15.0
 40
-14.0
 40
-14.0
 40
-13.0
 40
-13.0
 40
-12.0
 40
-12.0
 40
-11.0
 40
-11.0
 40
-10.0
 40
-10.0
 40
-9.0
 40
-9.0
 40
-8.0
 40
-8.0
 40
-7.0
 40
-7.0
 40
-6.0
 40
-6.0
 40
-5.0
 40
-5.0
 40
-4.0
 40
-4.0
 40
-3.0
 40
-3.0
 40
-2.0
 40
-2.0
 40
-1.0
 40
-1.0
 40
0.0
 40
0.0
 40
0.0
 10
3.438556999999996
 20
61.24251878930706
 30
0.0
 10
3.440441499999991
 20
61.25416803930706
 30
0.0
 10
3.442325999999987
 20
61.26581728930707
 30
0.0
 10
3.443305499999987
 20
61.26922178930705
 30
0.0
 10
3.444284999999986
 20
61.27262628930704
 30
0.0
 10
3.44557799999999
 20
61.27642828930705
 30
0.0
 10
3.446870999999994
 20
61.28023028930706
 30
0.0
 10
3.448319999999995
 20
61.28387928930705
 30
0.0
 10
3.449768999999996
 20
61.28752828930705
 30
0.0
 10
3.451298499999993
 20
61.29089928930706
 30
0.0
 10
3.45282799999999
 20
61.29427028930708
 30
0.0
 10
3.454469499999988
 20
61.29749328930707
 30
0.0
 10
3.456110999999986
 20
61.30071628930706
 30
0.0
 10
3.45777249999999
 20
61.30366028930708
 30
0.0
 10
3.459433999999995
 20
61.30660428930709
 30
0.0
 10
3.461047499999992
 20
61.30922128930708
 30
0.0
 10
3.46266099999999
 20
61.31183828930706
 30
0.0
 10
3.464235499999994
 20
61.31420478930706
 30
0.0
 10
3.465809999999998
 20
61.31657128930705
 30
0.0
 10
3.467361499999996
 20
61.31874878930707
 30
0.0
 10
3.468912999999993
 20
61.32092628930708
 30
0.0
 10
3.470434999999995
 20
61.32293728930706
 30
0.0
 10
3.471956999999996
 20
61.32494828930705
 30
0.0
 10
3.473428999999989
 20
61.32678828930706
 30
0.0
 10
3.474900999999981
 20
61.32862828930708
 30
0.0
 10
3.476320499999986
 20
61.33031678930708
 30
0.0
 10
3.47773999999999
 20
61.33200528930708
 30
0.0
 10
3.479090499999991
 20
61.33354328930706
 30
0.0
 10
3.480440999999992
 20
61.33508128930704
 30
0.0
 10
3.481719999999989
 20
61.33648278930706
 30
0.0
 10
3.482998999999985
 20
61.33788428930707
 30
0.0
 10
3.484227999999987
 20
61.33918528930708
 30
0.0
 10
3.48545699999999
 20
61.34048628930709
 30
0.0
 10
3.486630999999988
 20
61.34169228930709
 30
0.0
 10
3.487804999999987
 20
61.34289828930709
 30
0.0
 10
3.488918999999989
 20
61.34401178930709
 30
0.0
 10
3.49003299999999
 20
61.34512528930709
 30
0.0
 10
3.491112999999991
 20
61.34618028930707
 30
0.0
 10
3.492192999999993
 20
61.34723528930705
 30
0.0
 10
3.49323849999999
 20
61.34823478930706
 30
0.0
 10
3.494283999999986
 20
61.34923428930706
 30
0.0
 10
3.49528999999999
 20
61.35017928930706
 30
0.0
 10
3.496295999999994
 20
61.35112428930707
 30
0.0
 10
3.497284499999992
 20
61.35203678930706
 30
0.0
 10
3.49827299999999
 20
61.35294928930706
 30
0.0
 10
3.49924399999999
 20
61.35383328930708
 30
0.0
 10
3.50021499999999
 20
61.35471728930709
 30
0.0
 10
3.501165499999992
 20
61.35557078930707
 30
0.0
 10
3.502115999999994
 20
61.35642428930704
 30
0.0
 10
3.503060499999989
 20
61.35726278930706
 30
0.0
 10
3.504004999999985
 20
61.35810128930707
 30
0.0
 10
3.504944999999985
 20
61.35892728930706
 30
0.0
 10
3.505884999999985
 20
61.35975328930705
 30
0.0
 10
3.507747999999985
 20
61.36136878930706
 30
0.0
 10
3.509610999999985
 20
61.36298428930708
 30
0.0
 10
3.51146949999999
 20
61.36457078930708
 30
0.0
 10
3.513327999999994
 20
61.36615728930708
 30
0.0
 10
3.515187499999989
 20
61.36772678930707
 30
0.0
 10
3.517046999999984
 20
61.36929628930706
 30
0.0
 10
3.519840499999987
 20
61.37162978930705
 30
0.0
 10
3.522633999999989
 20
61.37396328930704
 30
0.0
 10
3.531896999999987
 20
61.38164278930707
 30
0.0
 10
3.541159999999984
 20
61.38932228930709
 30
0.0
 10
3.543852499999986
 20
61.39157978930707
 30
0.0
 10
3.546544999999988
 20
61.39383728930706
 30
0.0
 10
3.54828899999999
 20
61.39531528930705
 30
0.0
 10
3.550032999999992
 20
61.39679328930704
 30
0.0
 10
3.551721999999991
 20
61.39824128930705
 30
0.0
 10
3.55341099999999
 20
61.39968928930706
 30
0.0
 10
3.555029499999989
 20
61.40109578930706
 30
0.0
 10
3.556647999999988
 20
61.40250228930707
 30
0.0
 10
3.558180499999985
 20
61.40385528930706
 30
0.0
 10
3.559712999999981
 20
61.40520828930705
 30
0.0
 10
3.560442499999986
 20
61.40586128930705
 30
0.0
 10
3.561171999999992
 20
61.40651428930705
 30
0.0
 10
3.561871499999988
 20
61.40714678930705
 30
0.0
 10
3.562570999999984
 20
61.40777928930704
 30
0.0
 10
3.563237499999985
 20
61.40838878930707
 30
0.0
 10
3.563903999999987
 20
61.40899828930709
 30
0.0
 10
3.564516499999989
 20
61.40956478930708
 30
0.0
 10
3.565128999999992
 20
61.41013128930707
 30
0.0
 10
3.567372999999989
 20
61.41214678930707
 30
0.0
 10
3.569616999999987
 20
61.41416228930707
 30
0.0
 10
3.571942499999984
 20
61.41611428930706
 30
0.0
 10
3.574267999999982
 20
61.41806628930705
 30
0.0
 10
3.576338999999983
 20
61.41970578930706
 30
0.0
 10
3.578409999999984
 20
61.42134528930707
 30
0.0
 10
3.580234999999988
 20
61.42272328930706
 30
0.0
 10
3.582059999999991
 20
61.42410128930705
 30
0.0
 10
3.583833999999989
 20
61.42539078930706
 30
0.0
 10
3.585607999999986
 20
61.42668028930707
 30
0.0
 10
3.587371499999989
 20
61.42792128930706
 30
0.0
 10
3.589134999999992
 20
61.42916228930706
 30
0.0
 10
3.59085249999999
 20
61.43033878930707
 30
0.0
 10
3.592569999999988
 20
61.43151528930709
 30
0.0
 10
3.59433099999999
 20
61.43269328930707
 30
0.0
 10
3.596091999999992
 20
61.43387128930705
 30
0.0
 10
3.597918499999992
 20
61.43506978930706
 30
0.0
 10
3.599744999999992
 20
61.43626828930708
 30
0.0
 10
3.601626499999995
 20
61.43748128930709
 30
0.0
 10
3.603507999999998
 20
61.43869428930709
 30
0.0
 10
3.605483999999997
 20
61.43994928930708
 30
0.0
 10
3.607459999999996
 20
61.44120428930707
 30
0.0
 10
3.60954199999999
 20
61.44250928930707
 30
0.0
 10
3.611623999999985
 20
61.44381428930707
 30
0.0
 10
3.613811499999983
 20
61.44516978930706
 30
0.0
 10
3.615998999999981
 20
61.44652528930705
 30
0.0
 10
3.620755999999986
 20
61.44942978930705
 30
0.0
 10
3.625512999999991
 20
61.45233428930705
 30
0.0
 10
3.630819499999987
 20
61.45552228930707
 30
0.0
 10
3.636125999999983
 20
61.45871028930709
 30
0.0
 10
3.642049499999985
 20
61.46222228930709
 30
0.0
 10
3.647972999999986
 20
61.46573428930709
 30
0.0
 10
3.658128999999988
 20
61.47167578930707
 30
0.0
 10
3.66828499999999
 20
61.47761728930705
 30
0.0
 10
3.68009949999999
 20
61.48444178930707
 30
0.0
 10
3.69191399999999
 20
61.49126628930709
 30
0.0
 10
3.710472499999987
 20
61.50186328930708
 30
0.0
 10
3.729030999999985
 20
61.51246028930707
 30
0.0
 10
3.757258999999983
 20
61.52838778930708
 30
0.0
 10
3.785486999999982
 20
61.54431528930708
 30
0.0
 10
3.819992499999984
 20
61.56355928930707
 30
0.0
 10
3.854497999999985
 20
61.58280328930705
 30
0.0
 10
3.904704999999986
 20
61.61048978930707
 30
0.0
 10
3.954911999999986
 20
61.63817628930708
 30
0.0
 10
4.024325499999989
 20
61.67605078930707
 30
0.0
 10
4.093738999999992
 20
61.71392528930706
 30
0.0
 10
4.18518499999999
 20
61.76327828930705
 30
0.0
 10
4.276630999999988
 20
61.81263128930705
 30
0.0
 10
4.379361499999987
 20
61.86744328930705
 30
0.0
 10
4.482091999999987
 20
61.92225528930705
 30
0.0
 10
4.580535499999989
 20
61.97418678930707
 30
0.0
 10
4.678978999999991
 20
62.02611828930709
 30
0.0
 10
4.769704499999989
 20
62.07343278930709
 30
0.0
 10
4.860429999999987
 20
62.12074728930709
 30
0.0
 10
4.922680499999984
 20
62.15288028930708
 30
0.0
 10
4.984930999999982
 20
62.18501328930707
 30
0.0
 10
4.98495599999999
 20
62.18502028930708
 30
0.0
 10
4.984980999999998
 20
62.18502728930709
 30
0.0
 10
5.152967999999994
 20
62.27103478930708
 30
0.0
 10
5.320954999999991
 20
62.35704228930707
 30
0.0
 10
5.505881499999994
 20
62.45099278930708
 30
0.0
 10
5.690807999999997
 20
62.54494328930708
 30
0.0
 10
5.872175999999989
 20
62.63644428930708
 30
0.0
 10
6.053543999999981
 20
62.72794528930707
 30
0.0
 10
6.231149499999987
 20
62.81703978930706
 30
0.0
 10
6.408754999999992
 20
62.90613428930705
 30
0.0
 10
6.582636499999992
 20
62.99298328930705
 30
0.0
 10
6.756517999999993
 20
63.07983228930705
 30
0.0
 10
6.926966499999992
 20
63.16465328930705
 30
0.0
 10
7.097414999999991
 20
63.24947428930706
 30
0.0
 10
7.26451999999999
 20
63.33221878930705
 30
0.0
 10
7.43162499999999
 20
63.41496328930704
 30
0.0
 10
7.595412999999986
 20
63.49546728930706
 30
0.0
 10
7.759200999999983
 20
63.57597128930708
 30
0.0
 10
7.919929499999988
 20
63.65421078930707
 30
0.0
 10
8.080657999999993
 20
63.73245028930707
 30
0.0
 10
8.238344999999988
 20
63.80832128930707
 30
0.0
 10
8.396031999999984
 20
63.88419228930708
 30
0.0
 10
8.550962999999989
 20
63.95735128930708
 30
0.0
 10
8.705893999999994
 20
64.03051028930709
 30
0.0
 10
8.858894499999991
 20
64.10024128930708
 30
0.0
 10
9.011894999999988
 20
64.16997228930707
 30
0.0
 10
9.163412499999993
 20
64.23511078930706
 30
0.0
 10
9.314929999999997
 20
64.30024928930705
 30
0.0
 10
9.465410999999996
 20
64.35959728930705
 30
0.0
 10
9.615891999999995
 20
64.41894528930705
 30
0.0
 10
9.766046499999995
 20
64.47159678930704
 30
0.0
 10
9.916200999999994
 20
64.52424828930704
 30
0.0
 10
10.06609099999999
 20
64.56904428930706
 30
0.0
 10
10.21598099999999
 20
64.61384028930708
 30
0.0
 10
10.36523249999999
 20
64.64999028930707
 30
0.0
 10
10.51448399999999
 20
64.68614028930706
 30
0.0
 10
10.66318749999999
 20
64.71361728930707
 30
0.0
 10
10.811891
 20
64.74109428930707
 30
0.0
 10
10.9596695
 20
64.76003228930706
 30
0.0
 10
11.107448
 20
64.77897028930705
 30
0.0
 10
11.2536065
 20
64.78961628930706
 30
0.0
 10
11.399765
 20
64.80026228930707
 30
0.0
 10
11.52222149999999
 20
64.80304578930706
 30
0.0
 10
11.64467799999999
 20
64.80582928930706
 30
0.0
  0
SPLINE
  5
E3
330
1F
100
AcDbEntity
  8
DEFAULT
100
AcDbSpline
210
0.0
220
0.0
230
1.0
 70
     8
 71
     2
 72
   184
 73
   181
 74
     0
 42
0.0000000001
 43
0.0000000001
 40
0.0
 40
0.0
 40
0.0
 40
1.0
 40
1.0
 40
2.0
 40
2.0
 40
3.0
 40
3.0
 40
4.0
 40
4.0
 40
5.0
 40
5.0
 40
6.0
 40
6.0
 40
7.0
 40
7.0
 40
8.0
 40
8.0
 40
9.0
 40
9.0
 40
10.0
 40
10.0
 40
11.0
 40
11.0
 40
12.0
 40
12.0
 40
13.0
 40
13.0
 40
14.0
 40
14.0
 40
15.0
 40
15.0
 40
16.0
 40
16.0
 40
17.0
 40
17.0
 40
18.0
 40
18.0
 40
19.0
 40
19.0
 40
20.0
 40
20.0
 40
21.0
 40
21.0
 40
22.0
 40
22.0
 40
23.0
 40
23.0
 40
24.0
 40
24.0
 40
25.0
 40
25.0
 40
26.0
 40
26.0
 40
27.0
 40
27.0
 40
28.0
 40
28.0
 40
29.0
 40
29.0
 40
30.0
 40
30.0
 40
31.0
 40
31.0
 40
32.0
 40
32.0
 40
33.0
 40
33.0
 40
34.0
 40
34.0
 40
35.0
 40
35.0
 40
36.0
 40
36.0
 40
37.0
 40
37.0
 40
38.0
 40
38.0
 40
39.0
 40
39.0
 40
40.0
 40
40.0
 40
41.0
 40
41.0
 40
42.0
 40
42.0
 40
43.0
 40
43.0
 40
44.0
 40
44.0
 40
45.0
 40
45.0
 40
46.0
 40
46.0
 40
47.0
 40
47.0
 40
48.0
 40
48.0
 40
49.0
 40
49.0
 40
50.0
 40
50.0
 40
51.0
 40
51.0
 40
52.0
 40
52.0
 40
53.0
 40
53.0
 40
54.0
 40
54.0
 40
55.0
 40
55.0
 40
56.0
 40
56.0
 40
57.0
 40
57.0
 40
58.0
 40
58.0
 40
59.0
 40
59.0
 40
60.0
 40
60.0
 40
61.0
 40
61.0
 40
62.0
 40
62.0
 40
63.0
 40
63.0
 40
64.0
 40
64.0
 40
65.0
 40
65.0
 40
66.0
 40
66.0
 40
67.0
 40
67.0
 40
68.0
 40
68.0
 40
69.0
 40
69.0
 40
70.0
 40
70.0
 40
71.0
 40
71.0
 40
72.0
 40
72.0
 40
73.0
 40
73.0
 40
74.0
 40
74.0
 40
75.0
 40
75.0
 40
76.0
 40
76.0
 40
77.0
 40
77.0
 40
78.0
 40
78.0
 40
79.0
 40
79.0
 40
80.0
 40
80.0
 40
81.0
 40
81.0
 40
82.0
 40
82.0
 40
83.0
 40
83.0
 40
84.0
 40
84.0
 40
85.0
 40
85.0
 40
86.0
 40
86.0
 40
87.0
 40
87.0
 40
88.0
 40
88.0
 40
89.0
 40
89.0
 40
90.0
 40
90.0
 40
90.0
 10
11.64467799999999
 20
64.80582928930706
 30
0.0
 10
11.76713449999999
 20
64.80304578930706
 30
0.0
 10
11.88959099999999
 20
64.80026228930707
 30
0.0
 10
12.03574949999998
 20
64.78961628930706
 30
0.0
 10
12.18190799999998
 20
64.77897028930705
 30
0.0
 10
12.32968649999998
 20
64.76003228930706
 30
0.0
 10
12.47746499999998
 20
64.74109428930707
 30
0.0
 10
12.62616849999998
 20
64.71361728930707
 30
0.0
 10
12.77487199999997
 20
64.68614028930706
 30
0.0
 10
12.92412349999998
 20
64.64999028930707
 30
0.0
 10
13.07337499999998
 20
64.61384028930708
 30
0.0
 10
13.22326499999998
 20
64.56904428930706
 30
0.0
 10
13.37315499999998
 20
64.52424828930704
 30
0.0
 10
13.52330949999998
 20
64.47159678930704
 30
0.0
 10
13.67346399999998
 20
64.41894528930705
 30
0.0
 10
13.82394499999998
 20
64.35959728930705
 30
0.0
 10
13.97442599999998
 20
64.30024928930705
 30
0.0
 10
14.12594349999998
 20
64.23511078930706
 30
0.0
 10
14.27746099999997
 20
64.16997228930707
 30
0.0
 10
14.43046149999998
 20
64.10024128930708
 30
0.0
 10
14.58346199999998
 20
64.03051028930709
 30
0.0
 10
14.73839299999999
 20
63.95735128930708
 30
0.0
 10
14.89332399999999
 20
63.88419228930708
 30
0.0
 10
15.05101099999999
 20
63.80832128930707
 30
0.0
 10
15.20869799999998
 20
63.73245028930707
 30
0.0
 10
15.36942649999999
 20
63.65421078930707
 30
0.0
 10
15.53015499999999
 20
63.57597128930708
 30
0.0
 10
15.69394299999999
 20
63.49546728930706
 30
0.0
 10
15.85773099999999
 20
63.41496328930704
 30
0.0
 10
16.02483599999998
 20
63.33221878930705
 30
0.0
 10
16.19194099999997
 20
63.24947428930706
 30
0.0
 10
16.36238949999998
 20
63.16465328930705
 30
0.0
 10
16.53283799999998
 20
63.07983228930705
 30
0.0
 10
16.70671949999999
 20
62.99298328930705
 30
0.0
 10
16.880601
 20
62.90613428930705
 30
0.0
 10
17.0582065
 20
62.81703978930706
 30
0.0
 10
17.235812
 20
62.72794528930707
 30
0.0
 10
17.41717999999999
 20
62.63644428930708
 30
0.0
 10
17.59854799999998
 20
62.54494328930708
 30
0.0
 10
17.78347449999998
 20
62.45099278930708
 30
0.0
 10
17.96840099999999
 20
62.35704228930707
 30
0.0
 10
18.13638799999998
 20
62.27103478930708
 30
0.0
 10
18.30437499999998
 20
62.18502728930709
 30
0.0
 10
18.30439999999999
 20
62.18502028930708
 30
0.0
 10
18.30442499999999
 20
62.18501328930707
 30
0.0
 10
18.36667549999999
 20
62.15288028930708
 30
0.0
 10
18.42892599999998
 20
62.12074728930709
 30
0.0
 10
18.51965149999998
 20
62.07343278930709
 30
0.0
 10
18.61037699999999
 20
62.02611828930709
 30
0.0
 10
18.70882049999999
 20
61.97418678930707
 30
0.0
 10
18.80726399999999
 20
61.92225528930705
 30
0.0
 10
18.90999449999998
 20
61.86744328930705
 30
0.0
 10
19.01272499999997
 20
61.81263128930705
 30
0.0
 10
19.10417099999998
 20
61.76327828930705
 30
0.0
 10
19.19561699999998
 20
61.71392528930706
 30
0.0
 10
19.26503049999998
 20
61.67605078930707
 30
0.0
 10
19.33444399999998
 20
61.63817628930708
 30
0.0
 10
19.38465099999998
 20
61.61048978930707
 30
0.0
 10
19.43485799999998
 20
61.58280328930705
 30
0.0
 10
19.46936349999999
 20
61.56355928930707
 30
0.0
 10
19.50386899999999
 20
61.54431528930708
 30
0.0
 10
19.53209699999999
 20
61.52838778930708
 30
0.0
 10
19.56032499999999
 20
61.51246028930707
 30
0.0
 10
19.57888349999999
 20
61.50186328930708
 30
0.0
 10
19.59744199999999
 20
61.49126628930709
 30
0.0
 10
19.60925649999999
 20
61.48444178930707
 30
0.0
 10
19.62107099999999
 20
61.47761728930705
 30
0.0
 10
19.63122699999998
 20
61.47167578930707
 30
0.0
 10
19.64138299999998
 20
61.46573428930709
 30
0.0
 10
19.64730649999998
 20
61.46222228930709
 30
0.0
 10
19.65322999999999
 20
61.45871028930709
 30
0.0
 10
19.65853649999999
 20
61.45552228930707
 30
0.0
 10
19.66384299999999
 20
61.45233428930705
 30
0.0
 10
19.66859999999999
 20
61.44942978930705
 30
0.0
 10
19.673357
 20
61.44652528930705
 30
0.0
 10
19.67554449999999
 20
61.44516978930706
 30
0.0
 10
19.67773199999998
 20
61.44381428930707
 30
0.0
 10
19.67981399999998
 20
61.44250928930707
 30
0.0
 10
19.68189599999998
 20
61.44120428930707
 30
0.0
 10
19.68387199999998
 20
61.43994928930708
 30
0.0
 10
19.68584799999998
 20
61.43869428930709
 30
0.0
 10
19.68772949999999
 20
61.43748128930709
 30
0.0
 10
19.689611
 20
61.43626828930708
 30
0.0
 10
19.69143749999999
 20
61.43506978930706
 30
0.0
 10
19.69326399999999
 20
61.43387128930705
 30
0.0
 10
19.69502499999999
 20
61.43269328930707
 30
0.0
 10
19.69678599999999
 20
61.43151528930709
 30
0.0
 10
19.69850349999999
 20
61.43033878930707
 30
0.0
 10
19.70022099999998
 20
61.42916228930706
 30
0.0
 10
19.70198449999998
 20
61.42792128930706
 30
0.0
 10
19.70374799999998
 20
61.42668028930707
 30
0.0
 10
19.70552199999998
 20
61.42539078930706
 30
0.0
 10
19.70729599999999
 20
61.42410128930705
 30
0.0
 10
19.70912099999999
 20
61.42272328930706
 30
0.0
 10
19.71094599999999
 20
61.42134528930707
 30
0.0
 10
19.71301699999999
 20
61.41970578930706
 30
0.0
 10
19.71508799999999
 20
61.41806628930705
 30
0.0
 10
19.71741349999999
 20
61.41611428930706
 30
0.0
 10
19.71973899999999
 20
61.41416228930707
 30
0.0
 10
19.72198299999999
 20
61.41214678930707
 30
0.0
 10
19.724227
 20
61.41013128930707
 30
0.0
 10
19.72483949999999
 20
61.40956478930708
 30
0.0
 10
19.72545199999998
 20
61.40899828930709
 30
0.0
 10
19.72611849999998
 20
61.40838878930707
 30
0.0
 10
19.72678499999999
 20
61.40777928930704
 30
0.0
 10
19.72748449999999
 20
61.40714678930705
 30
0.0
 10
19.72818399999998
 20
61.40651428930705
 30
0.0
 10
19.72891349999999
 20
61.40586128930705
 30
0.0
 10
19.729643
 20
61.40520828930705
 30
0.0
 10
19.73117549999999
 20
61.40385528930706
 30
0.0
 10
19.73270799999999
 20
61.40250228930707
 30
0.0
 10
19.73432649999999
 20
61.40109578930706
 30
0.0
 10
19.73594499999999
 20
61.39968928930706
 30
0.0
 10
19.73763399999999
 20
61.39824128930705
 30
0.0
 10
19.739323
 20
61.39679328930704
 30
0.0
 10
19.74106699999999
 20
61.39531528930705
 30
0.0
 10
19.74281099999997
 20
61.39383728930706
 30
0.0
 10
19.74550349999998
 20
61.39157978930707
 30
0.0
 10
19.74819599999999
 20
61.38932228930709
 30
0.0
 10
19.75745899999999
 20
61.38164278930707
 30
0.0
 10
19.76672199999999
 20
61.37396328930704
 30
0.0
 10
19.76951549999999
 20
61.37162978930705
 30
0.0
 10
19.77230899999999
 20
61.36929628930706
 30
0.0
 10
19.77416849999999
 20
61.36772678930707
 30
0.0
 10
19.77602799999998
 20
61.36615728930708
 30
0.0
 10
19.77788649999998
 20
61.36457078930708
 30
0.0
 10
19.77974499999998
 20
61.36298428930708
 30
0.0
 10
19.78160799999998
 20
61.36136878930706
 30
0.0
 10
19.78347099999998
 20
61.35975328930705
 30
0.0
 10
19.78441099999998
 20
61.35892728930706
 30
0.0
 10
19.78535099999998
 20
61.35810128930707
 30
0.0
 10
19.78629549999998
 20
61.35726278930706
 30
0.0
 10
19.78723999999998
 20
61.35642428930704
 30
0.0
 10
19.78819049999998
 20
61.35557078930707
 30
0.0
 10
19.78914099999999
 20
61.35471728930709
 30
0.0
 10
19.79011199999999
 20
61.35383328930708
 30
0.0
 10
19.79108299999999
 20
61.35294928930706
 30
0.0
 10
19.79207149999998
 20
61.35203678930706
 30
0.0
 10
19.79305999999998
 20
61.35112428930707
 30
0.0
 10
19.79406599999999
 20
61.35017928930706
 30
0.0
 10
19.79507199999999
 20
61.34923428930706
 30
0.0
 10
19.79611749999999
 20
61.34823478930706
 30
0.0
 10
19.797163
 20
61.34723528930705
 30
0.0
 10
19.79824299999999
 20
61.34618028930707
 30
0.0
 10
19.79932299999999
 20
61.34512528930709
 30
0.0
 10
19.80043699999998
 20
61.34401178930709
 30
0.0
 10
19.80155099999998
 20
61.34289828930709
 30
0.0
 10
19.80272499999998
 20
61.34169228930709
 30
0.0
 10
19.80389899999999
 20
61.34048628930709
 30
0.0
 10
19.80512799999998
 20
61.33918528930708
 30
0.0
 10
19.80635699999998
 20
61.33788428930707
 30
0.0
 10
19.80763599999999
 20
61.33648278930706
 30
0.0
 10
19.808915
 20
61.33508128930704
 30
0.0
 10
19.81026549999999
 20
61.33354328930706
 30
0.0
 10
19.81161599999999
 20
61.33200528930708
 30
0.0
 10
19.81303549999999
 20
61.33031678930708
 30
0.0
 10
19.814455
 20
61.32862828930708
 30
0.0
 10
19.81592699999999
 20
61.32678828930706
 30
0.0
 10
19.81739899999998
 20
61.32494828930705
 30
0.0
 10
19.81892099999999
 20
61.32293728930706
 30
0.0
 10
19.820443
 20
61.32092628930708
 30
0.0
 10
19.82199449999999
 20
61.31874878930707
 30
0.0
 10
19.82354599999998
 20
61.31657128930705
 30
0.0
 10
19.82512049999998
 20
61.31420478930706
 30
0.0
 10
19.82669499999999
 20
61.31183828930706
 30
0.0
 10
19.82830849999999
 20
61.30922128930708
 30
0.0
 10
19.829922
 20
61.30660428930709
 30
0.0
 10
19.83158349999999
 20
61.30366028930708
 30
0.0
 10
19.83324499999999
 20
61.30071628930706
 30
0.0
 10
19.83488649999999
 20
61.29749328930707
 30
0.0
 10
19.83652799999999
 20
61.29427028930708
 30
0.0
 10
19.83805749999998
 20
61.29089928930706
 30
0.0
 10
19.83958699999998
 20
61.28752828930705
 30
0.0
 10
19.84103599999999
 20
61.28387928930705
 30
0.0
 10
19.842485
 20
61.28023028930706
 30
0.0
 10
19.84377799999999
 20
61.27642828930705
 30
0.0
 10
19.84507099999998
 20
61.27262628930704
 30
0.0
 10
19.84605049999998
 20
61.26922178930705
 30
0.0
 10
19.84702999999998
 20
61.26581728930707
 30
0.0
 10
19.84891449999998
 20
61.25416803930706
 30
0.0
 10
19.85079899999998
 20
61.24251878930706
 30
0.0
  0
SPLINE
  5
E4
330
1F
100
AcDbEntity
  8
DEFAULT
100
AcDbSpline
210
0.0
220
0.0
230
1.0
 70
     8
 71
     3
 72
    34
 73
    30
 74
     0
 42
0.0000000001
 43
0.0000000001
 40
0.0
 40
0.0
 40
0.0
 40
0.0
 40
1.0
 40
2.0
 40
3.0
 40
4.0
 40
5.0
 40
6.0
 40
7.0
 40
8.0
 40
9.0
 40
10.0
 40
11.0
 40
12.0
 40
13.0
 40
14.0
 40
15.0
 40
16.0
 40
17.0
 40
18.0
 40
19.0
 40
20.0
 40
21.0
 40
22.0
 40
23.0
 40
24.0
 40
25.0
 40
26.0
 40
27.0
 40
27.0
 40
27.0
 40
27.0
 10
19.85079899999998
 20
61.24251878930706
 30
0.0
 10
19.85416826611667
 20
61.11107791260908
 30
0.0
 10
19.85058953581891
 20
60.88491596805831
 30
0.0
 10
19.80795426091628
 20
60.54689116431582
 30
0.0
 10
19.68684175363127
 20
60.22711039761562
 30
0.0
 10
19.43327611181802
 20
59.97553826082869
 30
0.0
 10
19.08268878937649
 20
59.95041634919006
 30
0.0
 10
18.74697096641684
 20
59.97900477567528
 30
0.0
 10
18.4089593592913
 20
60.0148824388536
 30
0.0
 10
18.07319854219418
 20
60.06256167835524
 30
0.0
 10
17.73669080521417
 20
60.10606422241268
 30
0.0
 10
17.39950994566108
 20
60.14360614933572
 30
0.0
 10
17.06175159126902
 20
60.17568411500862
 30
0.0
 10
16.72342035608109
 20
60.20096430244003
 30
0.0
 10
16.38478309630345
 20
60.22161376787683
 30
0.0
 10
16.04608304020722
 20
60.24097123438226
 30
0.0
 10
15.70741345404686
 20
60.2615245625491
 30
0.0
 10
15.36960974262102
 20
60.29314207904237
 30
0.0
 10
15.03207163672384
 20
60.32728116272558
 30
0.0
 10
14.69421030757228
 20
60.35810609086811
 30
0.0
 10
14.35614708607993
 20
60.38645868304276
 30
0.0
 10
14.01784383014875
 20
60.41220733794809
 30
0.0
 10
13.67906805150891
 20
60.43061568974925
 30
0.0
 10
13.34020531237205
 20
60.44676317583931
 30
0.0
 10
13.00119832026151
 20
60.46005419443362
 30
0.0
 10
12.66215812273713
 20
60.47229379477677
 30
0.0
 10
12.32306170917293
 20
60.48287603016628
 30
0.0
 10
11.98394133276794
 20
60.49257666299088
 30
0.0
 10
11.75775508268196
 20
60.49407220647272
 30
0.0
 10
11.64467299999999
 20
60.49581428930709
 30
0.0
  0
SPLINE
  5
E5
330
1F
100
AcDbEntity
  8
DEFAULT
100
AcDbSpline
210
0.0
220
0.0
230
1.0
 70
     8
 71
     3
 72
    34
 73
    30
 74
     0
 42
0.0000000001
 43
0.0000000001
 40
-27.0
 40
-27.0
 40
-27.0
 40
-27.0
 40
-26.0
 40
-25.0
 40
-24.0
 40
-23.0
 40
-22.0
 40
-21.0
 40
-20.0
 40
-19.0
 40
-18.0
 40
-17.0
 40
-16.0
 40
-15.0
 40
-14.0
 40
-13.0
 40
-12.0
 40
-11.0
 40
-10.0
 40
-9.0
 40
-8.0
 40
-7.0
 40
-6.0
 40
-5.0
 40
-4.0
 40
-3.0
 40
-2.0
 40
-1.0
 40
0.0
 40
0.0
 40
0.0
 40
0.0
 10
11.64467299999999
 20
60.49581428930709
 30
0.0
 10
11.53160091731802
 20
60.49407220647272
 30
0.0
 10
11.30541466723204
 20
60.49257666299088
 30
0.0
 10
10.96629429082703
 20
60.48287603016628
 30
0.0
 10
10.62719787726287
 20
60.47229379477677
 30
0.0
 10
10.28815767973847
 20
60.46005419443362
 30
0.0
 10
9.949150687627913
 20
60.44676317583931
 30
0.0
 10
9.61028794849107
 20
60.43061568974925
 30
0.0
 10
9.271512169851228
 20
60.41220733794809
 30
0.0
 10
8.933208913920033
 20
60.38645868304276
 30
0.0
 10
8.595145692427685
 20
60.35810609086811
 30
0.0
 10
8.257284363276135
 20
60.32728116272558
 30
0.0
 10
7.919746257378939
 20
60.29314207904237
 30
0.0
 10
7.581942545953119
 20
60.2615245625491
 30
0.0
 10
7.243272959792755
 20
60.24097123438226
 30
0.0
 10
6.904572903696511
 20
60.22161376787683
 30
0.0
 10
6.565935643918884
 20
60.20096430244003
 30
0.0
 10
6.227604408730976
 20
60.17568411500862
 30
0.0
 10
5.889846054338911
 20
60.14360614933572
 30
0.0
 10
5.55266519478581
 20
60.10606422241268
 30
0.0
 10
5.216157457805799
 20
60.06256167835524
 30
0.0
 10
4.880396640708661
 20
60.0148824388536
 30
0.0
 10
4.542385033583137
 20
59.97900477567528
 30
0.0
 10
4.2066672106235
 20
59.95041634919006
 30
0.0
 10
3.856079888181959
 20
59.97553826082869
 30
0.0
 10
3.602514246368692
 20
60.22711039761562
 30
0.0
 10
3.481401739083701
 20
60.54689116431582
 30
0.0
 10
3.438766464181064
 20
60.88491596805831
 30
0.0
 10
3.435187733883289
 20
61.11107791260908
 30
0.0
 10
3.438556999999996
 20
61.24251878930706
 30
0.0
  0
SPLINE
  5
E6
330
1F
100
AcDbEntity
  8
DEFAULT
100
AcDbSpline
210
0.0
220
0.0
230
1.0
 70
     8
 71
     3
 72
     9
 73
     5
 74
     0
 42
0.0000000001
 43
0.0000000001
 40
0.0
 40
0.0
 40
0.0
 40
0.0
 40
1.0
 40
2.0
 40
2.0
 40
2.0
 40
2.0
 10
16.177395
 20
2.791983000000002
 30
0.0
 10
15.69084099350921
 20
3.15441940343085
 30
0.0
 10
14.66067779920009
 20
3.810950054106343
 30
0.0
 10
13.49289392388918
 20
4.189124557873939
 30
0.0
 10
12.890719
 20
4.272122999999993
 30
0.0
  0
SPLINE
  5
E7
330
1F
100
AcDbEntity
  8
DEFAULT
100
AcDbSpline
210
0.0
220
0.0
230
1.0
 70
     8
 71
     3
 72
     9
 73
     5
 74
     0
 42
0.0000000001
 43
0.0000000001
 40
0.0
 40
0.0
 40
0.0
 40
0.0
 40
1.0
 40
2.0
 40
2.0
 40
2.0
 40
2.0
 10
15.22305368639
 20
1.984682149479994
 30
0.0
 10
14.7524017051815
 20
2.140017533255858
 30
0.0
 10
13.78681805546903
 20
2.378813557081088
 30
0.0
 10
12.79448446131845
 20
2.452366797159698
 30
0.0
 10
12.298857836576
 20
2.444803113730003
 30
0.0
  0
SPLINE
  5
E8
330
1F
100
AcDbEntity
  8
DEFAULT
100
AcDbSpline
210
0.0
220
0.0
230
1.0
 70
    24
 71
     2
 72
     6
 73
     3
 74
     0
 42
0.0000000001
 43
0.0000000001
 40
0.0
 40
0.0
 40
0.0
 40
1.0
 40
1.0
 40
1.0
 10
21.34468700000001
 20
6.733362999999997
 30
0.0
 10
21.34468700000001
 20
7.036862999999997
 30
0.0
 10
21.34468700000001
 20
7.340362999999996
 30
0.0
  0
SPLINE
  5
E9
330
1F
100
AcDbEntity
  8
DEFAULT
100
AcDbSpline
210
0.0
220
0.0
230
1.0
 70
    24
 71
     2
 72
     6
 73
     3
 74
     0
 42
0.0000000001
 43
0.0000000001
 40
0.0
 40
0.0
 40
0.0
 40
1.0
 40
1.0
 40
1.0
 10
21.294639
 20
6.683363
 30
0.0
 10
20.55625350000001
 20
6.683363
 30
0.0
 10
19.81786800000002
 20
6.683363
 30
0.0
  0
ARC
  5
EA
330
1F
100
AcDbEntity
  8
DEFAULT
100
AcDbCircle
 10
21.294687
 20
6.733362999999997
 30
0.0
 40
0.0499999999999986
100
AcDbArc
 50
270.0
 51
0.0
  0
ARC
  5
EB
330
1F
100
AcDbEntity
  8
DEFAULT
100
AcDbCircle
 10
1.220472999999998
 20
44.18200028930706
 30
0.0
 40
0.0590552853089243
100
AcDbArc
 50
0.0
 51
40.32221540193868
  0
SPLINE
  5
EC
330
1F
100
AcDbEntity
  8
DEFAULT
100
AcDbSpline
210
0.0
220
0.0
230
1.0
 70
    24
 71
     2
 72
     6
 73
     3
 74
     0
 42
0.0000000001
 43
0.0000000001
 40
0.0
 40
0.0
 40
0.0
 40
1.0
 40
1.0
 40
1.0
 10
24.49643100000002
 20
1.279527999999999
 30
0.0
 10
24.23295350000001
 20
1.279527999999999
 30
0.0
 10
23.969476
 20
1.279527999999999
 30
0.0
  0
SPLINE
  5
ED
330
1F
100
AcDbEntity
  8
DEFAULT
100
AcDbSpline
210
0.0
220
0.0
230
1.0
 70
     8
 71
     3
 72
    11
 73
     7
 74
     0
 42
0.0000000001
 43
0.0000000001
 40
0.0
 40
0.0
 40
0.0
 40
0.0
 40
0.2854440274548
 40
0.5521646952023
 40
0.7914535382191
 40
1.0
 40
1.0
 40
1.0
 40
1.0
 10
11.49798661660399
 20
5.358363283789998
 30
0.0
 10
11.504178131908
 20
5.392266193469993
 30
0.0
 10
11.515671372416
 20
5.457939185260003
 30
0.0
 10
11.52985998846501
 20
5.552451815399991
 30
0.0
 10
11.539745879427
 20
5.638176398840002
 30
0.0
 10
11.54359927431299
 20
5.692135133459999
 30
0.0
 10
11.54467272982598
 20
5.71729150022999
 30
0.0
  0
ARC
  5
EE
330
1F
100
AcDbEntity
  8
DEFAULT
100
AcDbCircle
 10
24.37388
 20
1.441068000000001
 30
0.0
 40
0.015625
100
AcDbArc
 50
90.0
 51
180.0
  0
SPLINE
  5
EF
330
1F
100
AcDbEntity
  8
DEFAULT
100
AcDbSpline
210
0.0
220
0.0
230
1.0
 70
    24
 71
     2
 72
     6
 73
     3
 74
     0
 42
0.0000000001
 43
0.0000000001
 40
0.0
 40
0.0
 40
0.0
 40
1.0
 40
1.0
 40
1.0
 10
25.43109
 20
1.441068000000001
 30
0.0
 10
25.43109
 20
0.9929814999999991
 30
0.0
 10
25.43109
 20
0.5448949999999968
 30
0.0
  0
SPLINE
  5
F0
330
1F
100
AcDbEntity
  8
DEFAULT
100
AcDbSpline
210
0.0
220
0.0
230
1.0
 70
     8
 71
     3
 72
     9
 73
     5
 74
     0
 42
0.0000000001
 43
0.0000000001
 40
-2.0
 40
-2.0
 40
-2.0
 40
-2.0
 40
-1.0
 40
0.0
 40
0.0
 40
0.0
 40
0.0
 10
30.7275909415054
 20
34.97417496679
 30
0.0
 10
31.02178260787205
 20
35.03900556649569
 30
0.0
 10
31.62493773423513
 20
35.0764109883748
 30
0.0
 10
32.22696496665715
 20
35.03245809179866
 30
0.0
 10
32.5205390647854
 20
34.96291134699
 30
0.0
  0
LINE
  5
F1
330
1F
100
AcDbEntity
  8
DEFAULT
100
AcDbLine
 10
32.5205390647854
 20
34.96291134699
 30
0.0
 11
32.52222687016453
 21
34.96251151140933
 31
0.0
  0
LINE
  5
F2
330
1F
100
AcDbEntity
  8
DEFAULT
100
AcDbLine
 10
32.52222687016453
 20
34.96251151140933
 30
0.0
 11
32.5396017390954
 21
34.959547
 31
0.0
  0
SPLINE
  5
F3
330
1F
100
AcDbEntity
  8
DEFAULT
100
AcDbSpline
210
0.0
220
0.0
230
1.0
 70
     8
 71
     3
 72
     9
 73
     5
 74
     0
 42
0.0000000001
 43
0.0000000001
 40
-2.0
 40
-2.0
 40
-2.0
 40
-2.0
 40
-0.9999429395690957
 40
0.0
 40
0.0
 40
0.0
 40
0.0
 10
32.5396017390954
 20
34.959547
 30
0.0
 10
32.83849027284604
 20
34.90855044446066
 30
0.0
 10
33.4178139324441
 20
34.72910108572719
 30
0.0
 10
33.97890536236956
 20
34.50137913521837
 30
0.0
 10
34.25663473909539
 20
34.38125650000001
 30
0.0
  0
SPLINE
  5
F4
330
1F
100
AcDbEntity
  8
DEFAULT
100
AcDbSpline
210
0.0
220
0.0
230
1.0
 70
     8
 71
     3
 72
     9
 73
     5
 74
     0
 42
0.0000000001
 43
0.0000000001
 40
-2.0
 40
-2.0
 40
-2.0
 40
-2.0
 40
-1.00005893379362
 40
0.0
 40
0.0
 40
0.0
 40
0.0
 10
34.25663473909539
 20
34.38125650000001
 30
0.0
 10
34.52635624324181
 20
34.26234515516887
 30
0.0
 10
35.02704328214021
 20
33.91141289432228
 30
0.0
 10
35.26551660878856
 20
33.33915928415713
 30
0.0
 10
35.27827523909539
 20
33.04264000000001
 30
0.0
  0
SPLINE
  5
F5
330
1F
100
AcDbEntity
  8
DEFAULT
100
AcDbSpline
210
0.0
220
0.0
230
1.0
 70
     8
 71
     3
 72
     9
 73
     5
 74
     0
 42
0.0000000001
 43
0.0000000001
 40
-2.0
 40
-2.0
 40
-2.0
 40
-2.0
 40
-0.9999994986387554
 40
0.0
 40
0.0
 40
0.0
 40
0.0
 10
35.27827523909539
 20
33.04264000000001
 30
0.0
 10
35.29972134942348
 20
32.6179052338429
 30
0.0
 10
35.34238606617244
 20
31.76816811034918
 30
0.0
 10
35.42522585578944
 20
30.92140664769508
 30
0.0
 10
35.45779973909539
 20
30.497376
 30
0.0
  0
SPLINE
  5
F6
330
1F
100
AcDbEntity
  8
DEFAULT
100
AcDbSpline
210
0.0
220
0.0
230
1.0
 70
     8
 71
     3
 72
     9
 73
     5
 74
     0
 42
0.0000000001
 43
0.0000000001
 40
-2.0
 40
-2.0
 40
-2.0
 40
-2.0
 40
-1.0
 40
0.0
 40
0.0
 40
0.0
 40
0.0
 10
35.45779973909539
 20
30.497376
 30
0.0
 10
35.46574424827615
 20
30.33515483963772
 30
0.0
 10
35.47485716570272
 20
29.99371174762912
 30
0.0
 10
35.28096815987574
 20
29.70845430783282
 30
0.0
 10
35.15214473909539
 20
29.60627599999999
 30
0.0
  0
LINE
  5
F7
330
1F
100
AcDbEntity
  8
DEFAULT
100
AcDbLine
 10
35.15214473909539
 20
29.60627599999999
 30
0.0
 11
35.10700262723755
 21
29.57047082906371
 31
0.0
  0
LINE
  5
F8
330
1F
100
AcDbEntity
  8
DEFAULT
100
AcDbLine
 10
35.10700262723755
 20
29.57047082906371
 30
0.0
 11
35.08455696334539
 21
29.54867923043
 31
0.0
  0
SPLINE
  5
F9
330
1F
100
AcDbEntity
  8
DEFAULT
100
AcDbSpline
210
0.0
220
0.0
230
1.0
 70
     8
 71
     3
 72
     9
 73
     5
 74
     0
 42
0.0000000001
 43
0.0000000001
 40
-2.0
 40
-2.0
 40
-2.0
 40
-2.0
 40
-1.0
 40
0.0
 40
0.0
 40
0.0
 40
0.0
 10
35.08455696334539
 20
29.54867923043
 30
0.0
 10
34.87661043231843
 20
29.34679224846404
 30
0.0
 10
34.32876160257563
 20
29.11415325540327
 30
0.0
 10
33.7480392376185
 20
29.11494597348519
 30
0.0
 10
33.4611986720754
 20
29.12793516321
 30
0.0
  0
SPLINE
  5
FA
330
1F
100
AcDbEntity
  8
DEFAULT
100
AcDbSpline
210
0.0
220
0.0
230
1.0
 70
    24
 71
     2
 72
     6
 73
     3
 74
     0
 42
0.0000000001
 43
0.0000000001
 40
0.0
 40
0.0
 40
0.0
 40
1.0
 40
1.0
 40
1.0
 10
13.07581600000002
 20
7.310362999999995
 30
0.0
 10
13.07581600000002
 20
6.334362999999996
 30
0.0
 10
13.07581600000002
 20
5.358362999999997
 30
0.0
  0
CIRCLE
  5
FB
330
1F
100
AcDbEntity
  8
DEFAULT
100
AcDbCircle
 10
0.0
 20
0.0
 30
0.0
 40
1.0625
  0
ARC
  5
FC
330
1F
100
AcDbEntity
  8
DEFAULT
100
AcDbCircle
 10
0.5285984793798093
 20
2.696816994570284
 30
0.0
 40
0.0963546383563139
100
AcDbArc
 50
103.5380123368112
 51
135.5140511771058
  0
ARC
  5
FD
330
1F
100
AcDbEntity
  8
DEFAULT
100
AcDbCircle
 10
0.5020572828913714
 20
2.722886164209044
 30
0.0
 40
0.0591519944086942
100
AcDbArc
 50
135.5140511771042
 51
177.4470017652904
  0
LINE
  5
FE
330
1F
100
AcDbEntity
  8
DEFAULT
100
AcDbLine
 10
0.4429639999999893
 20
2.725521000000001
 30
0.0
 11
0.3944499999999778
 21
1.637463999999994
 31
0.0
  0
SPLINE
  5
FF
330
1F
100
AcDbEntity
  8
DEFAULT
100
AcDbSpline
210
0.0
220
0.0
230
1.0
 70
    24
 71
     2
 72
     6
 73
     3
 74
     0
 42
0.0000000001
 43
0.0000000001
 40
0.0
 40
0.0
 40
0.0
 40
1.0
 40
1.0
 40
1.0
 10
24.49643100000002
 20
1.279527999999999
 30
0.0
 10
24.49643100000002
 20
1.222747499999997
 30
0.0
 10
24.49643100000002
 20
1.165966999999995
 30
0.0
  0
ARC
  5
100
330
1F
100
AcDbEntity
  8
DEFAULT
100
AcDbCircle
 10
25.19487099999999
 20
0.5448949999999968
 30
0.0
 40
0.2362201456744931
100
AcDbArc
 50
283.2478113805403
 51
359.9999999999999
  0
SPLINE
  5
101
330
1F
100
AcDbEntity
  8
DEFAULT
100
AcDbSpline
210
0.0
220
0.0
230
1.0
 70
    24
 71
     2
 72
     6
 73
     3
 74
     0
 42
0.0000000001
 43
0.0000000001
 40
0.0
 40
0.0
 40
0.0
 40
1.0
 40
1.0
 40
1.0
 10
16.17760500000001
 20
2.791823999999991
 30
0.0
 10
16.17750000000001
 20
2.791903999999995
 30
0.0
 10
16.177395
 20
2.791983999999999
 30
0.0
  0
SPLINE
  5
102
330
1F
100
AcDbEntity
  8
DEFAULT
100
AcDbSpline
210
0.0
220
0.0
230
1.0
 70
     8
 71
     3
 72
    10
 73
     6
 74
     0
 42
0.0000000001
 43
0.0000000001
 40
0.0
 40
0.0
 40
0.0
 40
0.0
 40
0.3410481301419
 40
0.6765784100659
 40
1.0
 40
1.0
 40
1.0
 40
1.0
 10
2.319672729826102
 20
7.310363253039995
 30
0.0
 10
2.303225608548281
 20
7.315015201430001
 30
0.0
 10
2.270587753929
 20
7.324257329689999
 30
0.0
 10
2.2218678858045
 20
7.335914258979997
 30
0.0
 10
2.188912303655883
 20
7.340363253039996
 30
0.0
 10
2.172703345259094
 20
7.340363253039996
 30
0.0
  0
SPLINE
  5
103
330
1F
100
AcDbEntity
  8
DEFAULT
100
AcDbSpline
210
0.0
220
0.0
230
1.0
 70
    24
 71
     2
 72
     6
 73
     3
 74
     0
 42
0.0000000001
 43
0.0000000001
 40
0.0
 40
0.0
 40
0.0
 40
1.0
 40
1.0
 40
1.0
 10
1.944672999999995
 20
6.733362999999997
 30
0.0
 10
1.944672999999995
 20
7.036862999999997
 30
0.0
 10
1.944672999999995
 20
7.340362999999996
 30
0.0
  0
CIRCLE
  5
104
330
1F
100
AcDbEntity
  8
DEFAULT
100
AcDbCircle
 10
23.969476
 20
0.0
 30
0.0
 40
1.279528000000001
  0
ARC
  5
105
330
1F
100
AcDbEntity
  8
DEFAULT
100
AcDbCircle
 10
24.894673
 20
52.42291028930707
 30
0.0
 40
0.536416906649928
100
AcDbArc
 50
315.7533335976719
 51
44.31283467173384
  0
POLYLINE
  5
106
330
1F
100
AcDbEntity
  8
DEFAULT
100
AcDb2dPolyline
 66
     1
 10
0.0
 20
0.0
 30
0.0
  0
VERTEX
  5
108
330
106
100
AcDbEntity
  8
DEFAULT
100
AcDbVertex
100
AcDb2dVertex
 10
10.64602299864917
 20
4.308404044493145
 30
0.0
  0
VERTEX
  5
109
330
106
100
AcDbEntity
  8
DEFAULT
100
AcDbVertex
100
AcDb2dVertex
 10
12.64070399334268
 20
4.308483780456541
 30
0.0
  0
SEQEND
  5
107
330
106
100
AcDbEntity
  8
DEFAULT
  0
SPLINE
  5
10A
330
1F
100
AcDbEntity
  8
DEFAULT
100
AcDbSpline
210
0.0
220
0.0
230
1.0
 70
     8
 71
     3
 72
    10
 73
     6
 74
     0
 42
0.0000000001
 43
0.0000000001
 40
-1.0
 40
-1.0
 40
-1.0
 40
-1.0
 40
-0.7651359920157
 40
-0.4197938519476
 40
0.0
 40
0.0
 40
0.0
 40
0.0
 10
11.06877335018201
 20
3.923283865949998
 30
0.0
 10
11.07752111503098
 20
3.923721259849998
 30
0.0
 10
11.09851363456901
 20
3.936317482669992
 30
0.0
 10
11.11325802780798
 20
3.971846305079993
 30
0.0
 10
11.11626886191701
 20
4.000667157530003
 30
0.0
 10
11.11555775761949
 20
4.016346911900001
 30
0.0
  0
SPLINE
  5
10B
330
1F
100
AcDbEntity
  8
DEFAULT
100
AcDbSpline
210
0.0
220
0.0
230
1.0
 70
    24
 71
     2
 72
     6
 73
     3
 74
     0
 42
0.0000000001
 43
0.0000000001
 40
0.0
 40
0.0
 40
0.0
 40
1.0
 40
1.0
 40
1.0
 10
11.11555775761949
 20
4.016346911900001
 30
0.0
 10
11.11747123866599
 20
4.125824953195
 30
0.0
 10
11.11938471971249
 20
4.235302994489999
 30
0.0
  0
SPLINE
  5
10C
330
1F
100
AcDbEntity
  8
DEFAULT
100
AcDbSpline
210
0.0
220
0.0
230
1.0
 70
     8
 71
     3
 72
    10
 73
     6
 74
     0
 42
0.0000000001
 43
0.0000000001
 40
0.0
 40
0.0
 40
0.0
 40
0.0
 40
0.4067300435643714
 40
0.7466630140210986
 40
1.0
 40
1.0
 40
1.0
 40
1.0
 10
11.11938471971249
 20
4.235302994489999
 30
0.0
 10
11.11894741925094
 20
4.24504808210493
 30
0.0
 10
11.11564589409026
 20
4.262906743560308
 30
0.0
 10
11.10468501485401
 20
4.284770181919995
 30
0.0
 10
11.09116350455299
 20
4.29294843564
 30
0.0
 10
11.08509152564799
 20
4.293168346969992
 30
0.0
  0
SPLINE
  5
10D
330
1F
100
AcDbEntity
  8
DEFAULT
100
AcDbSpline
210
0.0
220
0.0
230
1.0
 70
     8
 71
     3
 72
    19
 73
    15
 74
     0
 42
0.0000000001
 43
0.0000000001
 40
0.0
 40
0.0
 40
0.0
 40
0.0
 40
1.0
 40
2.0
 40
3.0
 40
4.0
 40
5.0
 40
6.0
 40
7.0
 40
8.0
 40
9.0
 40
10.0
 40
11.0
 40
12.0
 40
12.0
 40
12.0
 40
12.0
 10
16.14535871896
 20
2.802828593320001
 30
0.0
 10
16.15539058906468
 20
2.781971903701063
 30
0.0
 10
16.10253045761776
 20
2.777805292678735
 30
0.0
 10
16.04935772810582
 20
2.775711662906176
 30
0.0
 10
15.98908095139045
 20
2.7747076247107
 30
0.0
 10
15.93069854690729
 20
2.773935708666855
 30
0.0
 10
15.87180333123304
 20
2.773604088329989
 30
0.0
 10
15.81304317329152
 20
2.77363785246682
 30
0.0
 10
15.75424961049377
 20
2.7740503774762
 30
0.0
 10
15.69546282224916
 20
2.774791845073636
 30
0.0
 10
15.63670358844213
 20
2.775984465199912
 30
0.0
 10
15.57786074136577
 20
2.777139962624247
 30
0.0
 10
15.51955636988693
 20
2.784460552364976
 30
0.0
 10
15.48103716437971
 20
2.793346281623755
 30
0.0
 10
15.46377506983002
 20
2.802828593329991
 30
0.0
  0
SPLINE
  5
10E
330
1F
100
AcDbEntity
  8
DEFAULT
100
AcDbSpline
210
0.0
220
0.0
230
1.0
 70
     8
 71
     3
 72
     9
 73
     5
 74
     0
 42
0.0000000001
 43
0.0000000001
 40
0.0
 40
0.0
 40
0.0
 40
0.0
 40
1.0
 40
2.0
 40
2.0
 40
2.0
 40
2.0
 10
12.29974
 20
2.44480999999999
 30
0.0
 10
12.28290840277013
 20
2.444689588788378
 30
0.0
 10
12.25099601404257
 20
2.431828037121946
 30
0.0
 10
12.22699576650596
 20
2.40809867929714
 30
0.0
 10
12.21668320745799
 20
2.395019415479993
 30
0.0
  0
SPLINE
  5
10F
330
1F
100
AcDbEntity
  8
DEFAULT
100
AcDbSpline
210
0.0
220
0.0
230
1.0
 70
     8
 71
     3
 72
     9
 73
     5
 74
     0
 42
0.0000000001
 43
0.0000000001
 40
0.0
 40
0.0
 40
0.0
 40
0.0
 40
1.0
 40
2.0
 40
2.0
 40
2.0
 40
2.0
 10
12.21668320745799
 20
2.395019415479993
 30
0.0
 10
12.15799745804917
 20
2.31704821536168
 30
0.0
 10
12.11167025673556
 20
2.128369349103266
 30
0.0
 10
12.05945415262396
 20
1.944326479944806
 30
0.0
 10
12.04210702713949
 20
1.849809978704997
 30
0.0
  0
SPLINE
  5
110
330
1F
100
AcDbEntity
  8
DEFAULT
100
AcDbSpline
210
0.0
220
0.0
230
1.0
 70
     8
 71
     3
 72
     9
 73
     5
 74
     0
 42
0.0000000001
 43
0.0000000001
 40
0.0
 40
0.0
 40
0.0
 40
0.0
 40
1.0
 40
2.0
 40
2.0
 40
2.0
 40
2.0
 10
12.04210702713949
 20
1.849809978704997
 30
0.0
 10
12.04093361390643
 20
1.844767668119076
 30
0.0
 10
12.03795826881473
 20
1.835283664050067
 30
0.0
 10
12.03252057381731
 20
1.825587700925837
 30
0.0
 10
12.02708287715201
 20
1.824803113729999
 30
0.0
  0
SPLINE
  5
111
330
1F
100
AcDbEntity
  8
DEFAULT
100
AcDbSpline
210
0.0
220
0.0
230
1.0
 70
    24
 71
     2
 72
     6
 73
     3
 74
     0
 42
0.0000000001
 43
0.0000000001
 40
0.0
 40
0.0
 40
0.0
 40
1.0
 40
1.0
 40
1.0
 10
16.054108
 20
0.3149609999999967
 30
0.0
 10
16.07379349999999
 20
0.3149609999999967
 30
0.0
 10
16.09347899999999
 20
0.3149609999999967
 30
0.0
  0
SPLINE
  5
112
330
1F
100
AcDbEntity
  8
DEFAULT
100
AcDbSpline
210
0.0
220
0.0
230
1.0
 70
     8
 71
     3
 72
    14
 73
    10
 74
     0
 42
0.0000000001
 43
0.0000000001
 40
0.0
 40
0.0
 40
0.0
 40
0.0
 40
0.06772835396254
 40
0.1354567079251
 40
0.2709134158502
 40
0.4063701237752
 40
0.5418268317003
 40
0.8127402475505
 40
1.0
 40
1.0
 40
1.0
 40
1.0
 10
44.39900100926938
 20
5.05836325304
 30
0.0
 10
44.37764684260237
 20
5.05836325304
 30
0.0
 10
44.3414802040344
 20
5.051821558269992
 30
0.0
 10
44.28506311377639
 20
5.022821981859991
 30
0.0
 10
44.2348618572944
 20
4.966252405009996
 30
0.0
 10
44.19317074959939
 20
4.879818512710003
 30
0.0
 10
44.15461827230639
 20
4.747537656669991
 30
0.0
 10
44.1324187702774
 20
4.58257077159999
 30
0.0
 10
44.1259912051374
 20
4.444540282969996
 30
0.0
 10
44.12478985123137
 20
4.386700249779992
 30
0.0
  0
SPLINE
  5
113
330
1F
100
AcDbEntity
  8
DEFAULT
100
AcDbSpline
210
0.0
220
0.0
230
1.0
 70
     8
 71
     3
 72
     9
 73
     5
 74
     0
 42
0.0000000001
 43
0.0000000001
 40
-2.0
 40
-2.0
 40
-2.0
 40
-2.0
 40
-1.0
 40
0.0
 40
0.0
 40
0.0
 40
0.0
 10
41.34819329020839
 20
2.442549823210001
 30
0.0
 10
40.00197105632377
 20
2.454920364761605
 30
0.0
 10
37.30860037224578
 20
2.37872904503017
 30
0.0
 10
34.59991278465792
 20
2.137066928192624
 30
0.0
 10
33.26756082249589
 20
1.94313179884
 30
0.0
  0
SPLINE
  5
114
330
1F
100
AcDbEntity
  8
DEFAULT
100
AcDbSpline
210
0.0
220
0.0
230
1.0
 70
    12
 71
     3
 72
    22
 73
    18
 74
     0
 42
0.0000000001
 43
0.0000000001
 40
-9.762480602687548
 40
-9.762480602687548
 40
-9.762480602687548
 40
-9.762480602687548
 40
-8.762480221164985
 40
-7.762480602687548
 40
-7.762480602687548
 40
-7.762480602687548
 40
-6.762483223644307
 40
-5.762480602687548
 40
-5.762480602687548
 40
-5.762480602687548
 40
-4.71238898038469
 40
-4.71238898038469
 40
-4.71238898038469
 40
-3.904808554698578
 40
-3.904808554698578
 40
-3.904808554698578
 40
-3.097228129012466
 40
-3.097228129012466
 40
-3.097228129012466
 40
-3.097228129012466
 10
33.26756082249589
 20
1.94313179884
 30
0.0
 41
1.0
 10
33.17620750214412
 20
1.929834548186747
 30
0.0
 41
1.0
 10
32.98203411898929
 20
1.841701474365493
 30
0.0
 41
1.0
 10
32.86677525889776
 20
1.693038631826994
 30
0.0
 41
1.0
 10
32.82409023909538
 20
1.611790499999998
 30
0.0
 41
1.0
 10
32.81810154286107
 20
1.601039310068984
 30
0.0
 41
1.0
 10
32.80103817076225
 20
1.582013823979253
 30
0.0
 41
1.0
 10
32.77635377147756
 20
1.575069698283471
 30
0.0
 41
1.0
 10
32.7640397390954
 20
1.574803000000003
 30
0.0
 41
1.0
 10
32.44560690576206
 20
1.574802996943049
 30
0.0
 41
1.0
 10
32.12717407242873
 20
1.574802993886109
 30
0.0
 41
1.0
 10
31.8087412390954
 20
1.57480299082917
 30
0.0
 41
1.0
 10
31.79213163126573
 20
1.574798421360472
 30
0.0
 41
0.9463675853276875
 10
31.77685644783484
 20
1.581321293756043
 30
0.0
 41
0.9463675853276875
 10
31.76537342371869
 20
1.593322095824348
 30
0.0
 41
1.0
 10
31.75389039960247
 20
1.605322897892655
 30
0.0
 41
0.9463675853276875
 10
31.74804712173425
 20
1.620870733654899
 30
0.0
 41
0.9463675853276875
 10
31.74878375741902
 20
1.637463999186551
 30
0.0
 41
1.0
  0
SPLINE
  5
115
330
1F
100
AcDbEntity
  8
DEFAULT
100
AcDbSpline
210
0.0
220
0.0
230
1.0
 70
    24
 71
     2
 72
     6
 73
     3
 74
     0
 42
0.0000000001
 43
0.0000000001
 40
0.0
 40
0.0
 40
0.0
 40
1.0
 40
1.0
 40
1.0
 10
55.96356773909538
 20
1.574803000000003
 30
0.0
 10
55.96356773909538
 20
1.515748000000002
 30
0.0
 10
55.96356773909538
 20
1.456693000000001
 30
0.0
  0
SPLINE
  5
116
330
1F
100
AcDbEntity
  8
DEFAULT
100
AcDbSpline
210
0.0
220
0.0
230
1.0
 70
    24
 71
     2
 72
     6
 73
     3
 74
     0
 42
0.0000000001
 43
0.0000000001
 40
0.0
 40
0.0
 40
0.0
 40
1.0
 40
1.0
 40
1.0
 10
42.62400073909539
 20
6.733362999999997
 30
0.0
 10
42.62400073909539
 20
6.973362999999999
 30
0.0
 10
42.62400073909539
 20
7.213363000000001
 30
0.0
  0
SPLINE
  5
117
330
1F
100
AcDbEntity
  8
DEFAULT
100
AcDbSpline
210
0.0
220
0.0
230
1.0
 70
    24
 71
     2
 72
     6
 73
     3
 74
     0
 42
0.0000000001
 43
0.0000000001
 40
0.0
 40
0.0
 40
0.0
 40
1.0
 40
1.0
 40
1.0
 10
33.6740007390954
 20
7.310362999999995
 30
0.0
 10
33.6740007390954
 20
7.261862999999998
 30
0.0
 10
33.6740007390954
 20
7.213363000000001
 30
0.0
  0
SPLINE
  5
118
330
1F
100
AcDbEntity
  8
DEFAULT
100
AcDbSpline
210
0.0
220
0.0
230
1.0
 70
    24
 71
     2
 72
     6
 73
     3
 74
     0
 42
0.0000000001
 43
0.0000000001
 40
0.0
 40
0.0
 40
0.0
 40
1.0
 40
1.0
 40
1.0
 10
56.53443373909541
 20
1.574803000000003
 30
0.0
 10
56.53443373909541
 20
1.515748000000002
 30
0.0
 10
56.53443373909541
 20
1.456693000000001
 30
0.0
  0
ARC
  5
119
330
1F
100
AcDbEntity
  8
DEFAULT
100
AcDbCircle
 10
16.03442399999999
 20
39.36865628930705
 30
0.0
 40
0.0590545805575153
100
AcDbArc
 50
0.0
 51
40.32210350398974
  0
SPLINE
  5
11A
330
1F
100
AcDbEntity
  8
DEFAULT
100
AcDbSpline
210
0.0
220
0.0
230
1.0
 70
    24
 71
     2
 72
     6
 73
     3
 74
     0
 42
0.0000000001
 43
0.0000000001
 40
0.0
 40
0.0
 40
0.0
 40
1.0
 40
1.0
 40
1.0
 10
14.81395100000002
 20
64.66503928930707
 30
0.0
 10
14.81395100000002
 20
65.02440928930706
 30
0.0
 10
14.81395100000002
 20
65.38377928930704
 30
0.0
  0
SPLINE
  5
11B
330
1F
100
AcDbEntity
  8
DEFAULT
100
AcDbSpline
210
0.0
220
0.0
230
1.0
 70
    24
 71
     2
 72
     6
 73
     3
 74
     0
 42
0.0000000001
 43
0.0000000001
 40
0.0
 40
0.0
 40
0.0
 40
1.0
 40
1.0
 40
1.0
 10
15.340906
 20
39.46204128930707
 30
0.0
 10
14.437665
 20
39.46204128930707
 30
0.0
 10
13.53442399999999
 20
39.46204128930707
 30
0.0
  0
ARC
  5
11C
330
1F
100
AcDbEntity
  8
DEFAULT
100
AcDbCircle
 10
16.03442399999999
 20
40.27416728930706
 30
0.0
 40
0.0590545805575153
100
AcDbArc
 50
319.6778964960102
 51
0.0
  0
SPLINE
  5
11D
330
1F
100
AcDbEntity
  8
DEFAULT
100
AcDbSpline
210
0.0
220
0.0
230
1.0
 70
    24
 71
     2
 72
     6
 73
     3
 74
     0
 42
0.0000000001
 43
0.0000000001
 40
0.0
 40
0.0
 40
0.0
 40
1.0
 40
1.0
 40
1.0
 10
15.15232300000001
 20
40.18078228930706
 30
0.0
 10
14.3433735
 20
40.18078228930706
 30
0.0
 10
13.53442399999999
 20
40.18078228930706
 30
0.0
  0
CIRCLE
  5
11E
330
1F
100
AcDbEntity
  8
DEFAULT
100
AcDbCircle
 10
11.64467299999999
 20
52.42291028930707
 30
0.0
 40
6.908685000000002
  0
ARC
  5
11F
330
1F
100
AcDbEntity
  8
DEFAULT
100
AcDbCircle
 10
-1.043306000000001
 20
60.95910628930706
 30
0.0
 40
0.2362205058949281
100
AcDbArc
 50
94.66044957064801
 51
180.0
  0
ARC
  5
120
330
1F
100
AcDbEntity
  8
DEFAULT
100
AcDbCircle
 10
15.73914799999999
 20
65.02440928930706
 30
0.0
 40
0.536417446120509
100
AcDbArc
 50
27.76344070952954
 51
116.3046206489974
  0
SPLINE
  5
121
330
1F
100
AcDbEntity
  8
DEFAULT
100
AcDbSpline
210
0.0
220
0.0
230
1.0
 70
    24
 71
     2
 72
     6
 73
     3
 74
     0
 42
0.0000000001
 43
0.0000000001
 40
0.0
 40
0.0
 40
0.0
 40
1.0
 40
1.0
 40
1.0
 10
13.53442399999999
 20
65.38377928930704
 30
0.0
 10
13.53442399999999
 20
65.02440928930706
 30
0.0
 10
13.53442399999999
 20
64.66503928930707
 30
0.0
  0
SPLINE
  5
122
330
1F
100
AcDbEntity
  8
DEFAULT
100
AcDbSpline
210
0.0
220
0.0
230
1.0
 70
    24
 71
     2
 72
     6
 73
     3
 74
     0
 42
0.0000000001
 43
0.0000000001
 40
0.0
 40
0.0
 40
0.0
 40
1.0
 40
1.0
 40
1.0
 10
12.40551600000002
 20
18.59790399999999
 30
0.0
 10
11.64467250000001
 20
18.59790399999999
 30
0.0
 10
10.883829
 20
18.59790399999999
 30
0.0
  0
SPLINE
  5
123
330
1F
100
AcDbEntity
  8
DEFAULT
100
AcDbSpline
210
0.0
220
0.0
230
1.0
 70
     8
 71
     3
 72
    10
 73
     6
 74
     0
 42
0.0000000001
 43
0.0000000001
 40
0.0
 40
0.0
 40
0.0
 40
0.0
 40
0.3388354985206
 40
0.6721992487632
 40
1.0
 40
1.0
 40
1.0
 40
1.0
 10
11.791358847331
 20
5.358363273839998
 30
0.0
 10
11.79135885117299
 20
5.349757269370002
 30
0.0
 10
11.786945573027
 20
5.332366467059998
 30
0.0
 10
11.76868072027299
 20
5.313159951139994
 30
0.0
 10
11.75156027714699
 20
5.308363245379994
 30
0.0
 10
11.74323454166899
 20
5.30836325304
 30
0.0
  0
CIRCLE
  5
124
330
1F
100
AcDbEntity
  8
DEFAULT
100
AcDbCircle
 10
14.81395100000002
 20
0.0
 30
0.0
 40
1.279528000000001
  0
SPLINE
  5
125
330
1F
100
AcDbEntity
  8
DEFAULT
100
AcDbSpline
210
0.0
220
0.0
230
1.0
 70
     8
 71
     3
 72
    13
 73
     9
 74
     0
 42
0.0000000001
 43
0.0000000001
 40
0.0
 40
0.0
 40
0.0
 40
0.0
 40
0.1983372897061
 40
0.382736114032
 40
0.5542088850058
 40
0.7136951690739
 40
0.8620461467553
 40
1.0
 40
1.0
 40
1.0
 40
1.0
 10
2.484345089720399
 20
7.18336325304
 30
0.0
 10
2.47956190917359
 20
7.18336325304
 30
0.0
 10
2.470331009811595
 20
7.183506443070002
 30
0.0
 10
2.456977760993887
 20
7.184122213699993
 30
0.0
 10
2.444583365139103
 20
7.185068733089992
 30
0.0
 10
2.433088251570588
 20
7.18630275052999
 30
0.0
 10
2.422439642435201
 20
7.187795552379995
 30
0.0
 10
2.415637876300487
 20
7.188994124969994
 30
0.0
 10
2.412373941360592
 20
7.189638580579995
 30
0.0
  0
SPLINE
  5
126
330
1F
100
AcDbEntity
  8
DEFAULT
100
AcDbSpline
210
0.0
220
0.0
230
1.0
 70
    24
 71
     2
 72
     6
 73
     3
 74
     0
 42
0.0000000001
 43
0.0000000001
 40
0.0
 40
0.0
 40
0.0
 40
1.0
 40
1.0
 40
1.0
 10
1.461613999999997
 20
1.441068000000001
 30
0.0
 10
1.461613999999997
 20
0.9929814999999991
 30
0.0
 10
1.461613999999997
 20
0.5448949999999968
 30
0.0
  0
ARC
  5
127
330
1F
100
AcDbEntity
  8
DEFAULT
100
AcDbCircle
 10
0.0
 20
0.0
 30
0.0
 40
1.279527939310224
100
AcDbArc
 50
15.76206956729271
 51
18.57560333516714
  0
SPLINE
  5
128
330
1F
100
AcDbEntity
  8
DEFAULT
100
AcDbSpline
210
0.0
220
0.0
230
1.0
 70
    24
 71
     2
 72
     6
 73
     3
 74
     0
 42
0.0000000001
 43
0.0000000001
 40
0.0
 40
0.0
 40
0.0
 40
1.0
 40
1.0
 40
1.0
 10
0.4044039999999995
 20
1.456693000000001
 30
0.0
 10
0.9251964999999984
 20
1.456693000000001
 30
0.0
 10
1.445988999999997
 20
1.456693000000001
 30
0.0
  0
ARC
  5
129
330
1F
100
AcDbEntity
  8
DEFAULT
100
AcDbCircle
 10
21.24468700000001
 20
7.640362999999994
 30
0.0
 40
0.2999999141766412
100
AcDbArc
 50
282.0001031797967
 51
90.0
  0
ARC
  5
12A
330
1F
100
AcDbEntity
  8
DEFAULT
100
AcDbCircle
 10
13.868377
 20
5.358362999999997
 30
0.0
 40
0.0499999067448244
100
AcDbArc
 50
270.0
 51
325.1351838007682
  0
SPLINE
  5
12B
330
1F
100
AcDbEntity
  8
DEFAULT
100
AcDbSpline
210
0.0
220
0.0
230
1.0
 70
    24
 71
     2
 72
     6
 73
     3
 74
     0
 42
0.0000000001
 43
0.0000000001
 40
0.0
 40
0.0
 40
0.0
 40
1.0
 40
1.0
 40
1.0
 10
12.707714
 20
5.058363
 30
0.0
 10
12.87619349999999
 20
5.058363
 30
0.0
 10
13.04467299999997
 20
5.058363
 30
0.0
  0
SPLINE
  5
12C
330
1F
100
AcDbEntity
  8
DEFAULT
100
AcDbSpline
210
0.0
220
0.0
230
1.0
 70
    24
 71
     2
 72
     6
 73
     3
 74
     0
 42
0.0000000001
 43
0.0000000001
 40
0.0
 40
0.0
 40
0.0
 40
1.0
 40
1.0
 40
1.0
 10
13.04467299999997
 20
5.058363
 30
0.0
 10
13.04467299999997
 20
5.183363
 30
0.0
 10
13.04467299999997
 20
5.308363
 30
0.0
  0
SPLINE
  5
12D
330
1F
100
AcDbEntity
  8
DEFAULT
100
AcDbSpline
210
0.0
220
0.0
230
1.0
 70
     8
 71
     3
 72
    22
 73
    18
 74
     0
 42
0.0000000001
 43
0.0000000001
 40
0.0
 40
0.0
 40
0.0
 40
0.0
 40
0.1167500873722
 40
0.2243633665626
 40
0.3234661086496
 40
0.4146584866172
 40
0.4983865594995
 40
0.5751927987383
 40
0.6458186264644
 40
0.7102228255037
 40
0.767575789936
 40
0.8177842197205
 40
0.8615342953004
 40
0.9001349047782
 40
0.9349316304662
 40
0.9678090363997
 40
1.0
 40
1.0
 40
1.0
 40
1.0
 10
12.51310484938399
 20
4.386700184839995
 30
0.0
 10
12.51353166461099
 20
4.415597130050003
 30
0.0
 10
12.514842159503
 20
4.471124282899993
 30
0.0
 10
12.51839901228298
 20
4.551121786989995
 30
0.0
 10
12.523429519288
 20
4.624701759659999
 30
0.0
 10
12.52992204912199
 20
4.692231530320001
 30
0.0
 10
12.53789219212199
 20
4.754044583039999
 30
0.0
 10
12.54739957494398
 20
4.81048743385
 30
0.0
 10
12.55854238233501
 20
4.861751786580001
 30
0.0
 10
12.57139166195499
 20
4.907643676630002
 30
0.0
 10
12.58592094999101
 20
4.947708784859998
 30
0.0
 10
12.602029093122
 20
4.981603659089998
 30
0.0
 10
12.61971024021499
 20
5.00937153449
 30
0.0
 10
12.63908693093798
 20
5.031156432060001
 30
0.0
 10
12.66040245470698
 20
5.046966309859997
 30
0.0
 10
12.68354773848399
 20
5.05641742652999
 30
0.0
 10
12.69974554389599
 20
5.05836325304
 30
0.0
 10
12.70771403450199
 20
5.05836325304
 30
0.0
  0
ARC
  5
12E
330
1F
100
AcDbEntity
  8
DEFAULT
100
AcDbCircle
 10
12.69048299999999
 20
4.388362999999998
 30
0.0
 40
0.0799996434140348
100
AcDbArc
 50
270.0
 51
358.8088675681845
  0
SPLINE
  5
12F
330
1F
100
AcDbEntity
  8
DEFAULT
100
AcDbSpline
210
0.0
220
0.0
230
1.0
 70
     8
 71
     3
 72
    11
 73
     7
 74
     0
 42
0.0000000001
 43
0.0000000001
 40
0.0
 40
0.0
 40
0.0
 40
0.0
 40
0.2857994331608
 40
0.5535232494026
 40
0.7900445159736
 40
1.0
 40
1.0
 40
1.0
 40
1.0
 10
12.36107689142899
 20
4.386700184839995
 30
0.0
 10
12.36092786754499
 20
4.376610725139997
 30
0.0
 10
12.35802930773598
 20
4.356988368529997
 30
0.0
 10
12.34606752398098
 20
4.33129974117
 30
0.0
 10
12.327605410354
 20
4.313068125499996
 30
0.0
 10
12.311653729643
 20
4.30836325304
 30
0.0
 10
12.30424094918997
 20
4.30836325304
 30
0.0
  0
SPLINE
  5
130
330
1F
100
AcDbEntity
  8
DEFAULT
100
AcDbSpline
210
0.0
220
0.0
230
1.0
 70
     8
 71
     3
 72
    10
 73
     6
 74
     0
 42
0.0000000001
 43
0.0000000001
 40
-1.0
 40
-1.0
 40
-1.0
 40
-1.0
 40
-0.7216975530022782
 40
-0.3661573315415642
 40
0.0
 40
0.0
 40
0.0
 40
0.0
 10
11.326422308711
 20
3.923608343089995
 30
0.0
 10
11.314247604218
 20
3.92478195887999
 30
0.0
 10
11.28672458927699
 20
3.933963232590003
 30
0.0
 10
11.25624672494835
 20
3.967989399734961
 30
0.0
 10
11.24949507180532
 20
4.000399777221219
 30
0.0
 10
11.25019145688751
 20
4.016346404624997
 30
0.0
  0
SPLINE
  5
131
330
1F
100
AcDbEntity
  8
DEFAULT
100
AcDbSpline
210
0.0
220
0.0
230
1.0
 70
    24
 71
     2
 72
     6
 73
     3
 74
     0
 42
0.0000000001
 43
0.0000000001
 40
0.0
 40
0.0
 40
0.0
 40
1.0
 40
1.0
 40
1.0
 10
11.25019145688751
 20
4.016346404624997
 30
0.0
 10
11.25210423678076
 20
4.125824718529998
 30
0.0
 10
11.25401701667401
 20
4.235303032434999
 30
0.0
  0
SPLINE
  5
132
330
1F
100
AcDbEntity
  8
DEFAULT
100
AcDbSpline
210
0.0
220
0.0
230
1.0
 70
     8
 71
     3
 72
    10
 73
     6
 74
     0
 42
0.0000000001
 43
0.0000000001
 40
0.0
 40
0.0
 40
0.0
 40
0.0
 40
0.3417652445880952
 40
0.6756715367807121
 40
1.0
 40
1.0
 40
1.0
 40
1.0
 10
11.25401701667401
 20
4.235303032434999
 30
0.0
 10
11.25444830299444
 20
4.245266457426339
 30
0.0
 10
11.26007917783441
 20
4.265082519399627
 30
0.0
 10
11.28093599567999
 20
4.287097802969996
 30
0.0
 10
11.300357791442
 20
4.292962205690003
 30
0.0
 10
11.309819555596
 20
4.293165478090003
 30
0.0
  0
SPLINE
  5
133
330
1F
100
AcDbEntity
  8
DEFAULT
100
AcDbSpline
210
0.0
220
0.0
230
1.0
 70
     8
 71
     3
 72
     9
 73
     5
 74
     0
 42
0.0000000001
 43
0.0000000001
 40
0.0
 40
0.0
 40
0.0
 40
0.0
 40
1.0
 40
2.0
 40
2.0
 40
2.0
 40
2.0
 10
0.964549348024974
 20
2.802828593320001
 30
0.0
 10
0.8905024817423168
 20
2.782744342568776
 30
0.0
 10
0.7373730932892784
 20
2.771730281257732
 30
0.0
 10
0.5845745500737394
 20
2.773181358914329
 30
0.0
 10
0.5081699999999785
 20
2.776617000000002
 30
0.0
  0
SPLINE
  5
134
330
1F
100
AcDbEntity
  8
DEFAULT
100
AcDbSpline
210
0.0
220
0.0
230
1.0
 70
     8
 71
     3
 72
     9
 73
     5
 74
     0
 42
0.0000000001
 43
0.0000000001
 40
0.0
 40
0.0
 40
0.0
 40
0.0
 40
1.0
 40
2.0
 40
2.0
 40
2.0
 40
2.0
 10
11.30981953136101
 20
4.293168325509995
 30
0.0
 10
11.2724206658493
 20
4.295527478744376
 30
0.0
 10
11.19745395624896
 20
4.295753612807104
 30
0.0
 10
11.12253677756318
 20
4.294547065527468
 30
0.0
 10
11.08509152595301
 20
4.293168325509995
 30
0.0
  0
SPLINE
  5
135
330
1F
100
AcDbEntity
  8
DEFAULT
100
AcDbSpline
210
0.0
220
0.0
230
1.0
 70
     8
 71
     3
 72
    11
 73
     7
 74
     0
 42
0.0000000001
 43
0.0000000001
 40
0.0
 40
0.0
 40
0.0
 40
0.0
 40
0.2099554840264
 40
0.4464767505974
 40
0.7142005668392
 40
1.0
 40
1.0
 40
1.0
 40
1.0
 10
43.81059664624037
 20
4.30836325304
 30
0.0
 10
43.81800942669339
 20
4.30836325304
 30
0.0
 10
43.83396110740439
 20
4.313068125499996
 30
0.0
 10
43.85242322103137
 20
4.33129974117
 30
0.0
 10
43.86438500478739
 20
4.356988368529997
 30
0.0
 10
43.86728356459538
 20
4.376610725139997
 30
0.0
 10
43.86743258847939
 20
4.386700184839995
 30
0.0
  0
ARC
  5
136
330
1F
100
AcDbEntity
  8
DEFAULT
100
AcDbCircle
 10
56.58914873909539
 20
2.714978000000002
 30
0.0
 40
0.0599998134574723
100
AcDbArc
 50
2.000043803910955
 51
77.85422116720478
  0
SPLINE
  5
137
330
1F
100
AcDbEntity
  8
DEFAULT
100
AcDbSpline
210
0.0
220
0.0
230
1.0
 70
     8
 71
     3
 72
    11
 73
     7
 74
     0
 42
0.0000000001
 43
0.0000000001
 40
0.0
 40
0.0
 40
0.0
 40
0.0
 40
0.2857994331608
 40
0.5535232494026
 40
0.7900445159736
 40
1.0
 40
1.0
 40
1.0
 40
1.0
 10
10.92826910857099
 20
4.386700184839995
 30
0.0
 10
10.928418132455
 20
4.376610725139997
 30
0.0
 10
10.93131669226401
 20
4.356988368529997
 30
0.0
 10
10.94327847601901
 20
4.33129974117
 30
0.0
 10
10.96174058964599
 20
4.313068125499996
 30
0.0
 10
10.97769227035699
 20
4.30836325304
 30
0.0
 10
10.98510505081001
 20
4.30836325304
 30
0.0
  0
SPLINE
  5
138
330
1F
100
AcDbEntity
  8
DEFAULT
100
AcDbSpline
210
0.0
220
0.0
230
1.0
 70
     8
 71
     3
 72
     9
 73
     5
 74
     0
 42
0.0000000001
 43
0.0000000001
 40
0.0
 40
0.0
 40
0.0
 40
0.0
 40
1.0
 40
2.0
 40
2.0
 40
2.0
 40
2.0
 10
15.46377506983002
 20
2.802828593329991
 30
0.0
 10
14.8365407955349
 20
3.19944993992506
 30
0.0
 10
13.50526898155145
 20
3.877145302454451
 30
0.0
 10
12.04952023398134
 20
4.22509721949902
 30
0.0
 10
11.30981953136101
 20
4.293168325509995
 30
0.0
  0
SPLINE
  5
139
330
1F
100
AcDbEntity
  8
DEFAULT
100
AcDbSpline
210
0.0
220
0.0
230
1.0
 70
     8
 71
     3
 72
     9
 73
     5
 74
     0
 42
0.0000000001
 43
0.0000000001
 40
0.0
 40
0.0
 40
0.0
 40
0.0
 40
1.0
 40
2.0
 40
2.0
 40
2.0
 40
2.0
 10
11.068772
 20
3.923270000000002
 30
0.0
 10
11.11170037724629
 20
3.924880336384447
 30
0.0
 10
11.19759080048133
 20
3.926281142852559
 30
0.0
 10
11.283533536943
 20
3.926121142916898
 30
0.0
 10
11.32641999999999
 20
3.923585000000003
 30
0.0
  0
SPLINE
  5
13A
330
1F
100
AcDbEntity
  8
DEFAULT
100
AcDbSpline
210
0.0
220
0.0
230
1.0
 70
     8
 71
     3
 72
     9
 73
     5
 74
     0
 42
0.0000000001
 43
0.0000000001
 40
0.0
 40
0.0
 40
0.0
 40
0.0
 40
1.0
 40
2.0
 40
2.0
 40
2.0
 40
2.0
 10
11.32652499999998
 20
3.923574000000002
 30
0.0
 10
12.01255462136099
 20
3.855253011332636
 30
0.0
 10
13.36652178789267
 20
3.546928495197619
 30
0.0
 10
14.61125673005428
 20
2.93640373635597
 30
0.0
 10
15.20374500000001
 20
2.584968000000003
 30
0.0
  0
SPLINE
  5
13B
330
1F
100
AcDbEntity
  8
DEFAULT
100
AcDbSpline
210
0.0
220
0.0
230
1.0
 70
     8
 71
     3
 72
    11
 73
     7
 74
     0
 42
0.0000000001
 43
0.0000000001
 40
0.0
 40
0.0
 40
0.0
 40
0.0
 40
1.0
 40
2.0
 40
3.0
 40
4.0
 40
4.0
 40
4.0
 40
4.0
 10
15.20225700000002
 20
2.587302999999991
 30
0.0
 10
15.23604977475436
 20
2.51363699167355
 30
0.0
 10
15.22961170014226
 20
2.351773055514542
 30
0.0
 10
15.22568244873649
 20
2.113999391480334
 30
0.0
 10
15.22019987934665
 20
1.874863769621058
 30
0.0
 10
15.21686844082184
 20
1.715723754649105
 30
0.0
 10
15.21513800000001
 20
1.636096999999992
 30
0.0
  0
ARC
  5
13C
330
1F
100
AcDbEntity
  8
DEFAULT
100
AcDbCircle
 10
14.183262
 20
-87.55406
 30
0.0
 40
90.0000002339904
100
AcDbArc
 50
83.93237134882352
 51
88.70347303752472
  0
SPLINE
  5
13D
330
1F
100
AcDbEntity
  8
DEFAULT
100
AcDbSpline
210
0.0
220
0.0
230
1.0
 70
     8
 71
     3
 72
    11
 73
     7
 74
     0
 42
0.0000000001
 43
0.0000000001
 40
0.0
 40
0.0
 40
0.0
 40
0.0
 40
0.2075532299286
 40
0.4418436459466
 40
0.7053076879961
 40
1.0
 40
1.0
 40
1.0
 40
1.0
 10
12.14358069673501
 20
7.18336325304
 30
0.0
 10
12.16244700387402
 20
7.18336325304
 30
0.0
 10
12.20260488499802
 20
7.185444161429999
 30
0.0
 10
12.26636352928502
 20
7.192246030159993
 30
0.0
 10
12.33773349844402
 20
7.202041154520003
 30
0.0
 10
12.38791683813302
 20
7.209501280349997
 30
0.0
 10
12.41442411227901
 20
7.213363253040001
 30
0.0
  0
SPLINE
  5
13E
330
1F
100
AcDbEntity
  8
DEFAULT
100
AcDbSpline
210
0.0
220
0.0
230
1.0
 70
    24
 71
     2
 72
     6
 73
     3
 74
     0
 42
0.0000000001
 43
0.0000000001
 40
0.0
 40
0.0
 40
0.0
 40
1.0
 40
1.0
 40
1.0
 10
15.27511500000001
 20
1.574803000000003
 30
0.0
 10
15.73355650000001
 20
1.574803000000003
 30
0.0
 10
16.191998
 20
1.574803000000003
 30
0.0
  0
SPLINE
  5
13F
330
1F
100
AcDbEntity
  8
DEFAULT
100
AcDbSpline
210
0.0
220
0.0
230
1.0
 70
    24
 71
     2
 72
     6
 73
     3
 74
     0
 42
0.0000000001
 43
0.0000000001
 40
0.0
 40
0.0
 40
0.0
 40
1.0
 40
1.0
 40
1.0
 10
10.73365999999999
 20
5.058363
 30
0.0
 10
10.73365999999999
 20
5.183363
 30
0.0
 10
10.73365999999999
 20
5.308363
 30
0.0
  0
SPLINE
  5
140
330
1F
100
AcDbEntity
  8
DEFAULT
100
AcDbSpline
210
0.0
220
0.0
230
1.0
 70
    24
 71
     2
 72
     6
 73
     3
 74
     0
 42
0.0000000001
 43
0.0000000001
 40
0.0
 40
0.0
 40
0.0
 40
1.0
 40
1.0
 40
1.0
 10
12.019673
 20
6.733362999999997
 30
0.0
 10
12.019673
 20
6.973362999999999
 30
0.0
 10
12.019673
 20
7.213363000000001
 30
0.0
  0
LINE
  5
141
330
1F
100
AcDbEntity
  8
DEFAULT
100
AcDbLine
 10
2.412374000000007
 20
7.189639
 30
0.0
 11
2.412374000000007
 21
6.683363
 31
0.0
  0
SPLINE
  5
142
330
1F
100
AcDbEntity
  8
DEFAULT
100
AcDbSpline
210
0.0
220
0.0
230
1.0
 70
     8
 71
     3
 72
    10
 73
     6
 74
     0
 42
0.0000000001
 43
0.0000000001
 40
0.0
 40
0.0
 40
0.0
 40
0.0
 40
0.3388354616947
 40
0.6721995844884
 40
1.0
 40
1.0
 40
1.0
 40
1.0
 10
11.49798664431399
 20
5.358363253039997
 30
0.0
 10
11.497986647783
 20
5.349757244529997
 30
0.0
 10
11.50239994349798
 20
5.332366427899998
 30
0.0
 10
11.52066482779501
 20
5.313159914639996
 30
0.0
 10
11.537785289245
 20
5.308363232519994
 30
0.0
 10
11.54611102100601
 20
5.30836325304
 30
0.0
  0
SPLINE
  5
143
330
1F
100
AcDbEntity
  8
DEFAULT
100
AcDbSpline
210
0.0
220
0.0
230
1.0
 70
    24
 71
     2
 72
     6
 73
     3
 74
     0
 42
0.0000000001
 43
0.0000000001
 40
0.0
 40
0.0
 40
0.0
 40
1.0
 40
1.0
 40
1.0
 10
15.340906
 20
1.279527999999999
 30
0.0
 10
15.340906
 20
1.222747499999997
 30
0.0
 10
15.340906
 20
1.165966999999995
 30
0.0
  0
SPLINE
  5
144
330
1F
100
AcDbEntity
  8
DEFAULT
100
AcDbSpline
210
0.0
220
0.0
230
1.0
 70
     8
 71
     3
 72
     9
 73
     5
 74
     0
 42
0.0000000001
 43
0.0000000001
 40
0.0
 40
0.0
 40
0.0
 40
0.0
 40
1.0
 40
2.0
 40
2.0
 40
2.0
 40
2.0
 10
14.35237336676001
 20
3.860380560439992
 30
0.0
 10
16.04089550961363
 20
3.768730640890041
 30
0.0
 10
19.41111336572446
 20
3.460611308546618
 30
0.0
 10
22.74987742620955
 20
2.907611522435872
 30
0.0
 10
24.406957357
 20
2.570590943529993
 30
0.0
  0
CIRCLE
  5
145
330
1F
100
AcDbEntity
  8
DEFAULT
100
AcDbCircle
 10
23.969476
 20
0.0
 30
0.0
 40
1.0
  0
SPLINE
  5
146
330
1F
100
AcDbEntity
  8
DEFAULT
100
AcDbSpline
210
0.0
220
0.0
230
1.0
 70
    24
 71
     2
 72
     6
 73
     3
 74
     0
 42
0.0000000001
 43
0.0000000001
 40
0.0
 40
0.0
 40
0.0
 40
1.0
 40
1.0
 40
1.0
 10
11.544673
 20
5.720400999999995
 30
0.0
 10
11.544673
 20
6.201881999999998
 30
0.0
 10
11.544673
 20
6.683363
 30
0.0
  0
SPLINE
  5
147
330
1F
100
AcDbEntity
  8
DEFAULT
100
AcDbSpline
210
0.0
220
0.0
230
1.0
 70
    24
 71
     2
 72
     6
 73
     3
 74
     0
 42
0.0000000001
 43
0.0000000001
 40
0.0
 40
0.0
 40
0.0
 40
1.0
 40
1.0
 40
1.0
 10
24.303431
 20
1.574803000000003
 30
0.0
 10
24.7878515
 20
1.574803000000003
 30
0.0
 10
25.272272
 20
1.574803000000003
 30
0.0
  0
SPLINE
  5
148
330
1F
100
AcDbEntity
  8
DEFAULT
100
AcDbSpline
210
0.0
220
0.0
230
1.0
 70
    24
 71
     2
 72
     6
 73
     3
 74
     0
 42
0.0000000001
 43
0.0000000001
 40
0.0
 40
0.0
 40
0.0
 40
1.0
 40
1.0
 40
1.0
 10
25.249004
 20
0.3149609999999967
 30
0.0
 10
25.249004
 20
0.1574804999999984
 30
0.0
 10
25.249004
 20
0.0
 30
0.0
  0
ARC
  5
149
330
1F
100
AcDbEntity
  8
DEFAULT
100
AcDbCircle
 10
10.883829
 20
18.62290399999999
 30
0.0
 40
0.0250000400499361
100
AcDbArc
 50
235.5922788969563
 51
270.0
  0
SPLINE
  5
14A
330
1F
100
AcDbEntity
  8
DEFAULT
100
AcDbSpline
210
0.0
220
0.0
230
1.0
 70
    24
 71
     2
 72
     6
 73
     3
 74
     0
 42
0.0000000001
 43
0.0000000001
 40
0.0
 40
0.0
 40
0.0
 40
1.0
 40
1.0
 40
1.0
 10
3.970915999999995
 20
20.64980299999999
 30
0.0
 10
3.991811970217334
 20
20.61636248138978
 30
0.0
 10
4.012707940434673
 20
20.58292196277957
 30
0.0
  0
ARC
  5
14B
330
1F
100
AcDbEntity
  8
DEFAULT
100
AcDbCircle
 10
4.207759126712638
 20
20.70480292976187
 30
0.0
 40
0.2299998595238275
100
AcDbArc
 50
211.999885629289
 51
269.9999684343341
  0
SPLINE
  5
14C
330
1F
100
AcDbEntity
  8
DEFAULT
100
AcDbSpline
210
0.0
220
0.0
230
1.0
 70
    24
 71
     2
 72
     6
 73
     3
 74
     0
 42
0.0000000001
 43
0.0000000001
 40
-1.0
 40
-1.0
 40
-1.0
 40
0.0
 40
0.0
 40
0.0
 10
4.207758999999989
 20
20.47480307023808
 30
0.0
 10
11.6446725
 20
20.47480307023808
 30
0.0
 10
19.081586
 20
20.47480307023808
 30
0.0
  0
ARC
  5
14D
330
1F
100
AcDbEntity
  8
DEFAULT
100
AcDbCircle
 10
19.08158587328738
 20
20.70480292976188
 30
0.0
 40
0.2299998595238402
100
AcDbArc
 50
270.0000315656671
 51
328.0001143707087
  0
SPLINE
  5
14E
330
1F
100
AcDbEntity
  8
DEFAULT
100
AcDbSpline
210
0.0
220
0.0
230
1.0
 70
    24
 71
     2
 72
     6
 73
     3
 74
     0
 42
0.0000000001
 43
0.0000000001
 40
-1.0
 40
-1.0
 40
-1.0
 40
0.0
 40
0.0
 40
0.0
 10
19.27663705956535
 20
20.58292196277957
 30
0.0
 10
19.29753302978268
 20
20.61636248138978
 30
0.0
 10
19.31842900000002
 20
20.64980299999999
 30
0.0
  0
SPLINE
  5
14F
330
1F
100
AcDbEntity
  8
DEFAULT
100
AcDbSpline
210
0.0
220
0.0
230
1.0
 70
     8
 71
     3
 72
    11
 73
     7
 74
     0
 42
0.0000000001
 43
0.0000000001
 40
0.0
 40
0.0
 40
0.0
 40
0.0
 40
0.3238269159132
 40
0.6105068404741
 40
0.8343663280072
 40
1.0
 40
1.0
 40
1.0
 40
1.0
 10
12.41442411266401
 20
5.358363253039997
 30
0.0
 10
12.41442411266401
 20
5.351956947839994
 30
0.0
 10
12.41337069598499
 20
5.339830799970002
 30
0.0
 10
12.40860190902002
 20
5.323919441909993
 30
0.0
 10
12.40156303901902
 20
5.312228067829992
 30
0.0
 10
12.39401665178501
 20
5.30836325304
 30
0.0
 10
12.39073990176401
 20
5.30836325304
 30
0.0
  0
ARC
  5
150
330
1F
100
AcDbEntity
  8
DEFAULT
100
AcDbCircle
 10
9.420983000000014
 20
5.358362999999997
 30
0.0
 40
0.0499999067448244
100
AcDbArc
 50
214.8648161992318
 51
270.0
  0
ARC
  5
151
330
1F
100
AcDbEntity
  8
DEFAULT
100
AcDbCircle
 10
2.044672999999989
 20
7.640362999999994
 30
0.0
 40
0.2999999141766412
100
AcDbArc
 50
90.0
 51
257.999896820203
  0
ARC
  5
152
330
1F
100
AcDbEntity
  8
DEFAULT
100
AcDbCircle
 10
1.994673000000006
 20
6.733362999999997
 30
0.0
 40
0.0499999999999986
100
AcDbArc
 50
180.0
 51
270.0
  0
ARC
  5
153
330
1F
100
AcDbEntity
  8
DEFAULT
100
AcDbCircle
 10
11.989673
 20
7.310362999999995
 30
0.0
 40
0.0300000000000002
100
AcDbArc
 50
0.0
 51
90.0
  0
ARC
  5
154
330
1F
100
AcDbEntity
  8
DEFAULT
100
AcDbCircle
 10
10.598863
 20
4.388362999999998
 30
0.0
 40
0.0799996434140348
100
AcDbArc
 50
181.1911324318155
 51
270.0
  0
SPLINE
  5
155
330
1F
100
AcDbEntity
  8
DEFAULT
100
AcDbSpline
210
0.0
220
0.0
230
1.0
 70
    24
 71
     2
 72
     6
 73
     3
 74
     0
 42
0.0000000001
 43
0.0000000001
 40
0.0
 40
0.0
 40
0.0
 40
1.0
 40
1.0
 40
1.0
 10
15.20273000000002
 20
1.441068000000001
 30
0.0
 10
15.20273000000002
 20
1.360298
 30
0.0
 10
15.20273000000002
 20
1.279527999999999
 30
0.0
  0
ARC
  5
156
330
1F
100
AcDbEntity
  8
DEFAULT
100
AcDbCircle
 10
16.25994000000001
 20
1.441068000000001
 30
0.0
 40
0.015625
100
AcDbArc
 50
0.0
 51
90.0
  0
SPLINE
  5
157
330
1F
100
AcDbEntity
  8
DEFAULT
100
AcDbSpline
210
0.0
220
0.0
230
1.0
 70
    24
 71
     2
 72
     6
 73
     3
 74
     0
 42
0.0000000001
 43
0.0000000001
 40
0.0
 40
0.0
 40
0.0
 40
1.0
 40
1.0
 40
1.0
 10
11.26967299999999
 20
7.310362999999995
 30
0.0
 10
11.26967299999999
 20
7.261862999999998
 30
0.0
 10
11.26967299999999
 20
7.213363000000001
 30
0.0
  0
SPLINE
  5
158
330
1F
100
AcDbEntity
  8
DEFAULT
100
AcDbSpline
210
0.0
220
0.0
230
1.0
 70
    24
 71
     2
 72
     6
 73
     3
 74
     0
 42
0.0000000001
 43
0.0000000001
 40
0.0
 40
0.0
 40
0.0
 40
1.0
 40
1.0
 40
1.0
 10
21.24467300000002
 20
7.940362999999991
 30
0.0
 10
11.64468
 20
7.940362999999991
 30
0.0
 10
2.044686999999982
 20
7.940362999999991
 30
0.0
  0
SPLINE
  5
159
330
1F
100
AcDbEntity
  8
DEFAULT
100
AcDbSpline
210
0.0
220
0.0
230
1.0
 70
     8
 71
     3
 72
    13
 73
     9
 74
     0
 42
0.0000000001
 43
0.0000000001
 40
0.0
 40
0.0
 40
0.0
 40
0.0
 40
0.1983372897061
 40
0.382736114032
 40
0.5542088850058
 40
0.7136951690739
 40
0.8620461467553
 40
1.0
 40
1.0
 40
1.0
 40
1.0
 10
52.15934264937501
 20
7.18336325304
 30
0.0
 10
52.16412582992182
 20
7.18336325304
 30
0.0
 10
52.17335672928381
 20
7.183506443070002
 30
0.0
 10
52.18670997810152
 20
7.184122213699993
 30
0.0
 10
52.1991043739563
 20
7.185068733089992
 30
0.0
 10
52.21059948752482
 20
7.18630275052999
 30
0.0
 10
52.2212480966602
 20
7.187795552379995
 30
0.0
 10
52.22804986279492
 20
7.188994124969994
 30
0.0
 10
52.23131379773481
 20
7.189638580579995
 30
0.0
  0
ARC
  5
15A
330
1F
100
AcDbEntity
  8
DEFAULT
100
AcDbCircle
 10
33.34900073909542
 20
6.733362999999997
 30
0.0
 40
0.0499999999999986
100
AcDbArc
 50
180.0
 51
270.0
  0
ARC
  5
15B
330
1F
100
AcDbEntity
  8
DEFAULT
100
AcDbCircle
 10
33.3990007390954
 20
7.640362999999994
 30
0.0
 40
0.2999999141766412
100
AcDbArc
 50
90.0
 51
257.9998968202033
  0
ARC
  5
15C
330
1F
100
AcDbEntity
  8
DEFAULT
100
AcDbCircle
 10
40.77531073909542
 20
5.358362999999997
 30
0.0
 40
0.0499999067448244
100
AcDbArc
 50
214.8648161992307
 51
270.0
  0
LINE
  5
15D
330
1F
100
AcDbEntity
  8
DEFAULT
100
AcDbLine
 10
3.962631047847005
 20
58.66354298567707
 30
0.0
 11
1.564383732923005
 21
60.29717502612705
 31
0.0
  0
ARC
  5
15E
330
1F
100
AcDbEntity
  8
DEFAULT
100
AcDbCircle
 10
4.305289605241093
 20
64.31432920789537
 30
0.0
 40
4.863136099371109
100
AcDbArc
 50
233.6618073259799
 51
235.6942665475195
  0
SPLINE
  5
15F
330
1F
100
AcDbEntity
  8
DEFAULT
100
AcDbSpline
210
0.0
220
0.0
230
1.0
 70
     8
 71
     3
 72
     9
 73
     5
 74
     0
 42
0.0000000001
 43
0.0000000001
 40
0.0
 40
0.0
 40
0.0
 40
0.0
 40
1.000003667316845
 40
2.0
 40
2.0
 40
2.0
 40
2.0
 10
1.423636999999985
 20
60.39691028930706
 30
0.0
 10
1.422012246190718
 20
60.40977848457085
 30
0.0
 10
1.413455760329981
 20
60.43490451042963
 30
0.0
 10
1.395058770777183
 20
60.45408797346978
 30
0.0
 10
1.384299571764984
 20
60.46132925979204
 30
0.0
  0
SPLINE
  5
160
330
1F
100
AcDbEntity
  8
DEFAULT
100
AcDbSpline
210
0.0
220
0.0
230
1.0
 70
    24
 71
     2
 72
     6
 73
     3
 74
     0
 42
0.0000000001
 43
0.0000000001
 40
0.0
 40
0.0
 40
0.0
 40
1.0
 40
1.0
 40
1.0
 10
1.384299571764984
 20
60.46132925979204
 30
0.0
 10
1.19342099157349
 20
60.58958942844954
 30
0.0
 10
1.002542411381995
 20
60.71784959710705
 30
0.0
  0
SPLINE
  5
161
330
1F
100
AcDbEntity
  8
DEFAULT
100
AcDbSpline
210
0.0
220
0.0
230
1.0
 70
     8
 71
     3
 72
     9
 73
     5
 74
     0
 42
0.0000000001
 43
0.0000000001
 40
0.0
 40
0.0
 40
0.0
 40
0.0
 40
1.0
 40
2.0
 40
2.0
 40
2.0
 40
2.0
 10
1.002542411381995
 20
60.71784959710705
 30
0.0
 10
0.9661481803199194
 20
60.74246972317168
 30
0.0
 10
0.8757684163308284
 20
60.76463005390035
 30
0.0
 10
0.7917423322918182
 20
60.72465147706858
 30
0.0
 10
0.7610886638795193
 20
60.69320147773821
 30
0.0
  0
SPLINE
  5
162
330
1F
100
AcDbEntity
  8
DEFAULT
100
AcDbSpline
210
0.0
220
0.0
230
1.0
 70
     8
 71
     3
 72
     9
 73
     5
 74
     0
 42
0.0000000001
 43
0.0000000001
 40
0.0
 40
0.0
 40
0.0
 40
0.0
 40
1.0
 40
2.0
 40
2.0
 40
2.0
 40
2.0
 10
0.7610886638795193
 20
60.69320147773821
 30
0.0
 10
0.6839599310226561
 20
60.61551082967175
 30
0.0
 10
0.5477250394365853
 20
60.44561453927527
 30
0.0
 10
0.4279512070062026
 20
60.25989458784177
 30
0.0
 10
0.3961562131719916
 20
60.15573960538707
 30
0.0
  0
SPLINE
  5
163
330
1F
100
AcDbEntity
  8
DEFAULT
100
AcDbSpline
210
0.0
220
0.0
230
1.0
 70
     8
 71
     3
 72
    10
 73
     6
 74
     0
 42
0.0000000001
 43
0.0000000001
 40
0.0
 40
0.0
 40
0.0
 40
0.0
 40
0.3334658583551
 40
0.6666811283343
 40
1.0
 40
1.0
 40
1.0
 40
1.0
 10
0.3961562131719916
 20
60.15573960538707
 30
0.0
 10
0.3932105600689795
 20
60.13396024331708
 30
0.0
 10
0.3949830096439939
 20
60.08947589004704
 30
0.0
 10
0.4200720609079838
 20
60.02759163320708
 30
0.0
 10
0.4499725711059739
 20
59.99437375632705
 30
0.0
 10
0.4671382693179851
 20
59.98088469872205
 30
0.0
  0
SPLINE
  5
164
330
1F
100
AcDbEntity
  8
DEFAULT
100
AcDbSpline
210
0.0
220
0.0
230
1.0
 70
     8
 71
     3
 72
     9
 73
     5
 74
     0
 42
0.0000000001
 43
0.0000000001
 40
0.0
 40
0.0
 40
0.0
 40
0.0
 40
1.0
 40
2.0
 40
2.0
 40
2.0
 40
2.0
 10
0.4671382693179851
 20
59.98088469872205
 30
0.0
 10
0.5293911327976843
 20
59.93194234063257
 30
0.0
 10
0.6543122349626458
 20
59.8346494640406
 30
0.0
 10
0.7782512780217701
 20
59.73594901021666
 30
0.0
 10
0.8417429849759799
 20
59.68878053286706
 30
0.0
  0
SPLINE
  5
165
330
1F
100
AcDbEntity
  8
DEFAULT
100
AcDbSpline
210
0.0
220
0.0
230
1.0
 70
     8
 71
     3
 72
     9
 73
     5
 74
     0
 42
0.0000000001
 43
0.0000000001
 40
0.0
 40
0.0
 40
0.0
 40
0.0
 40
1.0
 40
2.0
 40
2.0
 40
2.0
 40
2.0
 10
0.8417429849759799
 20
59.68878053286706
 30
0.0
 10
0.8503113076002649
 20
59.6841282389537
 30
0.0
 10
0.8689772543441165
 20
59.67765428015709
 30
0.0
 10
0.8887331060361134
 20
59.67746227735348
 30
0.0
 10
0.8983676936969971
 20
59.67895715725707
 30
0.0
  0
ARC
  5
166
330
1F
100
AcDbEntity
  8
DEFAULT
100
AcDbCircle
 10
-0.4766820658671804
 20
57.61583411076374
 30
0.0
 40
2.479362528201416
100
AcDbArc
 50
52.26183210333081
 51
56.31696229112264
  0
LINE
  5
167
330
1F
100
AcDbEntity
  8
DEFAULT
100
AcDbLine
 10
1.040821643185978
 20
59.57655363156705
 30
0.0
 11
3.334399579395189
 21
57.80143333094706
 31
0.0
  0
SPLINE
  5
168
330
1F
100
AcDbEntity
  8
DEFAULT
100
AcDbSpline
210
0.0
220
0.0
230
1.0
 70
    24
 71
     2
 72
     6
 73
     3
 74
     0
 42
0.0000000001
 43
0.0000000001
 40
0.0
 40
0.0
 40
0.0
 40
1.0
 40
1.0
 40
1.0
 10
13.019673
 20
24.41330299999998
 30
0.0
 10
13.019673
 20
23.75928349999999
 30
0.0
 10
13.019673
 20
23.10526399999999
 30
0.0
  0
ARC
  5
169
330
1F
100
AcDbEntity
  8
DEFAULT
100
AcDbCircle
 10
30.76608173909538
 20
34.82919699999999
 30
0.0
 40
0.1500005583889545
100
AcDbArc
 50
104.8687485525721
 51
195.233443535248
  0
SPLINE
  5
16A
330
1F
100
AcDbEntity
  8
DEFAULT
100
AcDbSpline
210
0.0
220
0.0
230
1.0
 70
     8
 71
     3
 72
    14
 73
    10
 74
     0
 42
0.0000000001
 43
0.0000000001
 40
0.0
 40
0.0
 40
0.0
 40
0.0
 40
1.0
 40
2.0
 40
3.0
 40
4.0
 40
5.0
 40
6.0
 40
7.0
 40
7.0
 40
7.0
 40
7.0
 10
42.78708373909539
 20
19.607981
 30
0.0
 10
42.80733035297517
 20
19.61927399777345
 30
0.0
 10
42.84989595868475
 20
19.6381777174913
 30
0.0
 10
42.91800827056828
 20
19.65353124924533
 30
0.0
 10
42.98734345753816
 20
19.66026602730719
 30
0.0
 10
43.0569956286934
 20
19.65694024466676
 30
0.0
 10
43.12540693653149
 20
19.64350071922449
 30
0.0
 10
43.19093832808785
 20
19.61925640885086
 30
0.0
 10
43.22972912921311
 20
19.59314825272708
 30
0.0
 10
43.2470391338354
 20
19.57772689792
 30
0.0
  0
SPLINE
  5
16B
330
1F
100
AcDbEntity
  8
DEFAULT
100
AcDbSpline
210
0.0
220
0.0
230
1.0
 70
    24
 71
     2
 72
     6
 73
     3
 74
     0
 42
0.0000000001
 43
0.0000000001
 40
0.0
 40
0.0
 40
0.0
 40
0.798951089876579
 40
0.798951089876579
 40
0.798951089876579
 10
42.8390007390954
 20
19.63186899999999
 30
0.0
 10
42.8390030972304
 20
19.913952663925
 30
0.0
 10
42.8390054553654
 20
20.19603632785
 30
0.0
  0
SPLINE
  5
16C
330
1F
100
AcDbEntity
  8
DEFAULT
100
AcDbSpline
210
0.0
220
0.0
230
1.0
 70
     8
 71
     3
 72
    13
 73
     9
 74
     0
 42
0.0000000001
 43
0.0000000001
 40
0.0
 40
0.0
 40
0.0
 40
0.0
 40
0.08277311707151
 40
0.251067299128
 40
0.4265204253965
 40
0.6109298907422
 40
0.8032025873094
 40
1.0
 40
1.0
 40
1.0
 40
1.0
 10
42.8390054553654
 20
20.19603632785
 30
0.0
 10
42.83901017163539
 20
20.20243378142
 30
0.0
 10
42.84064687437539
 20
20.22183852833
 30
0.0
 10
42.85186109499539
 20
20.25331095474999
 30
0.0
 10
42.87719856885541
 20
20.28585393103
 30
0.0
 10
42.9121517638754
 20
20.31089130696
 30
0.0
 10
42.95381670848541
 20
20.32665119615
 30
0.0
 10
42.9838658107454
 20
20.33022361872
 30
0.0
 10
42.99900039125539
 20
20.33022361872
 30
0.0
  0
SPLINE
  5
16D
330
1F
100
AcDbEntity
  8
DEFAULT
100
AcDbSpline
210
0.0
220
0.0
230
1.0
 70
     8
 71
     3
 72
    13
 73
     9
 74
     0
 42
0.0000000001
 43
0.0000000001
 40
0.0
 40
0.0
 40
0.0
 40
0.0
 40
0.1967974126906
 40
0.3890701092578
 40
0.5734795746035
 40
0.748932700872
 40
0.9172268829285
 40
1.0
 40
1.0
 40
1.0
 40
1.0
 10
42.99900039125539
 20
20.33022361872
 30
0.0
 10
43.01413497176539
 20
20.33022361872
 30
0.0
 10
43.0441840740254
 20
20.32665119615
 30
0.0
 10
43.08584901863539
 20
20.31089130696
 30
0.0
 10
43.1208022136554
 20
20.28585393103
 30
0.0
 10
43.1461396875154
 20
20.25331095474999
 30
0.0
 10
43.15735390813539
 20
20.22183852833
 30
0.0
 10
43.15899061087539
 20
20.20243378142
 30
0.0
 10
43.15902389776279
 20
20.19603632785
 30
0.0
  0
SPLINE
  5
16E
330
1F
100
AcDbEntity
  8
DEFAULT
100
AcDbSpline
210
0.0
220
0.0
230
1.0
 70
    24
 71
     2
 72
     6
 73
     3
 74
     0
 42
0.0000000001
 43
0.0000000001
 40
-0.798951089876579
 40
-0.798951089876579
 40
-0.798951089876579
 40
0.0
 40
0.0
 40
0.0
 10
43.15902389776279
 20
20.19603632785
 30
0.0
 10
43.15904054120649
 20
19.913952663925
 30
0.0
 10
43.15905718465019
 20
19.63186899999999
 30
0.0
  0
SPLINE
  5
16F
330
1F
100
AcDbEntity
  8
DEFAULT
100
AcDbSpline
210
0.0
220
0.0
230
1.0
 70
     8
 71
     3
 72
     9
 73
     5
 74
     0
 42
0.0000000001
 43
0.0000000001
 40
0.0
 40
0.0
 40
0.0
 40
0.0
 40
1.0
 40
2.0
 40
2.0
 40
2.0
 40
2.0
 10
30.62135198336539
 20
34.78978358542
 30
0.0
 10
31.06877258995171
 20
33.14737089119831
 30
0.0
 10
31.52452619988446
 20
29.76506576407796
 30
0.0
 10
31.54343736435786
 20
26.36195318366346
 30
0.0
 10
31.55110455600861
 20
24.66219800781349
 30
0.0
  0
ARC
  5
170
330
1F
100
AcDbEntity
  8
DEFAULT
100
AcDbCircle
 10
31.80110187919641
 20
24.66330290427754
 30
0.0
 40
0.2499997647944185
100
AcDbArc
 50
180.2532246793642
 51
269.9999678911831
  0
SPLINE
  5
171
330
1F
100
AcDbEntity
  8
DEFAULT
100
AcDbSpline
210
0.0
220
0.0
230
1.0
 70
    24
 71
     2
 72
     6
 73
     3
 74
     0
 42
0.0000000001
 43
0.0000000001
 40
0.0
 40
0.0
 40
0.0
 40
1.0
 40
1.0
 40
1.0
 10
31.80110173909539
 20
24.41330313948316
 30
0.0
 10
32.86780548909539
 20
24.41330301171239
 30
0.0
 10
33.93450923909539
 20
24.41330288394161
 30
0.0
  0
ARC
  5
172
330
1F
100
AcDbEntity
  8
DEFAULT
100
AcDbCircle
 10
33.93437085085061
 20
24.6633029585673
 30
0.0
 40
0.2500001129282869
100
AcDbArc
 50
270.0317162367332
 51
339.6579824202153
  0
ARC
  5
173
330
1F
100
AcDbEntity
  8
DEFAULT
100
AcDbCircle
 10
18.58587760906131
 20
30.37417523752454
 30
0.0
 40
16.62651688018725
100
AcDbArc
 50
339.591767312622
 51
340.0288855941284
  0
SPLINE
  5
174
330
1F
100
AcDbEntity
  8
DEFAULT
100
AcDbSpline
210
0.0
220
0.0
230
1.0
 70
     8
 71
     3
 72
     9
 73
     5
 74
     0
 42
0.0000000001
 43
0.0000000001
 40
0.0
 40
0.0
 40
0.0
 40
0.0
 40
1.0
 40
2.0
 40
2.0
 40
2.0
 40
2.0
 10
34.2125577390954
 20
24.695449
 30
0.0
 10
34.50244317805617
 20
25.49315377383824
 30
0.0
 10
34.98194476196993
 20
27.13011563689568
 30
0.0
 10
35.16711296255096
 20
28.82286453845708
 30
0.0
 10
35.22153973909541
 20
29.670001
 30
0.0
  0
SPLINE
  5
175
330
1F
100
AcDbEntity
  8
DEFAULT
100
AcDbSpline
210
0.0
220
0.0
230
1.0
 70
    24
 71
     2
 72
     6
 73
     3
 74
     0
 42
0.0000000001
 43
0.0000000001
 40
0.0
 40
0.0
 40
0.0
 40
1.0
 40
1.0
 40
1.0
 10
32.69500073909539
 20
24.413303
 30
0.0
 10
32.69500073909539
 20
23.589053
 30
0.0
 10
32.69500073909539
 20
22.764803
 30
0.0
  0
ARC
  5
176
330
1F
100
AcDbEntity
  8
DEFAULT
100
AcDbCircle
 10
34.66000073909539
 20
22.764803
 30
0.0
 40
1.965000000000003
100
AcDbArc
 50
180.0
 51
270.0
  0
LINE
  5
177
330
1F
100
AcDbEntity
  8
DEFAULT
100
AcDbLine
 10
34.66000073909539
 20
20.799803
 30
0.0
 11
35.12401373909539
 21
20.799803
 31
0.0
  0
SPLINE
  5
178
330
1F
100
AcDbEntity
  8
DEFAULT
100
AcDbSpline
210
0.0
220
0.0
230
1.0
 70
    24
 71
     2
 72
     6
 73
     3
 74
     0
 42
0.0000000001
 43
0.0000000001
 40
0.0
 40
0.0
 40
0.0
 40
1.0
 40
1.0
 40
1.0
 10
35.5415947390954
 20
20.549803
 30
0.0
 10
35.1007977390954
 20
20.549803
 30
0.0
 10
34.66000073909539
 20
20.549803
 30
0.0
  0
ARC
  5
179
330
1F
100
AcDbEntity
  8
DEFAULT
100
AcDbCircle
 10
34.66000073909539
 20
22.764803
 30
0.0
 40
2.215000000000003
100
AcDbArc
 50
180.0
 51
270.0
  0
SPLINE
  5
17A
330
1F
100
AcDbEntity
  8
DEFAULT
100
AcDbSpline
210
0.0
220
0.0
230
1.0
 70
    24
 71
     2
 72
     6
 73
     3
 74
     0
 42
0.0000000001
 43
0.0000000001
 40
0.0
 40
0.0
 40
0.0
 40
1.0
 40
1.0
 40
1.0
 10
32.44500073909539
 20
22.764803
 30
0.0
 10
32.44500073909539
 20
23.589053
 30
0.0
 10
32.44500073909539
 20
24.413303
 30
0.0
  0
SPLINE
  5
17B
330
1F
100
AcDbEntity
  8
DEFAULT
100
AcDbSpline
210
0.0
220
0.0
230
1.0
 70
     8
 71
     3
 72
    10
 73
     6
 74
     0
 42
0.0000000001
 43
0.0000000001
 40
0.0
 40
0.0
 40
0.0
 40
0.0
 40
0.3981504464745052
 40
0.7369036342365323
 40
1.0
 40
1.0
 40
1.0
 40
1.0
 10
42.83897683491539
 20
19.79872044532
 30
0.0
 10
42.8263524638454
 20
19.80395540244
 30
0.0
 10
42.8036999929454
 20
19.81542123615
 30
0.0
 10
42.77680449212532
 20
19.83740667080018
 30
0.0
 10
42.76789971864305
 20
19.85777313974397
 30
0.0
 10
42.76792288536539
 20
19.86679222499501
 30
0.0
  0
SPLINE
  5
17C
330
1F
100
AcDbEntity
  8
DEFAULT
100
AcDbSpline
210
0.0
220
0.0
230
1.0
 70
    24
 71
     2
 72
     6
 73
     3
 74
     0
 42
0.0000000001
 43
0.0000000001
 40
0.0
 40
0.0
 40
0.0
 40
1.0
 40
1.0
 40
1.0
 10
42.76792288536539
 20
19.86679222499501
 30
0.0
 10
42.7682641902579
 20
20.08758020825501
 30
0.0
 10
42.7686054951504
 20
20.308368191515
 30
0.0
  0
SPLINE
  5
17D
330
1F
100
AcDbEntity
  8
DEFAULT
100
AcDbSpline
210
0.0
220
0.0
230
1.0
 70
     8
 71
     3
 72
    19
 73
    15
 74
     0
 42
0.0000000001
 43
0.0000000001
 40
0.0
 40
0.0
 40
0.0
 40
0.0
 40
1.0
 40
2.0
 40
3.0
 40
4.0
 40
5.0
 40
6.0
 40
7.0
 40
8.0
 40
9.0
 40
10.0
 40
11.0
 40
12.0
 40
12.0
 40
12.0
 40
12.0
 10
42.7686054951504
 20
20.308368191515
 30
0.0
 10
42.77275657182365
 20
20.32172718978634
 30
0.0
 10
42.79991470474384
 20
20.33218075404204
 30
0.0
 10
42.83866540253489
 20
20.33927140630345
 30
0.0
 10
42.8786284277203
 20
20.34517414876413
 30
0.0
 10
42.91866131652809
 20
20.34810036426376
 30
0.0
 10
42.95881129293493
 20
20.34987358267287
 30
0.0
 10
42.99898393387484
 20
20.35046961107035
 30
0.0
 10
43.03915534408019
 20
20.34990985661105
 30
0.0
 10
43.07931136270859
 20
20.34809995453026
 30
0.0
 10
43.1193028096247
 20
20.34493227812912
 30
0.0
 10
43.15942571885229
 20
20.33993192428089
 30
0.0
 10
43.19783365210564
 20
20.33132060122729
 30
0.0
 10
43.22528213222608
 20
20.32197663704635
 30
0.0
 10
43.22939563520039
 20
20.308368191515
 30
0.0
  0
SPLINE
  5
17E
330
1F
100
AcDbEntity
  8
DEFAULT
100
AcDbSpline
210
0.0
220
0.0
230
1.0
 70
    24
 71
     2
 72
     6
 73
     3
 74
     0
 42
0.0000000001
 43
0.0000000001
 40
0.0
 40
0.0
 40
0.0
 40
1.0
 40
1.0
 40
1.0
 10
43.22939563520039
 20
20.308368191515
 30
0.0
 10
43.22973669009289
 20
20.08758020825501
 30
0.0
 10
43.23007774498539
 20
19.86679222499501
 30
0.0
  0
SPLINE
  5
17F
330
1F
100
AcDbEntity
  8
DEFAULT
100
AcDbSpline
210
0.0
220
0.0
230
1.0
 70
     8
 71
     3
 72
    10
 73
     6
 74
     0
 42
0.0000000001
 43
0.0000000001
 40
0.0
 40
0.0
 40
0.0
 40
0.0
 40
0.2596326508427113
 40
0.597837687459618
 40
1.0
 40
1.0
 40
1.0
 40
1.0
 10
43.23007774498539
 20
19.86679222499501
 30
0.0
 10
43.23009336674228
 20
19.85789062125301
 30
0.0
 10
43.22137830594021
 20
19.83763709956978
 30
0.0
 10
43.1945262734254
 20
19.81554191346
 30
0.0
 10
43.1717724444854
 20
19.80400721198001
 30
0.0
 10
43.15902034184539
 20
19.79871925881
 30
0.0
  0
SPLINE
  5
180
330
1F
100
AcDbEntity
  8
DEFAULT
100
AcDbSpline
210
0.0
220
0.0
230
1.0
 70
    24
 71
     2
 72
     6
 73
     3
 74
     0
 42
0.0000000001
 43
0.0000000001
 40
0.0
 40
0.0
 40
0.0
 40
1.0
 40
1.0
 40
1.0
 10
42.44900073909538
 20
16.07480299999999
 30
0.0
 10
42.44900073909538
 20
17.29105299999999
 30
0.0
 10
42.44900073909538
 20
18.50730299999999
 30
0.0
  0
SPLINE
  5
181
330
1F
100
AcDbEntity
  8
DEFAULT
100
AcDbSpline
210
0.0
220
0.0
230
1.0
 70
    24
 71
     2
 72
     6
 73
     3
 74
     0
 42
0.0000000001
 43
0.0000000001
 40
0.0
 40
0.0
 40
0.0
 40
1.0
 40
1.0
 40
1.0
 10
35.3252437390954
 20
20.64980299999999
 30
0.0
 10
35.34613970931274
 20
20.61636248138978
 30
0.0
 10
35.36703567953008
 20
20.58292196277957
 30
0.0
  0
ARC
  5
182
330
1F
100
AcDbEntity
  8
DEFAULT
100
AcDbCircle
 10
35.56208686580804
 20
20.70480292976187
 30
0.0
 40
0.2299998595238275
100
AcDbArc
 50
211.9998856292887
 51
269.9999684343338
  0
SPLINE
  5
183
330
1F
100
AcDbEntity
  8
DEFAULT
100
AcDbSpline
210
0.0
220
0.0
230
1.0
 70
    24
 71
     2
 72
     6
 73
     3
 74
     0
 42
0.0000000001
 43
0.0000000001
 40
-1.0
 40
-1.0
 40
-1.0
 40
0.0
 40
0.0
 40
0.0
 10
35.56208673909539
 20
20.47480307023808
 30
0.0
 10
42.99900023909539
 20
20.47480307023808
 30
0.0
 10
50.4359137390954
 20
20.47480307023808
 30
0.0
  0
ARC
  5
184
330
1F
100
AcDbEntity
  8
DEFAULT
100
AcDbCircle
 10
50.43591361238278
 20
20.70480292976188
 30
0.0
 40
0.2299998595238402
100
AcDbArc
 50
270.0000315656679
 51
328.0001143707092
  0
SPLINE
  5
185
330
1F
100
AcDbEntity
  8
DEFAULT
100
AcDbSpline
210
0.0
220
0.0
230
1.0
 70
    24
 71
     2
 72
     6
 73
     3
 74
     0
 42
0.0000000001
 43
0.0000000001
 40
-1.0
 40
-1.0
 40
-1.0
 40
0.0
 40
0.0
 40
0.0
 10
50.63096479866074
 20
20.58292196277957
 30
0.0
 10
50.65186076887808
 20
20.61636248138978
 30
0.0
 10
50.67275673909542
 20
20.64980299999999
 30
0.0
  0
SPLINE
  5
186
330
1F
100
AcDbEntity
  8
DEFAULT
100
AcDbSpline
210
0.0
220
0.0
230
1.0
 70
     8
 71
     3
 72
     9
 73
     5
 74
     0
 42
0.0000000001
 43
0.0000000001
 40
0.0
 40
0.0
 40
0.0
 40
0.0
 40
1.0
 40
2.0
 40
2.0
 40
2.0
 40
2.0
 10
32.8900527390954
 20
2.571394999999995
 30
0.0
 10
34.45211420401857
 20
2.950173484747921
 30
0.0
 10
37.6111093370496
 20
3.567488049807253
 30
0.0
 10
40.81712324121425
 20
3.856523124367172
 30
0.0
 10
42.4231017390954
 20
3.923268999999991
 30
0.0
  0
ARC
  5
187
330
1F
100
AcDbEntity
  8
DEFAULT
100
AcDbCircle
 10
42.2381567390954
 20
18.62290399999999
 30
0.0
 40
0.0250000400499361
100
AcDbArc
 50
235.5922788969563
 51
270.0
  0
LINE
  5
188
330
1F
100
AcDbEntity
  8
DEFAULT
100
AcDbLine
 10
34.7990007390954
 20
7.183363
 30
0.0
 11
34.7990007390954
 21
6.683363
 31
0.0
  0
CIRCLE
  5
189
330
1F
100
AcDbEntity
  8
DEFAULT
100
AcDbCircle
 10
46.16827873909541
 20
0.0
 30
0.0
 40
1.0
  0
ARC
  5
18A
330
1F
100
AcDbEntity
  8
DEFAULT
100
AcDbCircle
 10
42.3627507390954
 20
18.55730299999999
 30
0.0
 40
0.0500000000000007
100
AcDbArc
 50
180.0
 51
270.0
  0
SPLINE
  5
18B
330
1F
100
AcDbEntity
  8
DEFAULT
100
AcDbSpline
210
0.0
220
0.0
230
1.0
 70
    24
 71
     2
 72
     6
 73
     3
 74
     0
 42
0.0000000001
 43
0.0000000001
 40
0.0
 40
0.0
 40
0.0
 40
1.0
 40
1.0
 40
1.0
 10
41.37252873909542
 20
7.183363
 30
0.0
 10
37.60560073909541
 20
7.183363
 30
0.0
 10
33.8386727390954
 20
7.183363
 30
0.0
  0
SPLINE
  5
18C
330
1F
100
AcDbEntity
  8
DEFAULT
100
AcDbSpline
210
0.0
220
0.0
230
1.0
 70
    24
 71
     2
 72
     6
 73
     3
 74
     0
 42
0.0000000001
 43
0.0000000001
 40
0.0
 40
0.0
 40
0.0
 40
1.0
 40
1.0
 40
1.0
 10
33.29907573909539
 20
7.340362999999996
 30
0.0
 10
42.99900073909539
 20
7.340362999999996
 30
0.0
 10
52.6989257390954
 20
7.340362999999996
 30
0.0
  0
SPLINE
  5
18D
330
1F
100
AcDbEntity
  8
DEFAULT
100
AcDbSpline
210
0.0
220
0.0
230
1.0
 70
     8
 71
     3
 72
    10
 73
     6
 74
     0
 42
0.0000000001
 43
0.0000000001
 40
0.0
 40
0.0
 40
0.0
 40
0.0
 40
0.3077322598062
 40
0.6415592093998
 40
1.0
 40
1.0
 40
1.0
 40
1.0
 10
33.76670168045599
 20
7.189638580579995
 30
0.0
 10
33.75706977958471
 20
7.191540374799999
 30
0.0
 10
33.7371036527539
 20
7.196085536870001
 30
0.0
 10
33.70625686344648
 20
7.204238708129992
 30
0.0
 10
33.68500443566082
 20
7.210250861239999
 30
0.0
 10
33.67400046892151
 20
7.213363253040001
 30
0.0
  0
SPLINE
  5
18E
330
1F
100
AcDbEntity
  8
DEFAULT
100
AcDbSpline
210
0.0
220
0.0
230
1.0
 70
    24
 71
     2
 72
     6
 73
     3
 74
     0
 42
0.0000000001
 43
0.0000000001
 40
0.0
 40
0.0
 40
0.0
 40
1.0
 40
1.0
 40
1.0
 10
46.8080427390954
 20
1.574803000000003
 30
0.0
 10
46.8080427390954
 20
1.515748000000002
 30
0.0
 10
46.8080427390954
 20
1.456693000000001
 30
0.0
  0
SPLINE
  5
18F
330
1F
100
AcDbEntity
  8
DEFAULT
100
AcDbSpline
210
0.0
220
0.0
230
1.0
 70
     8
 71
     3
 72
     9
 73
     5
 74
     0
 42
0.0000000001
 43
0.0000000001
 40
0.0
 40
0.0
 40
0.0
 40
0.0
 40
1.0
 40
2.0
 40
2.0
 40
2.0
 40
2.0
 10
42.43941926504841
 20
4.293168325509995
 30
0.0
 10
40.73244968317361
 20
4.22780780657672
 30
0.0
 10
37.32616518449986
 20
3.907563459878986
 30
0.0
 10
33.9730047300712
 20
3.229196002726539
 30
0.0
 10
32.31887708712038
 20
2.802828593320001
 30
0.0
  0
SPLINE
  5
190
330
1F
100
AcDbEntity
  8
DEFAULT
100
AcDbSpline
210
0.0
220
0.0
230
1.0
 70
     8
 71
     3
 72
     9
 73
     5
 74
     0
 42
0.0000000001
 43
0.0000000001
 40
0.0
 40
0.0
 40
0.0
 40
0.0
 40
1.0
 40
2.0
 40
2.0
 40
2.0
 40
2.0
 10
31.89254573909541
 20
2.801450000000003
 30
0.0
 10
33.54100277252236
 20
3.245090324252757
 30
0.0
 10
36.88800871494429
 20
3.946407243978669
 30
0.0
 10
40.29387591525587
 20
4.258948954957404
 30
0.0
 10
42.00035073774457
 20
4.308404044493145
 30
0.0
  0
SPLINE
  5
191
330
1F
100
AcDbEntity
  8
DEFAULT
100
AcDbSpline
210
0.0
220
0.0
230
1.0
 70
     8
 71
     3
 72
     9
 73
     5
 74
     0
 42
0.0000000001
 43
0.0000000001
 40
0.0
 40
0.0
 40
0.0
 40
0.0
 40
1.0
 40
2.0
 40
2.0
 40
2.0
 40
2.0
 10
45.7067011058554
 20
3.860380560439992
 30
0.0
 10
47.39522324870903
 20
3.768730640890041
 30
0.0
 10
50.76544110481986
 20
3.460611308546618
 30
0.0
 10
54.10420516530495
 20
2.907611522435872
 30
0.0
 10
55.76128509609539
 20
2.570590943529993
 30
0.0
  0
SPLINE
  5
192
330
1F
100
AcDbEntity
  8
DEFAULT
100
AcDbSpline
210
0.0
220
0.0
230
1.0
 70
     8
 71
     3
 72
    14
 73
    10
 74
     0
 42
0.0000000001
 43
0.0000000001
 40
0.0
 40
0.0
 40
0.0
 40
0.0
 40
1.0
 40
2.0
 40
3.0
 40
4.0
 40
5.0
 40
6.0
 40
7.0
 40
7.0
 40
7.0
 40
7.0
 10
41.34819329020839
 20
2.442549823210001
 30
0.0
 10
41.3907430180417
 20
2.438383892167906
 30
0.0
 10
41.47469703891132
 20
2.418421551368212
 30
0.0
 10
41.58859763705082
 20
2.357671458785418
 30
0.0
 10
41.68685492808881
 20
2.273794634603874
 30
0.0
 10
41.76360709322718
 20
2.170648251048789
 30
0.0
 10
41.83442192740056
 20
2.06375233725494
 30
0.0
 10
41.90665071037118
 20
1.957755503676438
 30
0.0
 10
41.95499094210915
 20
1.887193059199703
 30
0.0
 10
41.9769327390954
 20
1.850492000000003
 30
0.0
  0
SPLINE
  5
193
330
1F
100
AcDbEntity
  8
DEFAULT
100
AcDbSpline
210
0.0
220
0.0
230
1.0
 70
     8
 71
     2
 72
    18
 73
    15
 74
     0
 42
0.0000000001
 43
0.0000000001
 40
0.0
 40
0.0
 40
0.0
 40
1.001676237485527
 40
1.001676237485527
 40
2.003352474971055
 40
2.003352474971055
 40
3.005028712456582
 40
3.005028712456582
 40
4.00670494994211
 40
4.00670494994211
 40
5.008381187427638
 40
5.008381187427638
 40
6.010057424913165
 40
6.010057424913165
 40
7.0
 40
7.0
 40
7.0
 10
41.9769327390954
 20
1.850492000000003
 30
0.0
 10
41.98010473909541
 20
1.8469525
 30
0.0
 10
41.98327673909542
 20
1.843412999999998
 30
0.0
 10
41.98689273909541
 20
1.84037
 30
0.0
 10
41.9905087390954
 20
1.837327000000002
 30
0.0
 10
41.99450273909541
 20
1.834837
 30
0.0
 10
41.99849673909542
 20
1.832346999999999
 30
0.0
 10
42.0027512390954
 20
1.830472499999999
 30
0.0
 10
42.00700573909539
 20
1.828598
 30
0.0
 10
42.0114432390954
 20
1.827355999999995
 30
0.0
 10
42.01588073909541
 20
1.82611399999999
 30
0.0
 10
42.0204602390954
 20
1.82551449999999
 30
0.0
 10
42.02503973909539
 20
1.82491499999999
 30
0.0
 10
42.02695748909539
 20
1.824858999999996
 30
0.0
 10
42.0288752390954
 20
1.824803000000003
 30
0.0
  0
SPLINE
  5
194
330
1F
100
AcDbEntity
  8
DEFAULT
100
AcDbSpline
210
0.0
220
0.0
230
1.0
 70
    24
 71
     2
 72
     6
 73
     3
 74
     0
 42
0.0000000001
 43
0.0000000001
 40
0.0
 40
0.0
 40
0.0
 40
1.0
 40
1.0
 40
1.0
 10
42.0288752390954
 20
1.824803000000003
 30
0.0
 10
43.1076169890954
 20
1.824803005882146
 30
0.0
 10
44.18635873909541
 20
1.824803011764288
 30
0.0
  0
ARC
  5
195
330
1F
100
AcDbEntity
  8
DEFAULT
100
AcDbCircle
 10
44.18635871386748
 20
1.89480298823571
 30
0.0
 40
0.0699999764714284
100
AcDbArc
 50
270.0000206493456
 51
320.0011985761637
  0
SPLINE
  5
196
330
1F
100
AcDbEntity
  8
DEFAULT
100
AcDbSpline
210
0.0
220
0.0
230
1.0
 70
    24
 71
     2
 72
     6
 73
     3
 74
     0
 42
0.0000000001
 43
0.0000000001
 40
0.0
 40
0.0
 40
0.0
 40
1.0
 40
1.0
 40
1.0
 10
44.23998274810752
 20
1.849808992438241
 30
0.0
 10
44.37721519113113
 20
2.013356040246912
 30
0.0
 10
44.51444763415473
 20
2.176903088055582
 30
0.0
  0
ARC
  5
197
330
1F
100
AcDbEntity
  8
DEFAULT
100
AcDbCircle
 10
45.08898024172687
 20
1.694814165417
 30
0.0
 40
0.7499982976610524
100
AcDbArc
 50
113.111480627182
 51
140.0000688491918
  0
ARC
  5
198
330
1F
100
AcDbEntity
  8
DEFAULT
100
AcDbCircle
 10
15.21835500000002
 20
1.441068000000001
 30
0.0
 40
0.015625
100
AcDbArc
 50
90.0
 51
180.0
  0
SPLINE
  5
199
330
1F
100
AcDbEntity
  8
DEFAULT
100
AcDbSpline
210
0.0
220
0.0
230
1.0
 70
     8
 71
     3
 72
     9
 73
     5
 74
     0
 42
0.0000000001
 43
0.0000000001
 40
0.0
 40
0.0
 40
0.0
 40
0.0
 40
1.0
 40
2.0
 40
2.0
 40
2.0
 40
2.0
 10
11.08509152595301
 20
4.293168325509995
 30
0.0
 10
9.37812194407821
 20
4.22780780657672
 30
0.0
 10
5.971837445404454
 20
3.907563459878986
 30
0.0
 10
2.618676990975793
 20
3.229196002726539
 30
0.0
 10
0.964549348024974
 20
2.802828593320001
 30
0.0
  0
SPLINE
  5
19A
330
1F
100
AcDbEntity
  8
DEFAULT
100
AcDbSpline
210
0.0
220
0.0
230
1.0
 70
     8
 71
     3
 72
     9
 73
     5
 74
     0
 42
0.0000000001
 43
0.0000000001
 40
0.0
 40
0.0
 40
0.0
 40
0.0
 40
1.0
 40
2.0
 40
2.0
 40
2.0
 40
2.0
 10
1.535724999999985
 20
2.571394999999995
 30
0.0
 10
3.097786464923168
 20
2.950173484747921
 30
0.0
 10
6.256781597954195
 20
3.567488049807253
 30
0.0
 10
9.462795502118844
 20
3.856523124367172
 30
0.0
 10
11.068774
 20
3.923268999999991
 30
0.0
  0
SPLINE
  5
19B
330
1F
100
AcDbEntity
  8
DEFAULT
100
AcDbSpline
210
0.0
220
0.0
230
1.0
 70
    24
 71
     2
 72
     6
 73
     3
 74
     0
 42
0.0000000001
 43
0.0000000001
 40
0.0
 40
0.0
 40
0.0
 40
1.0
 40
1.0
 40
1.0
 10
10.58163199999999
 20
5.058363
 30
0.0
 10
10.4131525
 20
5.058363
 30
0.0
 10
10.24467300000001
 20
5.058363
 30
0.0
  0
SPLINE
  5
19C
330
1F
100
AcDbEntity
  8
DEFAULT
100
AcDbSpline
210
0.0
220
0.0
230
1.0
 70
    24
 71
     2
 72
     6
 73
     3
 74
     0
 42
0.0000000001
 43
0.0000000001
 40
0.0
 40
0.0
 40
0.0
 40
1.0
 40
1.0
 40
1.0
 10
16.024581
 20
1.574803000000003
 30
0.0
 10
16.024581
 20
1.515748000000002
 30
0.0
 10
16.024581
 20
1.456693000000001
 30
0.0
  0
SPLINE
  5
19D
330
1F
100
AcDbEntity
  8
DEFAULT
100
AcDbSpline
210
0.0
220
0.0
230
1.0
 70
    24
 71
     2
 72
     6
 73
     3
 74
     0
 42
0.0000000001
 43
0.0000000001
 40
0.0
 40
0.0
 40
0.0
 40
1.0
 40
1.0
 40
1.0
 10
16.252256
 20
1.637293
 30
0.0
 10
16.2293355
 20
2.188184499999998
 30
0.0
 10
16.20641500000001
 20
2.739075999999997
 30
0.0
  0
SPLINE
  5
19E
330
1F
100
AcDbEntity
  8
DEFAULT
100
AcDbSpline
210
0.0
220
0.0
230
1.0
 70
     8
 71
     3
 72
    22
 73
    18
 74
     0
 42
0.0000000001
 43
0.0000000001
 40
0.0
 40
0.0
 40
0.0
 40
0.0
 40
0.1167500873722
 40
0.2243633665626
 40
0.3234661086496
 40
0.4146584866172
 40
0.4983865594995
 40
0.5751927987383
 40
0.6458186264644
 40
0.7102228255037
 40
0.767575789936
 40
0.8177842197205
 40
0.8615342953004
 40
0.9001349047782
 40
0.9349316304662
 40
0.9678090363997
 40
1.0
 40
1.0
 40
1.0
 40
1.0
 10
10.77624115061599
 20
4.386700184839995
 30
0.0
 10
10.77581433538899
 20
4.415597130050003
 30
0.0
 10
10.77450384049698
 20
4.471124282899993
 30
0.0
 10
10.770946987717
 20
4.551121786989995
 30
0.0
 10
10.76591648071199
 20
4.624701759659999
 30
0.0
 10
10.75942395087799
 20
4.692231530320001
 30
0.0
 10
10.751453807878
 20
4.754044583039999
 30
0.0
 10
10.74194642505601
 20
4.81048743385
 30
0.0
 10
10.73080361766498
 20
4.861751786580001
 30
0.0
 10
10.717954338045
 20
4.907643676630002
 30
0.0
 10
10.70342505000898
 20
4.947708784859998
 30
0.0
 10
10.68731690687799
 20
4.981603659089998
 30
0.0
 10
10.669635759785
 20
5.00937153449
 30
0.0
 10
10.65025906906201
 20
5.031156432060001
 30
0.0
 10
10.62894354529301
 20
5.046966309859997
 30
0.0
 10
10.60579826151599
 20
5.05641742652999
 30
0.0
 10
10.589600456104
 20
5.05836325304
 30
0.0
 10
10.581631965498
 20
5.05836325304
 30
0.0
  0
SPLINE
  5
19F
330
1F
100
AcDbEntity
  8
DEFAULT
100
AcDbSpline
210
0.0
220
0.0
230
1.0
 70
    24
 71
     2
 72
     6
 73
     3
 74
     0
 42
0.0000000001
 43
0.0000000001
 40
0.0
 40
0.0
 40
0.0
 40
1.0
 40
1.0
 40
1.0
 10
11.26967299999999
 20
6.733362999999997
 30
0.0
 10
11.64467299999999
 20
6.733362999999997
 30
0.0
 10
12.019673
 20
6.733362999999997
 30
0.0
  0
SPLINE
  5
1A0
330
1F
100
AcDbEntity
  8
DEFAULT
100
AcDbSpline
210
0.0
220
0.0
230
1.0
 70
     8
 71
     2
 72
    18
 73
    15
 74
     0
 42
0.0000000001
 43
0.0000000001
 40
0.0
 40
0.0
 40
0.0
 40
1.0
 40
1.0
 40
2.0
 40
2.0
 40
3.0
 40
3.0
 40
4.0
 40
4.0
 40
5.0
 40
5.0
 40
6.0
 40
6.0
 40
7.0
 40
7.0
 40
7.0
 10
16.206416
 20
2.739077999999992
 30
0.0
 10
16.20606100000001
 20
2.742706499999997
 30
0.0
 10
16.20570600000001
 20
2.746335000000002
 30
0.0
 10
16.204449
 20
2.7515845
 30
0.0
 10
16.20319199999999
 20
2.756833999999998
 30
0.0
 10
16.2011215
 20
2.761777499999994
 30
0.0
 10
16.19905100000001
 20
2.76672099999999
 30
0.0
 10
16.19626450000001
 20
2.77123799999999
 30
0.0
 10
16.19347800000001
 20
2.77575499999999
 30
0.0
 10
16.19020950000001
 20
2.779647999999995
 30
0.0
 10
16.186941
 20
2.783541
 30
0.0
 10
16.18335350000001
 20
2.786832499999996
 30
0.0
 10
16.17976600000001
 20
2.790123999999992
 30
0.0
 10
16.17868550000001
 20
2.790973999999991
 30
0.0
 10
16.17760500000001
 20
2.791823999999991
 30
0.0
  0
ARC
  5
1A1
330
1F
100
AcDbEntity
  8
DEFAULT
100
AcDbCircle
 10
16.03934600000001
 20
0.5448949999999968
 30
0.0
 40
0.2362201456744931
100
AcDbArc
 50
283.2478113805403
 51
359.9999999999999
  0
SPLINE
  5
1A2
330
1F
100
AcDbEntity
  8
DEFAULT
100
AcDbSpline
210
0.0
220
0.0
230
1.0
 70
    24
 71
     2
 72
     6
 73
     3
 74
     0
 42
0.0000000001
 43
0.0000000001
 40
0.0
 40
0.0
 40
0.0
 40
1.0
 40
1.0
 40
1.0
 10
1.240156999999982
 20
0.3149609999999967
 30
0.0
 10
1.259842499999991
 20
0.3149609999999967
 30
0.0
 10
1.279527999999999
 20
0.3149609999999967
 30
0.0
  0
SPLINE
  5
1A3
330
1F
100
AcDbEntity
  8
DEFAULT
100
AcDbSpline
210
0.0
220
0.0
230
1.0
 70
     8
 71
     3
 72
    11
 73
     7
 74
     0
 42
0.0000000001
 43
0.0000000001
 40
0.0
 40
0.0
 40
0.0
 40
0.0
 40
0.2644554190053
 40
0.5206854907126
 40
0.7648104430241
 40
1.0
 40
1.0
 40
1.0
 40
1.0
 10
10.21354373677699
 20
5.358363253039997
 30
0.0
 10
10.21354373677699
 20
5.35188806971999
 30
0.0
 10
10.21574663546199
 20
5.339024108609991
 30
0.0
 10
10.22532698891801
 20
5.32245310255999
 30
0.0
 10
10.23993670312101
 20
5.311096531030003
 30
0.0
 10
10.25181986578
 20
5.30836325304
 30
0.0
 10
10.25757847530898
 20
5.30836325304
 30
0.0
  0
SPLINE
  5
1A4
330
1F
100
AcDbEntity
  8
DEFAULT
100
AcDbSpline
210
0.0
220
0.0
230
1.0
 70
    24
 71
     2
 72
     6
 73
     3
 74
     0
 42
0.0000000001
 43
0.0000000001
 40
0.0
 40
0.0
 40
0.0
 40
1.0
 40
1.0
 40
1.0
 10
25.33250400000001
 20
1.63689699999999
 30
0.0
 10
25.31363800000001
 20
2.17714999999999
 30
0.0
 10
25.29477200000001
 20
2.71740299999999
 30
0.0
  0
SPLINE
  5
1A5
330
1F
100
AcDbEntity
  8
DEFAULT
100
AcDbSpline
210
0.0
220
0.0
230
1.0
 70
    24
 71
     2
 72
     6
 73
     3
 74
     0
 42
0.0000000001
 43
0.0000000001
 40
0.0
 40
0.0
 40
0.0
 40
1.0
 40
1.0
 40
1.0
 10
9.420991999999991
 20
5.308363
 30
0.0
 10
11.644677
 20
5.308363
 30
0.0
 10
13.868362
 20
5.308363
 30
0.0
  0
ARC
  5
1A6
330
1F
100
AcDbEntity
  8
DEFAULT
100
AcDbCircle
 10
16.19230700000001
 20
1.634802999999991
 30
0.0
 40
0.0600003445855202
100
AcDbArc
 50
270.0
 51
2.378430564960792
  0
ARC
  5
1A7
330
1F
100
AcDbEntity
  8
DEFAULT
100
AcDbCircle
 10
15.27512399999999
 20
1.634802999999991
 30
0.0
 40
0.0599999668541479
100
AcDbArc
 50
178.7651789988416
 51
270.0
  0
SPLINE
  5
1A8
330
1F
100
AcDbEntity
  8
DEFAULT
100
AcDbSpline
210
0.0
220
0.0
230
1.0
 70
    24
 71
     2
 72
     6
 73
     3
 74
     0
 42
0.0000000001
 43
0.0000000001
 40
0.0
 40
0.0
 40
0.0
 40
1.0
 40
1.0
 40
1.0
 10
12.28092300000002
 20
18.50730299999999
 30
0.0
 10
11.64467300000001
 20
18.50730299999999
 30
0.0
 10
11.008423
 20
18.50730299999999
 30
0.0
  0
SPLINE
  5
1A9
330
1F
100
AcDbEntity
  8
DEFAULT
100
AcDbSpline
210
0.0
220
0.0
230
1.0
 70
    24
 71
     2
 72
     6
 73
     3
 74
     0
 42
0.0000000001
 43
0.0000000001
 40
0.0
 40
0.0
 40
0.0
 40
1.0
 40
1.0
 40
1.0
 10
25.18010600000001
 20
1.574803000000003
 30
0.0
 10
25.18010600000001
 20
1.515748000000002
 30
0.0
 10
25.18010600000001
 20
1.456693000000001
 30
0.0
  0
SPLINE
  5
1AA
330
1F
100
AcDbEntity
  8
DEFAULT
100
AcDbSpline
210
0.0
220
0.0
230
1.0
 70
    24
 71
     2
 72
     6
 73
     3
 74
     0
 42
0.0000000001
 43
0.0000000001
 40
0.0
 40
0.0
 40
0.0
 40
1.0
 40
1.0
 40
1.0
 10
2.319673000000002
 20
7.310362999999995
 30
0.0
 10
2.319673000000002
 20
7.261862999999998
 30
0.0
 10
2.319673000000002
 20
7.213363000000001
 30
0.0
  0
SPLINE
  5
1AB
330
1F
100
AcDbEntity
  8
DEFAULT
100
AcDbSpline
210
0.0
220
0.0
230
1.0
 70
    24
 71
     2
 72
     6
 73
     3
 74
     0
 42
0.0000000001
 43
0.0000000001
 40
0.0
 40
0.0
 40
0.0
 40
1.0
 40
1.0
 40
1.0
 10
11.26967299999999
 20
6.733362999999997
 30
0.0
 10
11.26967299999999
 20
6.973362999999999
 30
0.0
 10
11.26967299999999
 20
7.213363000000001
 30
0.0
  0
SPLINE
  5
1AC
330
1F
100
AcDbEntity
  8
DEFAULT
100
AcDbSpline
210
0.0
220
0.0
230
1.0
 70
    24
 71
     2
 72
     6
 73
     3
 74
     0
 42
0.0000000001
 43
0.0000000001
 40
0.0
 40
0.0
 40
0.0
 40
1.0
 40
1.0
 40
1.0
 10
24.60923999999999
 20
1.574803000000003
 30
0.0
 10
24.60923999999999
 20
1.515748000000002
 30
0.0
 10
24.60923999999999
 20
1.456693000000001
 30
0.0
  0
SPLINE
  5
1AD
330
1F
100
AcDbEntity
  8
DEFAULT
100
AcDbSpline
210
0.0
220
0.0
230
1.0
 70
    24
 71
     2
 72
     6
 73
     3
 74
     0
 42
0.0000000001
 43
0.0000000001
 40
0.0
 40
0.0
 40
0.0
 40
1.0
 40
1.0
 40
1.0
 10
43.37400073909539
 20
7.310362999999995
 30
0.0
 10
43.37400073909539
 20
7.261862999999998
 30
0.0
 10
43.37400073909539
 20
7.213363000000001
 30
0.0
  0
SPLINE
  5
1AE
330
1F
100
AcDbEntity
  8
DEFAULT
100
AcDbSpline
210
0.0
220
0.0
230
1.0
 70
    24
 71
     2
 72
     6
 73
     3
 74
     0
 42
0.0000000001
 43
0.0000000001
 40
0.0
 40
0.0
 40
0.0
 40
1.0
 40
1.0
 40
1.0
 10
42.31275073909539
 20
18.59790399999999
 30
0.0
 10
42.31275073909539
 20
18.57760349999999
 30
0.0
 10
42.31275073909539
 20
18.55730299999999
 30
0.0
  0
ARC
  5
1AF
330
1F
100
AcDbEntity
  8
DEFAULT
100
AcDbCircle
 10
43.63525073909541
 20
18.55730299999999
 30
0.0
 40
0.0500000000000007
100
AcDbArc
 50
270.0
 51
0.0
  0
ARC
  5
1B0
330
1F
100
AcDbEntity
  8
DEFAULT
100
AcDbCircle
 10
43.75984373909542
 20
18.62290399999999
 30
0.0
 40
0.0250000400499361
100
AcDbArc
 50
270.0
 51
304.4077211030437
  0
CIRCLE
  5
1B1
330
1F
100
AcDbEntity
  8
DEFAULT
100
AcDbCircle
 10
31.35432773909541
 20
0.0
 30
0.0
 40
1.279528000000001
  0
SPLINE
  5
1B2
330
1F
100
AcDbEntity
  8
DEFAULT
100
AcDbSpline
210
0.0
220
0.0
230
1.0
 70
    24
 71
     2
 72
     6
 73
     3
 74
     0
 42
0.0000000001
 43
0.0000000001
 40
0.0
 40
0.0
 40
0.0
 40
1.0
 40
1.0
 40
1.0
 10
41.56787173909539
 20
7.310362999999995
 30
0.0
 10
41.56787173909539
 20
6.334362999999996
 30
0.0
 10
41.56787173909539
 20
5.358362999999997
 30
0.0
  0
SPLINE
  5
1B3
330
1F
100
AcDbEntity
  8
DEFAULT
100
AcDbSpline
210
0.0
220
0.0
230
1.0
 70
    24
 71
     2
 72
     6
 73
     3
 74
     0
 42
0.0000000001
 43
0.0000000001
 40
0.0
 40
0.0
 40
0.0
 40
1.0
 40
1.0
 40
1.0
 10
42.0490007390954
 20
16.07480299999999
 30
0.0
 10
42.99900073909539
 20
16.07480299999999
 30
0.0
 10
43.94900073909538
 20
16.07480299999999
 30
0.0
  0
SPLINE
  5
1B4
330
1F
100
AcDbEntity
  8
DEFAULT
100
AcDbSpline
210
0.0
220
0.0
230
1.0
 70
    24
 71
     2
 72
     6
 73
     3
 74
     0
 42
0.0000000001
 43
0.0000000001
 40
0.0
 40
0.0
 40
0.0
 40
1.0
 40
1.0
 40
1.0
 10
33.34904873909541
 20
6.683363
 30
0.0
 10
34.0874342390954
 20
6.683363
 30
0.0
 10
34.82581973909539
 20
6.683363
 30
0.0
  0
SPLINE
  5
1B5
330
1F
100
AcDbEntity
  8
DEFAULT
100
AcDbSpline
210
0.0
220
0.0
230
1.0
 70
    24
 71
     2
 72
     6
 73
     3
 74
     0
 42
0.0000000001
 43
0.0000000001
 40
0.0
 40
0.0
 40
0.0
 40
1.0
 40
1.0
 40
1.0
 10
33.6740007390954
 20
7.310362999999995
 30
0.0
 10
38.1490007390954
 20
7.310362999999995
 30
0.0
 10
42.62400073909539
 20
7.310362999999995
 30
0.0
  0
SPLINE
  5
1B6
330
1F
100
AcDbEntity
  8
DEFAULT
100
AcDbSpline
210
0.0
220
0.0
230
1.0
 70
    24
 71
     2
 72
     6
 73
     3
 74
     0
 42
0.0000000001
 43
0.0000000001
 40
0.0
 40
0.0
 40
0.0
 40
1.0
 40
1.0
 40
1.0
 10
42.24905973909542
 20
1.574803000000003
 30
0.0
 10
42.99900023909541
 20
1.574803000000003
 30
0.0
 10
43.7489407390954
 20
1.574803000000003
 30
0.0
  0
ARC
  5
1B7
330
1F
100
AcDbEntity
  8
DEFAULT
100
AcDbCircle
 10
55.3238037390954
 20
0.0
 30
0.0
 40
1.279527939310224
100
AcDbArc
 50
15.76206956729274
 51
18.5756033351671
  0
SPLINE
  5
1B8
330
1F
100
AcDbEntity
  8
DEFAULT
100
AcDbSpline
210
0.0
220
0.0
230
1.0
 70
    24
 71
     2
 72
     6
 73
     3
 74
     0
 42
0.0000000001
 43
0.0000000001
 40
0.0
 40
0.0
 40
0.0
 40
1.0
 40
1.0
 40
1.0
 10
56.78541773909539
 20
1.441068000000001
 30
0.0
 10
56.78541773909539
 20
0.9929814999999991
 30
0.0
 10
56.78541773909539
 20
0.5448949999999968
 30
0.0
  0
CIRCLE
  5
1B9
330
1F
100
AcDbEntity
  8
DEFAULT
100
AcDbCircle
 10
55.3238037390954
 20
0.0
 30
0.0
 40
1.279528000000001
  0
SPLINE
  5
1BA
330
1F
100
AcDbEntity
  8
DEFAULT
100
AcDbSpline
210
0.0
220
0.0
230
1.0
 70
    24
 71
     2
 72
     6
 73
     3
 74
     0
 42
0.0000000001
 43
0.0000000001
 40
0.0
 40
0.0
 40
0.0
 40
1.0
 40
1.0
 40
1.0
 10
55.7125827390954
 20
1.441068000000001
 30
0.0
 10
55.7125827390954
 20
1.360298
 30
0.0
 10
55.7125827390954
 20
1.279527999999999
 30
0.0
  0
ARC
  5
1BB
330
1F
100
AcDbEntity
  8
DEFAULT
100
AcDbCircle
 10
55.7282077390954
 20
1.441068000000001
 30
0.0
 40
0.015625
100
AcDbArc
 50
90.0
 51
180.0
  0
SPLINE
  5
1BC
330
1F
100
AcDbEntity
  8
DEFAULT
100
AcDbSpline
210
0.0
220
0.0
230
1.0
 70
    24
 71
     2
 72
     6
 73
     3
 74
     0
 42
0.0000000001
 43
0.0000000001
 40
0.0
 40
0.0
 40
0.0
 40
1.0
 40
1.0
 40
1.0
 10
33.2990007390954
 20
6.733362999999997
 30
0.0
 10
33.2990007390954
 20
7.036862999999997
 30
0.0
 10
33.2990007390954
 20
7.340362999999996
 30
0.0
  0
SPLINE
  5
1BD
330
1F
100
AcDbEntity
  8
DEFAULT
100
AcDbSpline
210
0.0
220
0.0
230
1.0
 70
    24
 71
     2
 72
     6
 73
     3
 74
     0
 42
0.0000000001
 43
0.0000000001
 40
0.0
 40
0.0
 40
0.0
 40
1.0
 40
1.0
 40
1.0
 10
55.90531173909541
 20
2.40050699999999
 30
0.0
 10
55.91835873909541
 20
2.016607999999991
 30
0.0
 10
55.93140573909541
 20
1.632708999999991
 30
0.0
  0
SPLINE
  5
1BE
330
1F
100
AcDbEntity
  8
DEFAULT
100
AcDbSpline
210
0.0
220
0.0
230
1.0
 70
    24
 71
     2
 72
     6
 73
     3
 74
     0
 42
0.0000000001
 43
0.0000000001
 40
0.0
 40
0.0
 40
0.0
 40
1.0
 40
1.0
 40
1.0
 10
0.5608579999999961
 20
60.60476628930708
 30
0.0
 10
-0.3298060000000049
 20
60.60476628930708
 30
0.0
 10
-1.220470000000006
 20
60.60476628930708
 30
0.0
  0
ARC
  5
1BF
330
1F
100
AcDbEntity
  8
DEFAULT
100
AcDbCircle
 10
-1.043306000000001
 20
43.88671528930706
 30
0.0
 40
0.2362210042417925
100
AcDbArc
 50
180.0
 51
265.3395701367957
  0
SPLINE
  5
1C0
330
1F
100
AcDbEntity
  8
DEFAULT
100
AcDbSpline
210
0.0
220
0.0
230
1.0
 70
    24
 71
     2
 72
     6
 73
     3
 74
     0
 42
0.0000000001
 43
0.0000000001
 40
0.0
 40
0.0
 40
0.0
 40
1.0
 40
1.0
 40
1.0
 10
-1.279527000000002
 20
44.99412628930706
 30
0.0
 10
-1.279527000000002
 20
44.63475628930706
 30
0.0
 10
-1.279527000000002
 20
44.27538628930706
 30
0.0
  0
SPLINE
  5
1C1
330
1F
100
AcDbEntity
  8
DEFAULT
100
AcDbSpline
210
0.0
220
0.0
230
1.0
 70
     8
 71
     3
 72
     8
 73
     4
 74
     0
 42
0.0000000001
 43
0.0000000001
 40
0.9529520386704029
 40
0.9529520386704029
 40
0.9529520386704029
 40
0.9529520386704029
 40
1.0
 40
1.0
 40
1.0
 40
1.0
 10
44.08920425481108
 20
18.81204230478143
 30
0.0
 10
43.98508753192006
 20
18.74479288099886
 30
0.0
 10
43.88000696096721
 20
18.67490462720234
 30
0.0
 10
43.7739706833374
 20
18.60227850362399
 30
0.0
  0
ARC
  5
1C2
330
1F
100
AcDbEntity
  8
DEFAULT
100
AcDbCircle
 10
22.926169
 20
51.67486928930707
 30
0.0
 40
0.2362205058949283
100
AcDbArc
 50
180.0
 51
265.3395504293516
  0
ARC
  5
1C3
330
1F
100
AcDbEntity
  8
DEFAULT
100
AcDbCircle
 10
25.189948
 20
52.87566628930706
 30
0.0
 40
0.0590549917026477
100
AcDbArc
 50
322.923641060566
 51
0.0
  0
ARC
  5
1C4
330
1F
100
AcDbEntity
  8
DEFAULT
100
AcDbCircle
 10
13.77064399999999
 20
65.77245028930706
 30
0.0
 40
0.2362200058949278
100
AcDbArc
 50
94.66044957064777
 51
180.0
  0
ARC
  5
1C5
330
1F
100
AcDbEntity
  8
DEFAULT
100
AcDbCircle
 10
0.9251979999999946
 20
60.21106528930706
 30
0.0
 40
0.536417611783424
100
AcDbArc
 50
99.68378664429595
 51
188.2244209839321
  0
SPLINE
  5
1C6
330
1F
100
AcDbEntity
  8
DEFAULT
100
AcDbSpline
210
0.0
220
0.0
230
1.0
 70
    24
 71
     2
 72
     6
 73
     3
 74
     0
 42
0.0000000001
 43
0.0000000001
 40
0.0
 40
0.0
 40
0.0
 40
1.0
 40
1.0
 40
1.0
 10
16.27556500000001
 20
1.441068000000001
 30
0.0
 10
16.27556500000001
 20
0.9929814999999991
 30
0.0
 10
16.27556500000001
 20
0.5448949999999968
 30
0.0
  0
SPLINE
  5
1C7
330
1F
100
AcDbEntity
  8
DEFAULT
100
AcDbSpline
210
0.0
220
0.0
230
1.0
 70
    24
 71
     2
 72
     6
 73
     3
 74
     0
 42
0.0000000001
 43
0.0000000001
 40
0.0
 40
0.0
 40
0.0
 40
1.0
 40
1.0
 40
1.0
 10
1.210631000000006
 20
1.574803000000003
 30
0.0
 10
1.210631000000006
 20
1.515748000000002
 30
0.0
 10
1.210631000000006
 20
1.456693000000001
 30
0.0
  0
ARC
  5
1C8
330
1F
100
AcDbEntity
  8
DEFAULT
100
AcDbCircle
 10
42.6740007390954
 20
6.733362999999997
 30
0.0
 40
0.0499999999999989
100
AcDbArc
 50
180.0
 51
270.0
  0
SPLINE
  5
1C9
330
1F
100
AcDbEntity
  8
DEFAULT
100
AcDbSpline
210
0.0
220
0.0
230
1.0
 70
    24
 71
     2
 72
     6
 73
     3
 74
     0
 42
0.0000000001
 43
0.0000000001
 40
0.0
 40
0.0
 40
0.0
 40
1.0
 40
1.0
 40
1.0
 10
43.91001373909539
 20
5.058363
 30
0.0
 10
42.99900073909539
 20
5.058363
 30
0.0
 10
42.0879877390954
 20
5.058363
 30
0.0
  0
CIRCLE
  5
1CA
330
1F
100
AcDbEntity
  8
DEFAULT
100
AcDbCircle
 10
31.35432773909541
 20
0.0
 30
0.0
 40
1.0
  0
ARC
  5
1CB
330
1F
100
AcDbEntity
  8
DEFAULT
100
AcDbCircle
 10
31.75873173909541
 20
1.441068000000001
 30
0.0
 40
0.015625
100
AcDbArc
 50
90.0
 51
180.0
  0
ARC
  5
1CC
330
1F
100
AcDbEntity
  8
DEFAULT
100
AcDbCircle
 10
32.5797227390954
 20
0.5448949999999968
 30
0.0
 40
0.2362201456744931
100
AcDbArc
 50
283.2478113805395
 51
359.9999999999999
  0
ARC
  5
1CD
330
1F
100
AcDbEntity
  8
DEFAULT
100
AcDbCircle
 10
32.80031673909541
 20
1.441068000000001
 30
0.0
 40
0.015625
100
AcDbArc
 50
0.0
 51
90.0
  0
ARC
  5
1CE
330
1F
100
AcDbEntity
  8
DEFAULT
100
AcDbCircle
 10
22.926169
 20
53.17095128930707
 30
0.0
 40
0.2362210042417928
100
AcDbArc
 50
94.66042986320495
 51
180.0
  0
SPLINE
  5
1CF
330
1F
100
AcDbEntity
  8
DEFAULT
100
AcDbSpline
210
0.0
220
0.0
230
1.0
 70
     8
 71
     3
 72
     9
 73
     5
 74
     0
 42
0.0000000001
 43
0.0000000001
 40
0.0
 40
0.0
 40
0.0
 40
0.0
 40
1.0
 40
2.0
 40
2.0
 40
2.0
 40
2.0
 10
46.81810280892542
 20
2.802828593329991
 30
0.0
 10
46.1908685346303
 20
3.19944993992506
 30
0.0
 10
44.85959672064685
 20
3.877145302454451
 30
0.0
 10
43.40384797307674
 20
4.22509721949902
 30
0.0
 10
42.66414727045641
 20
4.293168325509995
 30
0.0
  0
SPLINE
  5
1D0
330
1F
100
AcDbEntity
  8
DEFAULT
100
AcDbSpline
210
0.0
220
0.0
230
1.0
 70
     8
 71
     3
 72
    11
 73
     7
 74
     0
 42
0.0000000001
 43
0.0000000001
 40
0.0
 40
0.0
 40
0.0
 40
0.0
 40
0.2857994331608
 40
0.5535232494026
 40
0.7900445159736
 40
1.0
 40
1.0
 40
1.0
 40
1.0
 10
42.2825968476664
 20
4.386700184839995
 30
0.0
 10
42.2827458715504
 20
4.376610725139997
 30
0.0
 10
42.28564443135942
 20
4.356988368529997
 30
0.0
 10
42.29760621511441
 20
4.33129974117
 30
0.0
 10
42.31606832874139
 20
4.313068125499996
 30
0.0
 10
42.33202000945239
 20
4.30836325304
 30
0.0
 10
42.33943278990542
 20
4.30836325304
 30
0.0
  0
SPLINE
  5
1D1
330
1F
100
AcDbEntity
  8
DEFAULT
100
AcDbSpline
210
0.0
220
0.0
230
1.0
 70
    24
 71
     2
 72
     6
 73
     3
 74
     0
 42
0.0000000001
 43
0.0000000001
 40
0.0
 40
0.0
 40
0.0
 40
1.0
 40
1.0
 40
1.0
 10
43.09900073909542
 20
6.683363
 30
0.0
 10
43.09900073909542
 20
6.201881999999998
 30
0.0
 10
43.09900073909542
 20
5.720400999999995
 30
0.0
  0
SPLINE
  5
1D2
330
1F
100
AcDbEntity
  8
DEFAULT
100
AcDbSpline
210
0.0
220
0.0
230
1.0
 70
     8
 71
     3
 72
    11
 73
     7
 74
     0
 42
0.0000000001
 43
0.0000000001
 40
0.0
 40
0.0
 40
0.0
 40
0.0
 40
0.2099554840264
 40
0.4464767505974
 40
0.7142005668392
 40
1.0
 40
1.0
 40
1.0
 40
1.0
 10
42.18740483195042
 20
4.30836325304
 30
0.0
 10
42.17999205149739
 20
4.30836325304
 30
0.0
 10
42.1640403707864
 20
4.313068125499996
 30
0.0
 10
42.14557825715941
 20
4.33129974117
 30
0.0
 10
42.13361647340339
 20
4.356988368529997
 30
0.0
 10
42.1307179135954
 20
4.376610725139997
 30
0.0
 10
42.1305688897114
 20
4.386700184839995
 30
0.0
  0
SPLINE
  5
1D3
330
1F
100
AcDbEntity
  8
DEFAULT
100
AcDbSpline
210
0.0
220
0.0
230
1.0
 70
     8
 71
     3
 72
    10
 73
     6
 74
     0
 42
0.0000000001
 43
0.0000000001
 40
0.0
 40
0.0
 40
0.0
 40
0.0
 40
0.3333950301424
 40
0.6667275652557
 40
1.0
 40
1.0
 40
1.0
 40
1.0
 10
55.93140524935542
 20
1.632709143930001
 30
0.0
 10
55.93175854013539
 20
1.622587860059994
 30
0.0
 10
55.93784300655541
 20
1.602161892189997
 30
0.0
 10
55.96059696417539
 20
1.580176337929998
 30
0.0
 10
55.98121914555539
 20
1.574803113729999
 30
0.0
 10
55.9913428694354
 20
1.574803113729999
 30
0.0
  0
SPLINE
  5
1D4
330
1F
100
AcDbEntity
  8
DEFAULT
100
AcDbSpline
210
0.0
220
0.0
230
1.0
 70
    24
 71
     2
 72
     6
 73
     3
 74
     0
 42
0.0000000001
 43
0.0000000001
 40
0.0
 40
0.0
 40
0.0
 40
1.0
 40
1.0
 40
1.0
 10
46.6952337390954
 20
1.279527999999999
 30
0.0
 10
46.43175623909541
 20
1.279527999999999
 30
0.0
 10
46.16827873909541
 20
1.279527999999999
 30
0.0
  0
SPLINE
  5
1D5
330
1F
100
AcDbEntity
  8
DEFAULT
100
AcDbSpline
210
0.0
220
0.0
230
1.0
 70
    24
 71
     2
 72
     6
 73
     3
 74
     0
 42
0.0000000001
 43
0.0000000001
 40
0.0
 40
0.0
 40
0.0
 40
1.0
 40
1.0
 40
1.0
 10
31.9940917390954
 20
1.574803000000003
 30
0.0
 10
31.9940917390954
 20
1.515748000000002
 30
0.0
 10
31.9940917390954
 20
1.456693000000001
 30
0.0
  0
ARC
  5
1D6
330
1F
100
AcDbEntity
  8
DEFAULT
100
AcDbCircle
 10
42.65400073909539
 20
7.310362999999995
 30
0.0
 40
0.0300000000000011
100
AcDbArc
 50
90.0
 51
180.0
  0
SPLINE
  5
1D7
330
1F
100
AcDbEntity
  8
DEFAULT
100
AcDbSpline
210
0.0
220
0.0
230
1.0
 70
    24
 71
     2
 72
     6
 73
     3
 74
     0
 42
0.0000000001
 43
0.0000000001
 40
0.0
 40
0.0
 40
0.0
 40
1.0
 40
1.0
 40
1.0
 10
46.6952337390954
 20
1.279527999999999
 30
0.0
 10
46.6952337390954
 20
1.222747499999997
 30
0.0
 10
46.6952337390954
 20
1.165966999999995
 30
0.0
  0
SPLINE
  5
1D8
330
1F
100
AcDbEntity
  8
DEFAULT
100
AcDbSpline
210
0.0
220
0.0
230
1.0
 70
     8
 71
     3
 72
    10
 73
     6
 74
     0
 42
0.0000000001
 43
0.0000000001
 40
0.0
 40
0.0
 40
0.0
 40
0.0
 40
0.3388354616947
 40
0.6721995844884
 40
1.0
 40
1.0
 40
1.0
 40
1.0
 10
42.85231438340939
 20
5.358363253039997
 30
0.0
 10
42.8523143868784
 20
5.349757244529997
 30
0.0
 10
42.85672768259339
 20
5.332366427899998
 30
0.0
 10
42.87499256689041
 20
5.313159914639996
 30
0.0
 10
42.8921130283404
 20
5.308363232519994
 30
0.0
 10
42.90043876010141
 20
5.30836325304
 30
0.0
  0
LINE
  5
1D9
330
1F
100
AcDbEntity
  8
DEFAULT
100
AcDbLine
 10
33.76670173909541
 20
7.189639
 30
0.0
 11
33.76670173909541
 21
6.683363
 31
0.0
  0
SPLINE
  5
1DA
330
1F
100
AcDbEntity
  8
DEFAULT
100
AcDbSpline
210
0.0
220
0.0
230
1.0
 70
    24
 71
     2
 72
     6
 73
     3
 74
     0
 42
0.0000000001
 43
0.0000000001
 40
0.0
 40
0.0
 40
0.0
 40
1.0
 40
1.0
 40
1.0
 10
43.37400073909539
 20
6.733362999999997
 30
0.0
 10
43.37400073909539
 20
6.973362999999999
 30
0.0
 10
43.37400073909539
 20
7.213363000000001
 30
0.0
  0
SPLINE
  5
1DB
330
1F
100
AcDbEntity
  8
DEFAULT
100
AcDbSpline
210
0.0
220
0.0
230
1.0
 70
    24
 71
     2
 72
     6
 73
     3
 74
     0
 42
0.0000000001
 43
0.0000000001
 40
0.0
 40
0.0
 40
0.0
 40
1.0
 40
1.0
 40
1.0
 10
55.7282077390954
 20
1.456693000000001
 30
0.0
 10
56.24900023909539
 20
1.456693000000001
 30
0.0
 10
56.76979273909539
 20
1.456693000000001
 30
0.0
  0
SPLINE
  5
1DC
330
1F
100
AcDbEntity
  8
DEFAULT
100
AcDbSpline
210
0.0
220
0.0
230
1.0
 70
    24
 71
     2
 72
     6
 73
     3
 74
     0
 42
0.0000000001
 43
0.0000000001
 40
0.0
 40
0.0
 40
0.0
 40
1.0
 40
1.0
 40
1.0
 10
31.74310673909541
 20
1.441068000000001
 30
0.0
 10
31.74310673909541
 20
1.360298
 30
0.0
 10
31.74310673909541
 20
1.279527999999999
 30
0.0
  0
SPLINE
  5
1DD
330
1F
100
AcDbEntity
  8
DEFAULT
100
AcDbSpline
210
0.0
220
0.0
230
1.0
 70
    24
 71
     2
 72
     6
 73
     3
 74
     0
 42
0.0000000001
 43
0.0000000001
 40
0.0
 40
0.0
 40
0.0
 40
1.0
 40
1.0
 40
1.0
 10
31.8812827390954
 20
1.279527999999999
 30
0.0
 10
31.8812827390954
 20
1.222747499999997
 30
0.0
 10
31.8812827390954
 20
1.165966999999995
 30
0.0
  0
SPLINE
  5
1DE
330
1F
100
AcDbEntity
  8
DEFAULT
100
AcDbSpline
210
0.0
220
0.0
230
1.0
 70
    24
 71
     2
 72
     6
 73
     3
 74
     0
 42
0.0000000001
 43
0.0000000001
 40
0.0
 40
0.0
 40
0.0
 40
1.0
 40
1.0
 40
1.0
 10
31.8812827390954
 20
1.279527999999999
 30
0.0
 10
31.6178052390954
 20
1.279527999999999
 30
0.0
 10
31.35432773909541
 20
1.279527999999999
 30
0.0
  0
SPLINE
  5
1DF
330
1F
100
AcDbEntity
  8
DEFAULT
100
AcDbSpline
210
0.0
220
0.0
230
1.0
 70
     8
 71
     3
 72
    11
 73
     7
 74
     0
 42
0.0000000001
 43
0.0000000001
 40
0.0
 40
0.0
 40
0.0
 40
0.0
 40
0.3238269159132
 40
0.6105068404741
 40
0.8343663280072
 40
1.0
 40
1.0
 40
1.0
 40
1.0
 10
42.2292636264314
 20
5.358363253039997
 30
0.0
 10
42.2292636264314
 20
5.351956947839994
 30
0.0
 10
42.23031704311042
 20
5.339830799970002
 30
0.0
 10
42.23508583007539
 20
5.323919441909993
 30
0.0
 10
42.24212470007639
 20
5.312228067829992
 30
0.0
 10
42.2496710873104
 20
5.30836325304
 30
0.0
 10
42.2529478373314
 20
5.30836325304
 30
0.0
  0
CIRCLE
  5
1E0
330
1F
100
AcDbEntity
  8
DEFAULT
100
AcDbCircle
 10
55.3238037390954
 20
0.0
 30
0.0
 40
1.0625
  0
SPLINE
  5
1E1
330
1F
100
AcDbEntity
  8
DEFAULT
100
AcDbSpline
210
0.0
220
0.0
230
1.0
 70
    24
 71
     2
 72
     6
 73
     3
 74
     0
 42
0.0000000001
 43
0.0000000001
 40
0.0
 40
0.0
 40
0.0
 40
1.0
 40
1.0
 40
1.0
 10
41.9359597390954
 20
5.058363
 30
0.0
 10
41.9359597390954
 20
5.183363
 30
0.0
 10
41.9359597390954
 20
5.308363
 30
0.0
  0
SPLINE
  5
1E2
330
1F
100
AcDbEntity
  8
DEFAULT
100
AcDbSpline
210
0.0
220
0.0
230
1.0
 70
     8
 71
     3
 72
    10
 73
     6
 74
     0
 42
0.0000000001
 43
0.0000000001
 40
0.0
 40
0.0
 40
0.0
 40
0.0
 40
0.3396236604826
 40
0.6742178260732
 40
1.0
 40
1.0
 40
1.0
 40
1.0
 10
43.0990004689214
 20
5.71729150022999
 30
0.0
 10
43.10074919850139
 20
5.67632593223
 30
0.0
 10
43.10794387804641
 20
5.595158105319996
 30
0.0
 10
43.12495214445438
 20
5.475612043859996
 30
0.0
 10
43.13862055828442
 20
5.397055141259997
 30
0.0
 10
43.14568660267538
 20
5.358363273839998
 30
0.0
  0
SPLINE
  5
1E3
330
1F
100
AcDbEntity
  8
DEFAULT
100
AcDbSpline
210
0.0
220
0.0
230
1.0
 70
     8
 71
     3
 72
    11
 73
     7
 74
     0
 42
0.0000000001
 43
0.0000000001
 40
0.0
 40
0.0
 40
0.0
 40
0.0
 40
0.2420895812031
 40
0.4923957721452
 40
0.7461078415217
 40
1.0
 40
1.0
 40
1.0
 40
1.0
 10
41.56787147616539
 20
7.213363253040001
 30
0.0
 10
41.5524368830594
 20
7.209182294900003
 30
0.0
 10
41.52088161722439
 20
7.201255009379992
 30
0.0
 10
41.4725039475254
 20
7.191705734759992
 30
0.0
 10
41.4228376759924
 20
7.185145285339999
 30
0.0
 10
41.38929883264139
 20
7.18336325304
 30
0.0
 10
41.37252838862641
 20
7.18336325304
 30
0.0
  0
SPLINE
  5
1E4
330
1F
100
AcDbEntity
  8
DEFAULT
100
AcDbSpline
210
0.0
220
0.0
230
1.0
 70
    24
 71
     2
 72
     6
 73
     3
 74
     0
 42
0.0000000001
 43
0.0000000001
 40
0.0
 40
0.0
 40
0.0
 40
1.0
 40
1.0
 40
1.0
 10
35.21774373909541
 20
20.64980299999999
 30
0.0
 10
42.99900023909541
 20
20.64980299999999
 30
0.0
 10
50.78025673909541
 20
20.64980299999999
 30
0.0
  0
SPLINE
  5
1E5
330
1F
100
AcDbEntity
  8
DEFAULT
100
AcDbSpline
210
0.0
220
0.0
230
1.0
 70
    24
 71
     2
 72
     6
 73
     3
 74
     0
 42
0.0000000001
 43
0.0000000001
 40
0.0
 40
0.0
 40
0.0
 40
1.0
 40
1.0
 40
1.0
 10
12.394673
 20
1.824803000000003
 30
0.0
 10
12.394673
 20
1.699803000000003
 30
0.0
 10
12.394673
 20
1.574803000000003
 30
0.0
  0
SPLINE
  5
1E6
330
1F
100
AcDbEntity
  8
DEFAULT
100
AcDbSpline
210
0.0
220
0.0
230
1.0
 70
    24
 71
     2
 72
     6
 73
     3
 74
     0
 42
0.0000000001
 43
0.0000000001
 40
0.0
 40
0.0
 40
0.0
 40
1.0
 40
1.0
 40
1.0
 10
0.5269549999999867
 20
1.279527999999999
 30
0.0
 10
0.2634774999999934
 20
1.279527999999999
 30
0.0
 10
0.0
 20
1.279527999999999
 30
0.0
  0
SPLINE
  5
1E7
330
1F
100
AcDbEntity
  8
DEFAULT
100
AcDbSpline
210
0.0
220
0.0
230
1.0
 70
    24
 71
     2
 72
     6
 73
     3
 74
     0
 42
0.0000000001
 43
0.0000000001
 40
0.0
 40
0.0
 40
0.0
 40
1.0
 40
1.0
 40
1.0
 10
0.5269549999999867
 20
1.279527999999999
 30
0.0
 10
0.5269549999999867
 20
1.222747499999997
 30
0.0
 10
0.5269549999999867
 20
1.165966999999995
 30
0.0
  0
SPLINE
  5
1E8
330
1F
100
AcDbEntity
  8
DEFAULT
100
AcDbSpline
210
0.0
220
0.0
230
1.0
 70
    24
 71
     2
 72
     6
 73
     3
 74
     0
 42
0.0000000001
 43
0.0000000001
 40
0.0
 40
0.0
 40
0.0
 40
1.0
 40
1.0
 40
1.0
 10
0.3887789999999995
 20
1.441068000000001
 30
0.0
 10
0.3887789999999995
 20
1.360298
 30
0.0
 10
0.3887789999999995
 20
1.279527999999999
 30
0.0
  0
ARC
  5
1E9
330
1F
100
AcDbEntity
  8
DEFAULT
100
AcDbCircle
 10
1.445988999999997
 20
1.441068000000001
 30
0.0
 40
0.015625
100
AcDbArc
 50
0.0
 51
90.0
  0
ARC
  5
1EA
330
1F
100
AcDbEntity
  8
DEFAULT
100
AcDbCircle
 10
1.225394999999992
 20
0.5448949999999968
 30
0.0
 40
0.2362201456744931
100
AcDbArc
 50
283.2478113805402
 51
359.9999999999999
  0
ARC
  5
1EB
330
1F
100
AcDbEntity
  8
DEFAULT
100
AcDbCircle
 10
0.4044039999999995
 20
1.441068000000001
 30
0.0
 40
0.015625
100
AcDbArc
 50
90.0
 51
180.0
  0
CIRCLE
  5
1EC
330
1F
100
AcDbEntity
  8
DEFAULT
100
AcDbCircle
 10
0.0
 20
0.0
 30
0.0
 40
1.0
  0
SPLINE
  5
1ED
330
1F
100
AcDbEntity
  8
DEFAULT
100
AcDbSpline
210
0.0
220
0.0
230
1.0
 70
    24
 71
     2
 72
     6
 73
     3
 74
     0
 42
0.0000000001
 43
0.0000000001
 40
0.0
 40
0.0
 40
0.0
 40
1.0
 40
1.0
 40
1.0
 10
12.55568599999999
 20
5.058363
 30
0.0
 10
11.64467299999999
 20
5.058363
 30
0.0
 10
10.73365999999999
 20
5.058363
 30
0.0
  0
SPLINE
  5
1EE
330
1F
100
AcDbEntity
  8
DEFAULT
100
AcDbSpline
210
0.0
220
0.0
230
1.0
 70
     8
 71
     3
 72
    54
 73
    50
 74
     0
 42
0.0000000001
 43
0.0000000001
 40
0.0
 40
0.0
 40
0.0
 40
0.0
 40
1.0
 40
2.0
 40
3.0
 40
4.0
 40
5.0
 40
6.0
 40
7.0
 40
8.0
 40
9.0
 40
10.0
 40
11.0
 40
12.0
 40
13.0
 40
14.0
 40
15.0
 40
16.0
 40
17.0
 40
18.0
 40
19.0
 40
20.0
 40
21.0
 40
22.0
 40
23.0
 40
24.0
 40
25.0
 40
26.0
 40
27.0
 40
28.0
 40
29.0
 40
30.0
 40
31.0
 40
32.0
 40
33.0
 40
34.0
 40
35.0
 40
36.0
 40
37.0
 40
38.0
 40
39.0
 40
40.0
 40
41.0
 40
42.0
 40
43.0
 40
44.0
 40
45.0
 40
46.0
 40
47.0
 40
47.0
 40
47.0
 40
47.0
 10
42.78708373909539
 20
19.607981
 30
0.0
 10
42.73788801232276
 20
19.59349010815131
 30
0.0
 10
42.63674322466126
 20
19.57566275756663
 30
0.0
 10
42.48494554645573
 20
19.55104112162778
 30
0.0
 10
42.33257071210117
 20
19.52973415061612
 30
0.0
 10
42.18018055353026
 20
19.50872081302218
 30
0.0
 10
42.027708119346
 20
19.48833744584519
 30
0.0
 10
41.87522045873136
 20
19.46777298534946
 30
0.0
 10
41.72298906927703
 20
19.44647201160876
 30
0.0
 10
41.5704499532164
 20
19.42325621622794
 30
0.0
 10
41.42117218894741
 20
19.39330877629992
 30
0.0
 10
41.27234171856514
 20
19.35209493563733
 30
0.0
 10
41.14838610673854
 20
19.24158704769472
 30
0.0
 10
41.18141296958815
 20
19.07172431716435
 30
0.0
 10
41.30508932147343
 20
18.97228715315271
 30
0.0
 10
41.45316504891015
 20
18.92708310515931
 30
0.0
 10
41.60396129823253
 20
18.89715900019267
 30
0.0
 10
41.75605808202501
 20
18.87373535285928
 30
0.0
 10
41.90829179922945
 20
18.85167552276829
 30
0.0
 10
42.06083900551035
 20
18.83174831318806
 30
0.0
 10
42.21365785255145
 20
18.81405426722644
 30
0.0
 10
42.36673768701523
 20
18.79877921628949
 30
0.0
 10
42.52001575755365
 20
18.78566325048183
 30
0.0
 10
42.67349380486684
 20
18.77508763901145
 30
0.0
 10
42.82713123392723
 20
18.76719625553051
 30
0.0
 10
42.98088337801012
 20
18.7620046901925
 30
0.0
 10
43.13470059843222
 20
18.75925817799451
 30
0.0
 10
43.2885433316243
 20
18.75984089675592
 30
0.0
 10
43.44234764874575
 20
18.76298737104767
 30
0.0
 10
43.59608263721147
 20
18.76882544769896
 30
0.0
 10
43.74961980891926
 20
18.77859119239351
 30
0.0
 10
43.90292097122834
 20
18.79140458317461
 30
0.0
 10
44.05595769415963
 20
18.80721542497925
 30
0.0
 10
44.20844154724033
 20
18.82763028846682
 30
0.0
 10
44.3606509479179
 20
18.84995431663009
 30
0.0
 10
44.51043017536499
 20
18.88725903407156
 30
0.0
 10
44.65426638542966
 20
18.93800123732711
 30
0.0
 10
44.77756461698412
 20
19.05619809180746
 30
0.0
 10
44.71351992303038
 20
19.2202225677804
 30
0.0
 10
44.56894522444249
 20
19.28421093270414
 30
0.0
 10
44.42668089132899
 20
19.33993471178657
 30
0.0
 10
44.27857772735
 20
19.38311137485964
 30
0.0
 10
44.12879882036687
 20
19.41794945619122
 30
0.0
 10
43.97789895611321
 20
19.4480452071608
 30
0.0
 10
43.82637851133383
 20
19.47464617039148
 30
0.0
 10
43.6744886858928
 20
19.49902901986221
 30
0.0
 10
43.52261400635781
 20
19.52359389066798
 30
0.0
 10
43.3707398672846
 20
19.54777441897569
 30
0.0
 10
43.2701981558144
 20
19.56904173051421
 30
0.0
 10
43.22180273909539
 20
19.586172
 30
0.0
  0
ARC
  5
1EF
330
1F
100
AcDbEntity
  8
DEFAULT
100
AcDbCircle
 10
11.319673
 20
6.733362999999997
 30
0.0
 40
0.0499999999999989
100
AcDbArc
 50
180.0
 51
270.0
  0
LINE
  5
1F0
330
1F
100
AcDbEntity
  8
DEFAULT
100
AcDbLine
 10
3.444673000000002
 20
7.183363
 30
0.0
 11
3.444673000000002
 21
6.683363
 31
0.0
  0
SPLINE
  5
1F1
330
1F
100
AcDbEntity
  8
DEFAULT
100
AcDbSpline
210
0.0
220
0.0
230
1.0
 70
     8
 71
     3
 72
     8
 73
     4
 74
     0
 42
0.0000000001
 43
0.0000000001
 40
0.0
 40
0.0
 40
0.0
 40
0.0
 40
1.0
 40
1.0
 40
1.0
 40
1.0
 10
5.481786897362987
 20
20.47360663682799
 30
0.0
 10
6.793880401266996
 20
20.45271111716799
 30
0.0
 10
8.615910932121984
 20
20.145939940292
 30
0.0
 10
10.86970205575799
 20
18.60227850362399
 30
0.0
  0
CIRCLE
  5
1F2
330
1F
100
AcDbEntity
  8
DEFAULT
100
AcDbCircle
 10
14.81395100000002
 20
0.0
 30
0.0
 40
1.0
  0
SPLINE
  5
1F3
330
1F
100
AcDbEntity
  8
DEFAULT
100
AcDbSpline
210
0.0
220
0.0
230
1.0
 70
    24
 71
     2
 72
     6
 73
     3
 74
     0
 42
0.0000000001
 43
0.0000000001
 40
0.0
 40
0.0
 40
0.0
 40
1.0
 40
1.0
 40
1.0
 10
11.09467299999998
 20
16.07480299999999
 30
0.0
 10
11.09467299999998
 20
17.29105299999999
 30
0.0
 10
11.09467299999998
 20
18.50730299999999
 30
0.0
  0
SPLINE
  5
1F4
330
1F
100
AcDbEntity
  8
DEFAULT
100
AcDbSpline
210
0.0
220
0.0
230
1.0
 70
    24
 71
     2
 72
     6
 73
     3
 74
     0
 42
0.0000000001
 43
0.0000000001
 40
0.0
 40
0.0
 40
0.0
 40
1.0
 40
1.0
 40
1.0
 10
10.269673
 20
24.41330299999998
 30
0.0
 10
10.269673
 20
23.75928349999999
 30
0.0
 10
10.269673
 20
23.10526399999999
 30
0.0
  0
SPLINE
  5
1F5
330
1F
100
AcDbEntity
  8
DEFAULT
100
AcDbSpline
210
0.0
220
0.0
230
1.0
 70
     8
 71
     3
 72
    11
 73
     7
 74
     0
 42
0.0000000001
 43
0.0000000001
 40
0.0
 40
0.0
 40
0.0
 40
0.0
 40
0.3238269159132
 40
0.6105068404741
 40
0.8343663280072
 40
1.0
 40
1.0
 40
1.0
 40
1.0
 10
10.874935887336
 20
5.358363253039997
 30
0.0
 10
10.874935887336
 20
5.351956947839994
 30
0.0
 10
10.87598930401501
 20
5.339830799970002
 30
0.0
 10
10.88075809097999
 20
5.323919441909993
 30
0.0
 10
10.88779696098099
 20
5.312228067829992
 30
0.0
 10
10.895343348215
 20
5.30836325304
 30
0.0
 10
10.898620098236
 20
5.30836325304
 30
0.0
  0
SPLINE
  5
1F6
330
1F
100
AcDbEntity
  8
DEFAULT
100
AcDbSpline
210
0.0
220
0.0
230
1.0
 70
     8
 71
     3
 72
     9
 73
     5
 74
     0
 42
0.0000000001
 43
0.0000000001
 40
0.0
 40
0.0
 40
0.0
 40
0.0
 40
1.0
 40
2.0
 40
2.0
 40
2.0
 40
2.0
 10
43.6540677390954
 20
2.44480999999999
 30
0.0
 10
43.63723614186553
 20
2.444689588788378
 30
0.0
 10
43.60532375313797
 20
2.431828037121946
 30
0.0
 10
43.58132350560136
 20
2.40809867929714
 30
0.0
 10
43.57101094655339
 20
2.395019415479993
 30
0.0
  0
SPLINE
  5
1F7
330
1F
100
AcDbEntity
  8
DEFAULT
100
AcDbSpline
210
0.0
220
0.0
230
1.0
 70
     8
 71
     3
 72
     9
 73
     5
 74
     0
 42
0.0000000001
 43
0.0000000001
 40
0.0
 40
0.0
 40
0.0
 40
0.0
 40
1.0
 40
2.0
 40
2.0
 40
2.0
 40
2.0
 10
43.57101094655339
 20
2.395019415479993
 30
0.0
 10
43.51232519714456
 20
2.31704821536168
 30
0.0
 10
43.46599799583096
 20
2.128369349103266
 30
0.0
 10
43.41378189171935
 20
1.944326479944806
 30
0.0
 10
43.39643476623489
 20
1.849809978704997
 30
0.0
  0
SPLINE
  5
1F8
330
1F
100
AcDbEntity
  8
DEFAULT
100
AcDbSpline
210
0.0
220
0.0
230
1.0
 70
     8
 71
     3
 72
     9
 73
     5
 74
     0
 42
0.0000000001
 43
0.0000000001
 40
0.0
 40
0.0
 40
0.0
 40
0.0
 40
1.0
 40
2.0
 40
2.0
 40
2.0
 40
2.0
 10
43.39643476623489
 20
1.849809978704997
 30
0.0
 10
43.39526135300183
 20
1.844767668119076
 30
0.0
 10
43.39228600791013
 20
1.835283664050067
 30
0.0
 10
43.3868483129127
 20
1.825587700925837
 30
0.0
 10
43.38141061624741
 20
1.824803113729999
 30
0.0
  0
SPLINE
  5
1F9
330
1F
100
AcDbEntity
  8
DEFAULT
100
AcDbSpline
210
0.0
220
0.0
230
1.0
 70
     8
 71
     3
 72
    19
 73
    15
 74
     0
 42
0.0000000001
 43
0.0000000001
 40
0.0
 40
0.0
 40
0.0
 40
0.0
 40
1.0
 40
2.0
 40
3.0
 40
4.0
 40
5.0
 40
6.0
 40
7.0
 40
8.0
 40
9.0
 40
10.0
 40
11.0
 40
12.0
 40
12.0
 40
12.0
 40
12.0
 10
47.49968645805539
 20
2.802828593320001
 30
0.0
 10
47.50971832816008
 20
2.781971903701063
 30
0.0
 10
47.45685819671316
 20
2.777805292678735
 30
0.0
 10
47.40368546720121
 20
2.775711662906176
 30
0.0
 10
47.34340869048584
 20
2.7747076247107
 30
0.0
 10
47.28502628600269
 20
2.773935708666855
 30
0.0
 10
47.22613107032844
 20
2.773604088329989
 30
0.0
 10
47.16737091238691
 20
2.77363785246682
 30
0.0
 10
47.10857734958917
 20
2.7740503774762
 30
0.0
 10
47.04979056134455
 20
2.774791845073636
 30
0.0
 10
46.99103132753753
 20
2.775984465199912
 30
0.0
 10
46.93218848046116
 20
2.777139962624247
 30
0.0
 10
46.87388410898232
 20
2.784460552364976
 30
0.0
 10
46.83536490347511
 20
2.793346281623755
 30
0.0
 10
46.81810280892542
 20
2.802828593329991
 30
0.0
  0
SPLINE
  5
1FA
330
1F
100
AcDbEntity
  8
DEFAULT
100
AcDbSpline
210
0.0
220
0.0
230
1.0
 70
     8
 71
     3
 72
    10
 73
     6
 74
     0
 42
0.0000000001
 43
0.0000000001
 40
-1.0
 40
-1.0
 40
-1.0
 40
-1.0
 40
-0.7651359920157
 40
-0.4197938519476
 40
0.0
 40
0.0
 40
0.0
 40
0.0
 10
42.42310108927741
 20
3.923283865949998
 30
0.0
 10
42.43184885412639
 20
3.923721259849998
 30
0.0
 10
42.45284137366441
 20
3.936317482669992
 30
0.0
 10
42.46758576690338
 20
3.971846305079993
 30
0.0
 10
42.47059660101242
 20
4.000667157530003
 30
0.0
 10
42.46988549671489
 20
4.016346911900001
 30
0.0
  0
SPLINE
  5
1FB
330
1F
100
AcDbEntity
  8
DEFAULT
100
AcDbSpline
210
0.0
220
0.0
230
1.0
 70
    24
 71
     2
 72
     6
 73
     3
 74
     0
 42
0.0000000001
 43
0.0000000001
 40
0.0
 40
0.0
 40
0.0
 40
1.0
 40
1.0
 40
1.0
 10
42.46988549671489
 20
4.016346911900001
 30
0.0
 10
42.4717989777614
 20
4.125824953195
 30
0.0
 10
42.4737124588079
 20
4.235302994489999
 30
0.0
  0
SPLINE
  5
1FC
330
1F
100
AcDbEntity
  8
DEFAULT
100
AcDbSpline
210
0.0
220
0.0
230
1.0
 70
     8
 71
     3
 72
    10
 73
     6
 74
     0
 42
0.0000000001
 43
0.0000000001
 40
0.0
 40
0.0
 40
0.0
 40
0.0
 40
0.4067300435643714
 40
0.7466630140210986
 40
1.0
 40
1.0
 40
1.0
 40
1.0
 10
42.4737124588079
 20
4.235302994489999
 30
0.0
 10
42.47327515834634
 20
4.24504808210493
 30
0.0
 10
42.46997363318566
 20
4.262906743560308
 30
0.0
 10
42.45901275394941
 20
4.284770181919995
 30
0.0
 10
42.44549124364839
 20
4.29294843564
 30
0.0
 10
42.43941926474339
 20
4.293168346969992
 30
0.0
  0
POLYLINE
  5
1FD
330
1F
100
AcDbEntity
  8
DEFAULT
100
AcDb2dPolyline
 66
     1
 10
0.0
 20
0.0
 30
0.0
  0
VERTEX
  5
1FF
330
1FD
100
AcDbEntity
  8
DEFAULT
100
AcDbVertex
100
AcDb2dVertex
 10
42.00035073774457
 20
4.308404044493145
 30
0.0
  0
VERTEX
  5
200
330
1FD
100
AcDbEntity
  8
DEFAULT
100
AcDbVertex
100
AcDb2dVertex
 10
43.99503173243808
 20
4.308483780456541
 30
0.0
  0
SEQEND
  5
1FE
330
1FD
100
AcDbEntity
  8
DEFAULT
  0
SPLINE
  5
201
330
1F
100
AcDbEntity
  8
DEFAULT
100
AcDbSpline
210
0.0
220
0.0
230
1.0
 70
     8
 71
     3
 72
     9
 73
     5
 74
     0
 42
0.0000000001
 43
0.0000000001
 40
0.0
 40
0.0
 40
0.0
 40
0.0
 40
1.0
 40
2.0
 40
2.0
 40
2.0
 40
2.0
 10
42.66414727045641
 20
4.293168325509995
 30
0.0
 10
42.62674840494471
 20
4.295527478744376
 30
0.0
 10
42.55178169534436
 20
4.295753612807104
 30
0.0
 10
42.47686451665858
 20
4.294547065527468
 30
0.0
 10
42.43941926504841
 20
4.293168325509995
 30
0.0
  0
SPLINE
  5
202
330
1F
100
AcDbEntity
  8
DEFAULT
100
AcDbSpline
210
0.0
220
0.0
230
1.0
 70
     8
 71
     3
 72
     9
 73
     5
 74
     0
 42
0.0000000001
 43
0.0000000001
 40
0.0
 40
0.0
 40
0.0
 40
0.0
 40
1.0
 40
2.0
 40
2.0
 40
2.0
 40
2.0
 10
32.31887708712038
 20
2.802828593320001
 30
0.0
 10
32.24483022083773
 20
2.782744342568776
 30
0.0
 10
32.09170083238469
 20
2.771730281257732
 30
0.0
 10
31.93890228916915
 20
2.773181358914329
 30
0.0
 10
31.86249773909539
 20
2.776617000000002
 30
0.0
  0
SPLINE
  5
203
330
1F
100
AcDbEntity
  8
DEFAULT
100
AcDbSpline
210
0.0
220
0.0
230
1.0
 70
     8
 71
     3
 72
    10
 73
     6
 74
     0
 42
0.0000000001
 43
0.0000000001
 40
-1.0
 40
-1.0
 40
-1.0
 40
-1.0
 40
-0.7216975530022782
 40
-0.3661573315415642
 40
0.0
 40
0.0
 40
0.0
 40
0.0
 10
42.6807500478064
 20
3.923608343089995
 30
0.0
 10
42.66857534331341
 20
3.92478195887999
 30
0.0
 10
42.6410523283724
 20
3.933963232590003
 30
0.0
 10
42.61057446404375
 20
3.967989399734961
 30
0.0
 10
42.60382281090072
 20
4.000399777221219
 30
0.0
 10
42.60451919598292
 20
4.016346404624997
 30
0.0
  0
SPLINE
  5
204
330
1F
100
AcDbEntity
  8
DEFAULT
100
AcDbSpline
210
0.0
220
0.0
230
1.0
 70
    24
 71
     2
 72
     6
 73
     3
 74
     0
 42
0.0000000001
 43
0.0000000001
 40
0.0
 40
0.0
 40
0.0
 40
1.0
 40
1.0
 40
1.0
 10
42.60451919598292
 20
4.016346404624997
 30
0.0
 10
42.60643197587616
 20
4.125824718529998
 30
0.0
 10
42.60834475576941
 20
4.235303032434999
 30
0.0
  0
SPLINE
  5
205
330
1F
100
AcDbEntity
  8
DEFAULT
100
AcDbSpline
210
0.0
220
0.0
230
1.0
 70
     8
 71
     3
 72
    10
 73
     6
 74
     0
 42
0.0000000001
 43
0.0000000001
 40
0.0
 40
0.0
 40
0.0
 40
0.0
 40
0.3417652445880952
 40
0.6756715367807121
 40
1.0
 40
1.0
 40
1.0
 40
1.0
 10
42.60834475576941
 20
4.235303032434999
 30
0.0
 10
42.60877604208984
 20
4.245266457426339
 30
0.0
 10
42.61440691692981
 20
4.265082519399627
 30
0.0
 10
42.63526373477539
 20
4.287097802969996
 30
0.0
 10
42.65468553053741
 20
4.292962205690003
 30
0.0
 10
42.6641472946914
 20
4.293165478090003
 30
0.0
  0
SPLINE
  5
206
330
1F
100
AcDbEntity
  8
DEFAULT
100
AcDbSpline
210
0.0
220
0.0
230
1.0
 70
     8
 71
     3
 72
    11
 73
     7
 74
     0
 42
0.0000000001
 43
0.0000000001
 40
0.0
 40
0.0
 40
0.0
 40
0.0
 40
0.2857994331608
 40
0.5535232494026
 40
0.7900445159736
 40
1.0
 40
1.0
 40
1.0
 40
1.0
 10
43.71540463052439
 20
4.386700184839995
 30
0.0
 10
43.71525560664038
 20
4.376610725139997
 30
0.0
 10
43.71235704683137
 20
4.356988368529997
 30
0.0
 10
43.70039526307637
 20
4.33129974117
 30
0.0
 10
43.68193314944939
 20
4.313068125499996
 30
0.0
 10
43.66598146873839
 20
4.30836325304
 30
0.0
 10
43.65856868828537
 20
4.30836325304
 30
0.0
  0
ARC
  5
207
330
1F
100
AcDbEntity
  8
DEFAULT
100
AcDbCircle
 10
44.04481073909538
 20
4.388362999999998
 30
0.0
 40
0.0799996434140348
100
AcDbArc
 50
270.0
 51
358.8088675681844
  0
SPLINE
  5
208
330
1F
100
AcDbEntity
  8
DEFAULT
100
AcDbSpline
210
0.0
220
0.0
230
1.0
 70
    24
 71
     2
 72
     6
 73
     3
 74
     0
 42
0.0000000001
 43
0.0000000001
 40
0.0
 40
0.0
 40
0.0
 40
1.0
 40
1.0
 40
1.0
 10
43.75984373909542
 20
18.59790399999999
 30
0.0
 10
42.99900023909541
 20
18.59790399999999
 30
0.0
 10
42.2381567390954
 20
18.59790399999999
 30
0.0
  0
SPLINE
  5
209
330
1F
100
AcDbEntity
  8
DEFAULT
100
AcDbSpline
210
0.0
220
0.0
230
1.0
 70
     8
 71
     3
 72
    22
 73
    18
 74
     0
 42
0.0000000001
 43
0.0000000001
 40
0.0
 40
0.0
 40
0.0
 40
0.0
 40
0.1167500873722
 40
0.2243633665626
 40
0.3234661086496
 40
0.4146584866172
 40
0.4983865594995
 40
0.5751927987383
 40
0.6458186264644
 40
0.7102228255037
 40
0.767575789936
 40
0.8177842197205
 40
0.8615342953004
 40
0.9001349047782
 40
0.9349316304662
 40
0.9678090363997
 40
1.0
 40
1.0
 40
1.0
 40
1.0
 10
43.86743258847939
 20
4.386700184839995
 30
0.0
 10
43.86785940370639
 20
4.415597130050003
 30
0.0
 10
43.8691698985984
 20
4.471124282899993
 30
0.0
 10
43.87272675137838
 20
4.551121786989995
 30
0.0
 10
43.8777572583834
 20
4.624701759659999
 30
0.0
 10
43.88424978821739
 20
4.692231530320001
 30
0.0
 10
43.89221993121738
 20
4.754044583039999
 30
0.0
 10
43.90172731403938
 20
4.81048743385
 30
0.0
 10
43.9128701214304
 20
4.861751786580001
 30
0.0
 10
43.92571940105039
 20
4.907643676630002
 30
0.0
 10
43.9402486890864
 20
4.947708784859998
 30
0.0
 10
43.95635683221739
 20
4.981603659089998
 30
0.0
 10
43.97403797931038
 20
5.00937153449
 30
0.0
 10
43.99341467003337
 20
5.031156432060001
 30
0.0
 10
44.01473019380238
 20
5.046966309859997
 30
0.0
 10
44.03787547757939
 20
5.05641742652999
 30
0.0
 10
44.05407328299138
 20
5.05836325304
 30
0.0
 10
44.06204177359739
 20
5.05836325304
 30
0.0
  0
SPLINE
  5
20A
330
1F
100
AcDbEntity
  8
DEFAULT
100
AcDbSpline
210
0.0
220
0.0
230
1.0
 70
     8
 71
     3
 72
    10
 73
     6
 74
     0
 42
0.0000000001
 43
0.0000000001
 40
0.0
 40
0.0
 40
0.0
 40
0.0
 40
0.3388354985206
 40
0.6721992487632
 40
1.0
 40
1.0
 40
1.0
 40
1.0
 10
43.14568658642641
 20
5.358363273839998
 30
0.0
 10
43.1456865902684
 20
5.349757269370002
 30
0.0
 10
43.14127331212241
 20
5.332366467059998
 30
0.0
 10
43.12300845936839
 20
5.313159951139994
 30
0.0
 10
43.10588801624239
 20
5.308363245379994
 30
0.0
 10
43.09756228076439
 20
5.30836325304
 30
0.0
  0
LINE
  5
20B
330
1F
100
AcDbEntity
  8
DEFAULT
100
AcDbLine
 10
52.2313137390954
 20
7.189639
 30
0.0
 11
52.2313137390954
 21
6.683363
 31
0.0
  0
SPLINE
  5
20C
330
1F
100
AcDbEntity
  8
DEFAULT
100
AcDbSpline
210
0.0
220
0.0
230
1.0
 70
    12
 71
     2
 72
     8
 73
     5
 74
     0
 42
0.0000000001
 43
0.0000000001
 40
0.6084078194389045
 40
0.6084078194389045
 40
0.6084078194389045
 40
1.405008326934524
 40
1.405008326934524
 40
2.405008326934524
 40
2.405008326934524
 40
2.405008326934524
 10
45.26373010022037
 20
5.32978074845785
 30
0.0
 41
1.0
 10
45.85376810984575
 20
6.089454019238924
 30
0.0
 41
0.921721575516506
 10
46.69905473909542
 20
6.183374000000001
 30
0.0
 41
1.0
 10
48.9357887390954
 20
6.43189799999999
 30
0.0
 41
1.0
 10
51.17219573909541
 20
6.683363
 30
0.0
 41
1.0
  0
SPLINE
  5
20D
330
1F
100
AcDbEntity
  8
DEFAULT
100
AcDbSpline
210
0.0
220
0.0
230
1.0
 70
    24
 71
     2
 72
     6
 73
     3
 74
     0
 42
0.0000000001
 43
0.0000000001
 40
0.0
 40
0.0
 40
0.0
 40
1.0
 40
1.0
 40
1.0
 10
52.3240147390954
 20
7.310362999999995
 30
0.0
 10
52.3240147390954
 20
7.261862999999998
 30
0.0
 10
52.3240147390954
 20
7.213363000000001
 30
0.0
  0
SPLINE
  5
20E
330
1F
100
AcDbEntity
  8
DEFAULT
100
AcDbSpline
210
0.0
220
0.0
230
1.0
 70
    24
 71
     2
 72
     6
 73
     3
 74
     0
 42
0.0000000001
 43
0.0000000001
 40
0.0
 40
0.0
 40
0.0
 40
1.0
 40
1.0
 40
1.0
 10
52.3240147390954
 20
7.310362999999995
 30
0.0
 10
47.84901473909541
 20
7.310362999999995
 30
0.0
 10
43.37401473909541
 20
7.310362999999995
 30
0.0
  0
SPLINE
  5
20F
330
1F
100
AcDbEntity
  8
DEFAULT
100
AcDbSpline
210
0.0
220
0.0
230
1.0
 70
     8
 71
     3
 72
    12
 73
     8
 74
     0
 42
0.0000000001
 43
0.0000000001
 40
0.0
 40
0.0
 40
0.0
 40
0.0
 40
0.1904218250629
 40
0.261437522579
 40
0.401253888132
 40
0.677453543699
 40
1.0
 40
1.0
 40
1.0
 40
1.0
 10
31.86249807925741
 20
2.77661712199
 30
0.0
 10
31.8582389187214
 20
2.776831982529998
 30
0.0
 10
31.85175162158141
 20
2.775365820389993
 30
0.0
 10
31.84487316143141
 20
2.78429305697
 30
0.0
 10
31.8592936631794
 20
2.789909955740001
 30
0.0
 10
31.8720182104944
 20
2.795619967980002
 30
0.0
 10
31.88544549027741
 20
2.799506852859992
 30
0.0
 10
31.8925456399284
 20
2.801450366330002
 30
0.0
  0
SPLINE
  5
210
330
1F
100
AcDbEntity
  8
DEFAULT
100
AcDbSpline
210
0.0
220
0.0
230
1.0
 70
     8
 71
     3
 72
    11
 73
     7
 74
     0
 42
0.0000000001
 43
0.0000000001
 40
0.0
 40
0.0
 40
0.0
 40
0.0
 40
0.2644554190053
 40
0.5206854907126
 40
0.7648104430241
 40
1.0
 40
1.0
 40
1.0
 40
1.0
 10
44.43014400231841
 20
5.358363253039997
 30
0.0
 10
44.43014400231841
 20
5.35188806971999
 30
0.0
 10
44.42794110363342
 20
5.339024108609991
 30
0.0
 10
44.4183607501774
 20
5.32245310255999
 30
0.0
 10
44.40375103597439
 20
5.311096531030003
 30
0.0
 10
44.39186787331541
 20
5.30836325304
 30
0.0
 10
44.38610926378642
 20
5.30836325304
 30
0.0
  0
SPLINE
  5
211
330
1F
100
AcDbEntity
  8
DEFAULT
100
AcDbSpline
210
0.0
220
0.0
230
1.0
 70
     8
 71
     3
 72
    11
 73
     7
 74
     0
 42
0.0000000001
 43
0.0000000001
 40
0.0
 40
0.0
 40
0.0
 40
0.0
 40
0.2420895812031
 40
0.4923957721452
 40
0.7461078415217
 40
1.0
 40
1.0
 40
1.0
 40
1.0
 10
44.43014400202541
 20
7.213363253040001
 30
0.0
 10
44.44557859513141
 20
7.209182294900003
 30
0.0
 10
44.47713386096642
 20
7.201255009379992
 30
0.0
 10
44.52551153066541
 20
7.191705734759992
 30
0.0
 10
44.57517780219841
 20
7.185145285339999
 30
0.0
 10
44.60871664554942
 20
7.18336325304
 30
0.0
 10
44.6254870895644
 20
7.18336325304
 30
0.0
  0
ARC
  5
212
330
1F
100
AcDbEntity
  8
DEFAULT
100
AcDbCircle
 10
43.32400073909538
 20
6.733362999999997
 30
0.0
 40
0.049999999999998
100
AcDbArc
 50
270.0
 51
0.0
  0
SPLINE
  5
213
330
1F
100
AcDbEntity
  8
DEFAULT
100
AcDbSpline
210
0.0
220
0.0
230
1.0
 70
     8
 71
     3
 72
    10
 73
     6
 74
     0
 42
0.0000000001
 43
0.0000000001
 40
0.0
 40
0.0
 40
0.0
 40
0.0
 40
0.3410481301419
 40
0.6765784100659
 40
1.0
 40
1.0
 40
1.0
 40
1.0
 10
52.3240150092693
 20
7.310363253039995
 30
0.0
 10
52.34046213054712
 20
7.315015201430001
 30
0.0
 10
52.37309998516641
 20
7.324257329689999
 30
0.0
 10
52.4218198532909
 20
7.335914258979997
 30
0.0
 10
52.45477543543952
 20
7.340363253039996
 30
0.0
 10
52.4709843938363
 20
7.340363253039996
 30
0.0
  0
SPLINE
  5
214
330
1F
100
AcDbEntity
  8
DEFAULT
100
AcDbSpline
210
0.0
220
0.0
230
1.0
 70
    24
 71
     2
 72
     6
 73
     3
 74
     0
 42
0.0000000001
 43
0.0000000001
 40
0.0
 40
0.0
 40
0.0
 40
1.0
 40
1.0
 40
1.0
 10
56.6033317390954
 20
0.3149609999999967
 30
0.0
 10
56.6033317390954
 20
0.1574804999999984
 30
0.0
 10
56.6033317390954
 20
0.0
 30
0.0
  0
SPLINE
  5
215
330
1F
100
AcDbEntity
  8
DEFAULT
100
AcDbSpline
210
0.0
220
0.0
230
1.0
 70
    24
 71
     2
 72
     6
 73
     3
 74
     0
 42
0.0000000001
 43
0.0000000001
 40
0.0
 40
0.0
 40
0.0
 40
1.0
 40
1.0
 40
1.0
 10
42.0490007390954
 20
16.07480299999999
 30
0.0
 10
42.0490007390954
 20
12.00758299999999
 30
0.0
 10
42.0490007390954
 20
7.940362999999991
 30
0.0
  0
SPLINE
  5
216
330
1F
100
AcDbEntity
  8
DEFAULT
100
AcDbSpline
210
0.0
220
0.0
230
1.0
 70
    24
 71
     2
 72
     6
 73
     3
 74
     0
 42
0.0000000001
 43
0.0000000001
 40
0.0
 40
0.0
 40
0.0
 40
1.0
 40
1.0
 40
1.0
 10
41.59900073909542
 20
5.058363
 30
0.0
 10
41.59900073909542
 20
5.183363
 30
0.0
 10
41.59900073909542
 20
5.308363
 30
0.0
  0
SPLINE
  5
217
330
1F
100
AcDbEntity
  8
DEFAULT
100
AcDbSpline
210
0.0
220
0.0
230
1.0
 70
     8
 71
     3
 72
     9
 73
     5
 74
     0
 42
0.0000000001
 43
0.0000000001
 40
0.0
 40
0.0
 40
0.0
 40
0.0
 40
1.0
 40
2.0
 40
2.0
 40
2.0
 40
2.0
 10
56.4504432190454
 20
2.746231044040002
 30
0.0
 10
54.48870228804414
 20
3.163952168860774
 30
0.0
 10
50.52919738142241
 20
3.829848246230782
 30
0.0
 10
46.52704171030167
 20
4.153258967043271
 30
0.0
 10
44.5226264768754
 20
4.225897412319995
 30
0.0
  0
SPLINE
  5
218
330
1F
100
AcDbEntity
  8
DEFAULT
100
AcDbSpline
210
0.0
220
0.0
230
1.0
 70
    24
 71
     2
 72
     6
 73
     3
 74
     0
 42
0.0000000001
 43
0.0000000001
 40
0.0
 40
0.0
 40
0.0
 40
1.0
 40
1.0
 40
1.0
 10
56.56396073909538
 20
0.3149609999999967
 30
0.0
 10
56.58364623909539
 20
0.3149609999999967
 30
0.0
 10
56.6033317390954
 20
0.3149609999999967
 30
0.0
  0
SPLINE
  5
219
330
1F
100
AcDbEntity
  8
DEFAULT
100
AcDbSpline
210
0.0
220
0.0
230
1.0
 70
    24
 71
     2
 72
     6
 73
     3
 74
     0
 42
0.0000000001
 43
0.0000000001
 40
0.0
 40
0.0
 40
0.0
 40
1.0
 40
1.0
 40
1.0
 10
42.0879877390954
 20
5.058363
 30
0.0
 10
42.0879877390954
 20
5.183363
 30
0.0
 10
42.0879877390954
 20
5.308363
 30
0.0
  0
SPLINE
  5
21A
330
1F
100
AcDbEntity
  8
DEFAULT
100
AcDbSpline
210
0.0
220
0.0
230
1.0
 70
    24
 71
     2
 72
     6
 73
     3
 74
     0
 42
0.0000000001
 43
0.0000000001
 40
0.0
 40
0.0
 40
0.0
 40
1.0
 40
1.0
 40
1.0
 10
44.39900073909537
 20
5.058363
 30
0.0
 10
44.39900073909537
 20
5.183363
 30
0.0
 10
44.39900073909537
 20
5.308363
 30
0.0
  0
SPLINE
  5
21B
330
1F
100
AcDbEntity
  8
DEFAULT
100
AcDbSpline
210
0.0
220
0.0
230
1.0
 70
    24
 71
     2
 72
     6
 73
     3
 74
     0
 42
0.0000000001
 43
0.0000000001
 40
0.0
 40
0.0
 40
0.0
 40
1.0
 40
1.0
 40
1.0
 10
44.06204173909539
 20
5.058363
 30
0.0
 10
44.23052123909538
 20
5.058363
 30
0.0
 10
44.39900073909537
 20
5.058363
 30
0.0
  0
ARC
  5
21C
330
1F
100
AcDbEntity
  8
DEFAULT
100
AcDbCircle
 10
45.22270473909539
 20
5.358362999999997
 30
0.0
 40
0.0499999067448244
100
AcDbArc
 50
270.0
 51
325.1351838007694
  0
ARC
  5
21D
330
1F
100
AcDbEntity
  8
DEFAULT
100
AcDbCircle
 10
52.59901473909541
 20
7.640362999999994
 30
0.0
 40
0.2999999141766412
100
AcDbArc
 50
282.0001031797967
 51
90.0
  0
SPLINE
  5
21E
330
1F
100
AcDbEntity
  8
DEFAULT
100
AcDbSpline
210
0.0
220
0.0
230
1.0
 70
    24
 71
     2
 72
     6
 73
     3
 74
     0
 42
0.0000000001
 43
0.0000000001
 40
0.0
 40
0.0
 40
0.0
 40
1.0
 40
1.0
 40
1.0
 10
31.75873173909541
 20
1.456693000000001
 30
0.0
 10
32.27952423909541
 20
1.456693000000001
 30
0.0
 10
32.80031673909541
 20
1.456693000000001
 30
0.0
  0
ARC
  5
21F
330
1F
100
AcDbEntity
  8
DEFAULT
100
AcDbCircle
 10
31.35432773909541
 20
0.0
 30
0.0
 40
1.279527939310224
100
AcDbArc
 50
15.76206956729274
 51
18.5756033351671
  0
SPLINE
  5
220
330
1F
100
AcDbEntity
  8
DEFAULT
100
AcDbSpline
210
0.0
220
0.0
230
1.0
 70
    24
 71
     2
 72
     6
 73
     3
 74
     0
 42
0.0000000001
 43
0.0000000001
 40
0.0
 40
0.0
 40
0.0
 40
1.0
 40
1.0
 40
1.0
 10
32.81594173909541
 20
1.441068000000001
 30
0.0
 10
32.81594173909541
 20
0.9929814999999991
 30
0.0
 10
32.81594173909541
 20
0.5448949999999968
 30
0.0
  0
SPLINE
  5
221
330
1F
100
AcDbEntity
  8
DEFAULT
100
AcDbSpline
210
0.0
220
0.0
230
1.0
 70
     8
 71
     3
 72
    13
 73
     9
 74
     0
 42
0.0000000001
 43
0.0000000001
 40
0.0
 40
0.0
 40
0.0
 40
0.0
 40
0.1983372897061
 40
0.382736114032
 40
0.5542088850058
 40
0.7136951690739
 40
0.8620461467553
 40
1.0
 40
1.0
 40
1.0
 40
1.0
 10
33.8386728288158
 20
7.18336325304
 30
0.0
 10
33.83388964826899
 20
7.18336325304
 30
0.0
 10
33.824658748907
 20
7.183506443070002
 30
0.0
 10
33.81130550008929
 20
7.184122213699993
 30
0.0
 10
33.79891110423451
 20
7.185068733089992
 30
0.0
 10
33.78741599066599
 20
7.18630275052999
 30
0.0
 10
33.7767673815306
 20
7.187795552379995
 30
0.0
 10
33.76996561539589
 20
7.188994124969994
 30
0.0
 10
33.76670168045599
 20
7.189638580579995
 30
0.0
  0
CIRCLE
  5
222
330
1F
100
AcDbEntity
  8
DEFAULT
100
AcDbCircle
 10
46.16827873909541
 20
0.0
 30
0.0
 40
1.279528000000001
  0
SPLINE
  5
223
330
1F
100
AcDbEntity
  8
DEFAULT
100
AcDbSpline
210
0.0
220
0.0
230
1.0
 70
    24
 71
     2
 72
     6
 73
     3
 74
     0
 42
0.0000000001
 43
0.0000000001
 40
0.0
 40
0.0
 40
0.0
 40
1.0
 40
1.0
 40
1.0
 10
52.59900073909542
 20
7.940362999999991
 30
0.0
 10
42.9990077390954
 20
7.940362999999991
 30
0.0
 10
33.39901473909539
 20
7.940362999999991
 30
0.0
  0
ARC
  5
224
330
1F
100
AcDbEntity
  8
DEFAULT
100
AcDbCircle
 10
47.61426773909541
 20
1.441068000000001
 30
0.0
 40
0.015625
100
AcDbArc
 50
0.0
 51
90.0
  0
ARC
  5
225
330
1F
100
AcDbEntity
  8
DEFAULT
100
AcDbCircle
 10
41.9531907390954
 20
4.388362999999998
 30
0.0
 40
0.0799996434140348
100
AcDbArc
 50
181.1911324318155
 51
270.0
  0
SPLINE
  5
226
330
1F
100
AcDbEntity
  8
DEFAULT
100
AcDbSpline
210
0.0
220
0.0
230
1.0
 70
    12
 71
     3
 72
    17
 73
    13
 74
     0
 42
0.0000000001
 43
0.0000000001
 40
4.71238898038469
 40
4.71238898038469
 40
4.71238898038469
 40
4.71238898038469
 40
6.268549515538309
 40
6.268549515538309
 40
6.268549515538309
 40
7.268550056865641
 40
8.268551175845978
 40
9.268552294826314
 40
10.26855341380665
 40
11.26855453278699
 40
12.26855565176732
 40
13.26855677074766
 40
13.26855677074766
 40
13.26855677074766
 40
13.26855677074766
 10
14.896027
 20
24.41330306281101
 30
0.0
 41
0.9999967205545754
 10
15.04077954248568
 20
24.41330428364863
 30
0.0
 41
0.8081740759577278
 10
15.14388057703541
 20
24.51490864817426
 30
0.0
 41
0.8081751691062027
 10
15.14599856280431
 20
24.65964549908118
 30
0.0
 41
1.0
 10
15.15285316231542
 20
24.94133387385997
 30
0.0
 41
1.0
 10
15.19700557854928
 20
25.50403411830588
 30
0.0
 41
1.0
 10
15.35480979913963
 20
26.33614252134747
 30
0.0
 41
1.0
 10
15.64625578417325
 20
27.13347393742464
 30
0.0
 41
1.0
 10
16.07621155760192
 20
27.86578796084608
 30
0.0
 41
1.0
 10
16.66259643399094
 20
28.48491099806837
 30
0.0
 41
1.0
 10
17.37345761988017
 20
28.94500942496036
 30
0.0
 41
1.0
 10
17.92478859298625
 20
29.12891216682414
 30
0.0
 41
1.0
 10
18.17188591022
 20
29.20635272181998
 30
0.0
 41
1.0
  0
SPLINE
  5
227
330
1F
100
AcDbEntity
  8
DEFAULT
100
AcDbSpline
210
0.0
220
0.0
230
1.0
 70
     8
 71
     3
 72
    32
 73
    28
 74
     0
 42
0.0000000001
 43
0.0000000001
 40
-7.0
 40
-7.0
 40
-7.0
 40
-7.0
 40
-6.0
 40
-5.0
 40
-4.0
 40
-3.0
 40
-2.0
 40
-1.0
 40
0.0
 40
0.0
 40
0.0
 40
1.0
 40
2.0
 40
3.0
 40
4.0
 40
5.0
 40
6.0
 40
7.0
 40
7.0
 40
7.0
 40
8.0
 40
9.0
 40
10.0
 40
11.0
 40
12.0
 40
13.0
 40
14.0
 40
14.0
 40
14.0
 40
14.0
 10
18.17188591022
 20
29.20635272181998
 30
0.0
 10
18.28127042436623
 20
29.23982759270811
 30
0.0
 10
18.49319726673595
 20
29.30089125141143
 30
0.0
 10
18.81600977599598
 20
29.37266233574371
 30
0.0
 10
19.13287450251252
 20
29.46946107422774
 30
0.0
 10
19.42549533058478
 20
29.62970572724187
 30
0.0
 10
19.65646728973518
 20
29.87293978111133
 30
0.0
 10
19.79510289332264
 20
30.17645502809287
 30
0.0
 10
19.84515163337382
 20
30.39225319626598
 30
0.0
 10
19.84952601908999
 20
30.50400952434498
 30
0.0
 10
19.85569806515818
 20
30.63024221369744
 30
0.0
 10
19.8516286886812
 20
30.8805812997775
 30
0.0
 10
19.85086092694455
 20
31.25599506530848
 30
0.0
 10
19.84031582718912
 20
31.63131393570603
 30
0.0
 10
19.82587625301257
 20
32.00646279198777
 30
0.0
 10
19.80909872036291
 20
32.38152918336283
 30
0.0
 10
19.79109701624192
 20
32.75650764863948
 30
0.0
 10
19.78430396663784
 20
33.00679959445021
 30
0.0
 10
19.773385
 20
33.13146899999998
 30
0.0
 10
19.76284249715862
 20
33.22715030423554
 30
0.0
 10
19.72371173721397
 20
33.41671849832281
 30
0.0
 10
19.61174854225165
 20
33.68403059922419
 30
0.0
 10
19.45613871893632
 20
33.92940818979253
 30
0.0
 10
19.2437274479117
 20
34.12837973494175
 30
0.0
 10
18.9962520193728
 20
34.27940340616325
 30
0.0
 10
18.72887796089246
 20
34.39041731363184
 30
0.0
 10
18.54336987720869
 20
34.44308690289159
 30
0.0
 10
18.44945920882999
 20
34.46434531344499
 30
0.0
  0
SPLINE
  5
228
330
1F
100
AcDbEntity
  8
DEFAULT
100
AcDbSpline
210
0.0
220
0.0
230
1.0
 70
     8
 71
     3
 72
    14
 73
    10
 74
     0
 42
0.0000000001
 43
0.0000000001
 40
0.0
 40
0.0
 40
0.0
 40
0.0
 40
1.0
 40
2.0
 40
3.0
 40
4.0
 40
5.0
 40
6.0
 40
7.0
 40
7.0
 40
7.0
 40
7.0
 10
18.44945920882999
 20
34.46434531344499
 30
0.0
 10
17.81007100415555
 20
34.58779707080441
 30
0.0
 10
16.52191390796621
 20
34.78953054664406
 30
0.0
 10
14.57317772217128
 20
34.94247650545968
 30
0.0
 10
12.62237899641521
 20
35.05837494035381
 30
0.0
 10
10.66730452372332
 20
35.05838572016202
 30
0.0
 10
8.716504753598052
 20
34.94250354129063
 30
0.0
 10
6.76776748585916
 20
34.78956599553216
 30
0.0
 10
5.479609355609675
 20
34.58784715112394
 30
0.0
 10
4.840067791170007
 20
34.46438281344498
 30
0.0
  0
SPLINE
  5
229
330
1F
100
AcDbEntity
  8
DEFAULT
100
AcDbSpline
210
0.0
220
0.0
230
1.0
 70
     8
 71
     3
 72
    32
 73
    28
 74
     0
 42
0.0000000001
 43
0.0000000001
 40
-14.0
 40
-14.0
 40
-14.0
 40
-14.0
 40
-13.0
 40
-12.0
 40
-11.0
 40
-10.0
 40
-9.0
 40
-8.0
 40
-7.0
 40
-7.0
 40
-7.0
 40
-6.0
 40
-5.0
 40
-4.0
 40
-3.0
 40
-2.0
 40
-1.0
 40
0.0
 40
0.0
 40
0.0
 40
1.0
 40
2.0
 40
3.0
 40
4.0
 40
5.0
 40
6.0
 40
7.0
 40
7.0
 40
7.0
 40
7.0
 10
4.840067791170007
 20
34.46438281344498
 30
0.0
 10
4.746009122791314
 20
34.44308690289159
 30
0.0
 10
4.560501039107528
 20
34.39041731363184
 30
0.0
 10
4.2931269806272
 20
34.27940340616325
 30
0.0
 10
4.045651552088309
 20
34.12837973494175
 30
0.0
 10
3.833240281063688
 20
33.92940818979253
 30
0.0
 10
3.677630457748357
 20
33.68403059922419
 30
0.0
 10
3.565667262786029
 20
33.41671849832281
 30
0.0
 10
3.526536502841374
 20
33.22715030423554
 30
0.0
 10
3.515993999999999
 20
33.13146899999998
 30
0.0
 10
3.505075033362168
 20
33.00679959445021
 30
0.0
 10
3.498281983758083
 20
32.75650764863948
 30
0.0
 10
3.480280279637093
 20
32.38152918336283
 30
0.0
 10
3.463502746987437
 20
32.00646279198777
 30
0.0
 10
3.449063172810902
 20
31.63131393570603
 30
0.0
 10
3.438518073055455
 20
31.25599506530848
 30
0.0
 10
3.437750311318801
 20
30.8805812997775
 30
0.0
 10
3.433680934841824
 20
30.63024221369744
 30
0.0
 10
3.439852980910011
 20
30.50400952434498
 30
0.0
 10
3.444227366626187
 20
30.39225319626598
 30
0.0
 10
3.494276106677368
 20
30.17645502809287
 30
0.0
 10
3.632911710264828
 20
29.87293978111133
 30
0.0
 10
3.863883669415209
 20
29.62970572724187
 30
0.0
 10
4.156504497487482
 20
29.46946107422774
 30
0.0
 10
4.473369224004024
 20
29.37266233574371
 30
0.0
 10
4.796181733264056
 20
29.30089125141143
 30
0.0
 10
5.008108575633777
 20
29.23982759270811
 30
0.0
 10
5.117493089780005
 20
29.20635272181998
 30
0.0
  0
SPLINE
  5
22A
330
1F
100
AcDbEntity
  8
DEFAULT
100
AcDbSpline
210
0.0
220
0.0
230
1.0
 70
    12
 71
     3
 72
    17
 73
    13
 74
     0
 42
0.0000000001
 43
0.0000000001
 40
-13.26855677074766
 40
-13.26855677074766
 40
-13.26855677074766
 40
-13.26855677074766
 40
-12.26855461531053
 40
-11.2685524598734
 40
-10.26855030443627
 40
-9.268548148999137
 40
-8.268545993562007
 40
-7.268543838124877
 40
-6.268542260341349
 40
-6.268542260341349
 40
-6.268542260341349
 40
-4.71238898038469
 40
-4.71238898038469
 40
-4.71238898038469
 40
-4.71238898038469
 10
5.117493089780005
 20
29.20635272181998
 30
0.0
 41
1.0
 10
5.364590407013758
 20
29.12891216682414
 30
0.0
 41
1.0
 10
5.915921380119819
 20
28.94500942496036
 30
0.0
 41
1.0
 10
6.626782566009062
 20
28.48491099806837
 30
0.0
 41
1.0
 10
7.213167442398081
 20
27.86578796084608
 30
0.0
 41
1.0
 10
7.643123215826755
 20
27.13347393742464
 30
0.0
 41
1.0
 10
7.934569200860359
 20
26.33614252134747
 30
0.0
 41
1.0
 10
8.092373421450738
 20
25.50403411830588
 30
0.0
 41
1.0
 10
8.136525837684566
 20
24.94133387385997
 30
0.0
 41
1.0
 10
8.143380437195695
 20
24.65964549908118
 30
0.0
 41
1.0
 10
8.145498408030042
 20
24.51490966875694
 30
0.0
 41
0.808176262256774
 10
8.24859828243318
 20
24.41330544167737
 30
0.0
 41
0.8081740759764163
 10
8.393350000000009
 20
24.41330299999997
 30
0.0
 41
0.999993441158927
  0
SPLINE
  5
22B
330
1F
100
AcDbEntity
  8
DEFAULT
100
AcDbSpline
210
0.0
220
0.0
230
1.0
 70
    24
 71
     2
 72
     6
 73
     3
 74
     0
 42
0.0000000001
 43
0.0000000001
 40
-1.0
 40
-1.0
 40
-1.0
 40
0.0
 40
0.0
 40
0.0
 10
8.393350000000005
 20
24.41330299999998
 30
0.0
 10
11.6446885
 20
24.4133030314055
 30
0.0
 10
14.89602699999999
 20
24.41330306281101
 30
0.0
  0
SPLINE
  5
22C
330
1F
100
AcDbEntity
  8
DEFAULT
100
AcDbSpline
210
0.0
220
0.0
230
1.0
 70
    24
 71
     2
 72
     6
 73
     3
 74
     0
 42
0.0000000001
 43
0.0000000001
 40
0.0
 40
0.0
 40
0.0
 40
1.0
 40
1.0
 40
1.0
 10
44.06204173909539
 20
5.058363
 30
0.0
 10
44.06204173909539
 20
5.183363
 30
0.0
 10
44.06204173909539
 20
5.308363
 30
0.0
  0
SPLINE
  5
22D
330
1F
100
AcDbEntity
  8
DEFAULT
100
AcDbSpline
210
0.0
220
0.0
230
1.0
 70
     8
 71
     3
 72
    11
 73
     7
 74
     0
 42
0.0000000001
 43
0.0000000001
 40
0.0
 40
0.0
 40
0.0
 40
0.0
 40
0.2854440274548
 40
0.5521646952023
 40
0.7914535382191
 40
1.0
 40
1.0
 40
1.0
 40
1.0
 10
42.85231435569939
 20
5.358363283789998
 30
0.0
 10
42.8585058710034
 20
5.392266193469993
 30
0.0
 10
42.8699991115114
 20
5.457939185260003
 30
0.0
 10
42.88418772756042
 20
5.552451815399991
 30
0.0
 10
42.8940736185224
 20
5.638176398840002
 30
0.0
 10
42.89792701340839
 20
5.692135133459999
 30
0.0
 10
42.89900046892139
 20
5.71729150022999
 30
0.0
  0
SPLINE
  5
22E
330
1F
100
AcDbEntity
  8
DEFAULT
100
AcDbSpline
210
0.0
220
0.0
230
1.0
 70
     8
 71
     3
 72
    10
 73
     6
 74
     0
 42
0.0000000001
 43
0.0000000001
 40
0.0
 40
0.0
 40
0.0
 40
0.0
 40
0.3410481301419
 40
0.6765784100659
 40
1.0
 40
1.0
 40
1.0
 40
1.0
 10
33.67400046892151
 20
7.310363253039995
 30
0.0
 10
33.65755334764368
 20
7.315015201430001
 30
0.0
 10
33.6249154930244
 20
7.324257329689999
 30
0.0
 10
33.57619562489991
 20
7.335914258979997
 30
0.0
 10
33.54324004275129
 20
7.340363253039996
 30
0.0
 10
33.5270310843545
 20
7.340363253039996
 30
0.0
  0
SPLINE
  5
22F
330
1F
100
AcDbEntity
  8
DEFAULT
100
AcDbSpline
210
0.0
220
0.0
230
1.0
 70
    24
 71
     2
 72
     6
 73
     3
 74
     0
 42
0.0000000001
 43
0.0000000001
 40
0.0
 40
0.0
 40
0.0
 40
1.0
 40
1.0
 40
1.0
 10
42.6741497390954
 20
6.683363
 30
0.0
 10
42.9990037390954
 20
6.683363
 30
0.0
 10
43.3238577390954
 20
6.683363
 30
0.0
  0
SPLINE
  5
230
330
1F
100
AcDbEntity
  8
DEFAULT
100
AcDbSpline
210
0.0
220
0.0
230
1.0
 70
    24
 71
     2
 72
     6
 73
     3
 74
     0
 42
0.0000000001
 43
0.0000000001
 40
0.0
 40
0.0
 40
0.0
 40
1.0
 40
1.0
 40
1.0
 10
55.85075873909541
 20
1.279527999999999
 30
0.0
 10
55.5872812390954
 20
1.279527999999999
 30
0.0
 10
55.3238037390954
 20
1.279527999999999
 30
0.0
  0
SPLINE
  5
231
330
1F
100
AcDbEntity
  8
DEFAULT
100
AcDbSpline
210
0.0
220
0.0
230
1.0
 70
    24
 71
     2
 72
     6
 73
     3
 74
     0
 42
0.0000000001
 43
0.0000000001
 40
0.0
 40
0.0
 40
0.0
 40
1.0
 40
1.0
 40
1.0
 10
47.53193273909541
 20
2.791823999999991
 30
0.0
 10
47.53182773909541
 20
2.791903999999995
 30
0.0
 10
47.5317227390954
 20
2.791983999999999
 30
0.0
  0
ARC
  5
232
330
1F
100
AcDbEntity
  8
DEFAULT
100
AcDbCircle
 10
56.54919873909539
 20
0.5448949999999968
 30
0.0
 40
0.2362201456744931
100
AcDbArc
 50
283.2478113805395
 51
359.9999999999999
  0
SPLINE
  5
233
330
1F
100
AcDbEntity
  8
DEFAULT
100
AcDbSpline
210
0.0
220
0.0
230
1.0
 70
    24
 71
     2
 72
     6
 73
     3
 74
     0
 42
0.0000000001
 43
0.0000000001
 40
0.0
 40
0.0
 40
0.0
 40
1.0
 40
1.0
 40
1.0
 10
55.85075873909541
 20
1.279527999999999
 30
0.0
 10
55.85075873909541
 20
1.222747499999997
 30
0.0
 10
55.85075873909541
 20
1.165966999999995
 30
0.0
  0
ARC
  5
234
330
1F
100
AcDbEntity
  8
DEFAULT
100
AcDbCircle
 10
31.88292621847522
 20
2.696816994570284
 30
0.0
 40
0.0963546383563139
100
AcDbArc
 50
103.53801233681
 51
135.5140511771052
  0
ARC
  5
235
330
1F
100
AcDbEntity
  8
DEFAULT
100
AcDbCircle
 10
31.85638502198678
 20
2.722886164209044
 30
0.0
 40
0.0591519944086942
100
AcDbArc
 50
135.5140511771042
 51
177.4470017652904
  0
LINE
  5
236
330
1F
100
AcDbEntity
  8
DEFAULT
100
AcDbLine
 10
31.7972917390954
 20
2.725521000000001
 30
0.0
 11
31.74877773909539
 21
1.637463999999994
 31
0.0
  0
CIRCLE
  5
237
330
1F
100
AcDbEntity
  8
DEFAULT
100
AcDbCircle
 10
31.35432773909541
 20
0.0
 30
0.0
 40
1.0625
  0
SPLINE
  5
238
330
1F
100
AcDbEntity
  8
DEFAULT
100
AcDbSpline
210
0.0
220
0.0
230
1.0
 70
    24
 71
     2
 72
     6
 73
     3
 74
     0
 42
0.0000000001
 43
0.0000000001
 40
0.0
 40
0.0
 40
0.0
 40
1.0
 40
1.0
 40
1.0
 10
44.43014373909541
 20
7.310362999999995
 30
0.0
 10
44.43014373909541
 20
6.334362999999996
 30
0.0
 10
44.43014373909541
 20
5.358362999999997
 30
0.0
  0
SPLINE
  5
239
330
1F
100
AcDbEntity
  8
DEFAULT
100
AcDbSpline
210
0.0
220
0.0
230
1.0
 70
    24
 71
     2
 72
     6
 73
     3
 74
     0
 42
0.0000000001
 43
0.0000000001
 40
0.0
 40
0.0
 40
0.0
 40
1.0
 40
1.0
 40
1.0
 10
43.76875173909541
 20
5.358362999999997
 30
0.0
 10
43.76875173909541
 20
6.334362999999996
 30
0.0
 10
43.76875173909541
 20
7.310362999999995
 30
0.0
  0
SPLINE
  5
23A
330
1F
100
AcDbEntity
  8
DEFAULT
100
AcDbSpline
210
0.0
220
0.0
230
1.0
 70
    24
 71
     2
 72
     6
 73
     3
 74
     0
 42
0.0000000001
 43
0.0000000001
 40
0.0
 40
0.0
 40
0.0
 40
1.0
 40
1.0
 40
1.0
 10
44.62548673909539
 20
7.183363
 30
0.0
 10
48.3924147390954
 20
7.183363
 30
0.0
 10
52.15934273909541
 20
7.183363
 30
0.0
  0
SPLINE
  5
23B
330
1F
100
AcDbEntity
  8
DEFAULT
100
AcDbSpline
210
0.0
220
0.0
230
1.0
 70
    24
 71
     2
 72
     6
 73
     3
 74
     0
 42
0.0000000001
 43
0.0000000001
 40
0.0
 40
0.0
 40
0.0
 40
1.0
 40
1.0
 40
1.0
 10
43.37401473909541
 20
7.183363
 30
0.0
 10
43.43596173909542
 20
7.183363
 30
0.0
 10
43.49790873909542
 20
7.183363
 30
0.0
  0
LINE
  5
23C
330
1F
100
AcDbEntity
  8
DEFAULT
100
AcDbLine
 10
51.1990147390954
 20
7.183363
 30
0.0
 11
51.1990147390954
 21
6.683363
 31
0.0
  0
SPLINE
  5
23D
330
1F
100
AcDbEntity
  8
DEFAULT
100
AcDbSpline
210
0.0
220
0.0
230
1.0
 70
     8
 71
     3
 72
    14
 73
    10
 74
     0
 42
0.0000000001
 43
0.0000000001
 40
0.0
 40
0.0
 40
0.0
 40
0.0
 40
1.0
 40
2.0
 40
3.0
 40
4.0
 40
5.0
 40
6.0
 40
7.0
 40
7.0
 40
7.0
 40
7.0
 10
9.993865551112982
 20
2.442549823210001
 30
0.0
 10
10.0364152789463
 20
2.438383892167906
 30
0.0
 10
10.12036929981591
 20
2.418421551368212
 30
0.0
 10
10.23426989795542
 20
2.357671458785404
 30
0.0
 10
10.3325271889934
 20
2.273794634603874
 30
0.0
 10
10.40927935413178
 20
2.170648251048789
 30
0.0
 10
10.48009418830515
 20
2.06375233725494
 30
0.0
 10
10.55232297127578
 20
1.957755503676438
 30
0.0
 10
10.60066320301375
 20
1.887193059199703
 30
0.0
 10
10.622605
 20
1.850492000000003
 30
0.0
  0
SPLINE
  5
23E
330
1F
100
AcDbEntity
  8
DEFAULT
100
AcDbSpline
210
0.0
220
0.0
230
1.0
 70
     8
 71
     2
 72
    18
 73
    15
 74
     0
 42
0.0000000001
 43
0.0000000001
 40
0.0
 40
0.0
 40
0.0
 40
1.001676237485527
 40
1.001676237485527
 40
2.003352474971055
 40
2.003352474971055
 40
3.005028712456582
 40
3.005028712456582
 40
4.00670494994211
 40
4.00670494994211
 40
5.008381187427638
 40
5.008381187427638
 40
6.010057424913165
 40
6.010057424913165
 40
7.0
 40
7.0
 40
7.0
 10
10.622605
 20
1.850492000000003
 30
0.0
 10
10.62577700000001
 20
1.8469525
 30
0.0
 10
10.62894900000001
 20
1.843412999999998
 30
0.0
 10
10.63256500000001
 20
1.84037
 30
0.0
 10
10.636181
 20
1.837327000000002
 30
0.0
 10
10.64017500000001
 20
1.834837
 30
0.0
 10
10.64416900000001
 20
1.832346999999999
 30
0.0
 10
10.6484235
 20
1.830472499999999
 30
0.0
 10
10.65267799999999
 20
1.828598
 30
0.0
 10
10.6571155
 20
1.827355999999995
 30
0.0
 10
10.661553
 20
1.82611399999999
 30
0.0
 10
10.6661325
 20
1.82551449999999
 30
0.0
 10
10.67071199999999
 20
1.82491499999999
 30
0.0
 10
10.67262974999999
 20
1.824858999999996
 30
0.0
 10
10.6745475
 20
1.824803000000003
 30
0.0
  0
SPLINE
  5
23F
330
1F
100
AcDbEntity
  8
DEFAULT
100
AcDbSpline
210
0.0
220
0.0
230
1.0
 70
    24
 71
     2
 72
     6
 73
     3
 74
     0
 42
0.0000000001
 43
0.0000000001
 40
0.0
 40
0.0
 40
0.0
 40
1.0
 40
1.0
 40
1.0
 10
10.6745475
 20
1.824803000000003
 30
0.0
 10
11.75328925000001
 20
1.824803005882146
 30
0.0
 10
12.83203100000001
 20
1.824803011764288
 30
0.0
  0
ARC
  5
240
330
1F
100
AcDbEntity
  8
DEFAULT
100
AcDbCircle
 10
12.83203097477208
 20
1.89480298823571
 30
0.0
 40
0.0699999764714284
100
AcDbArc
 50
270.0000206493456
 51
320.0011985761646
  0
SPLINE
  5
241
330
1F
100
AcDbEntity
  8
DEFAULT
100
AcDbSpline
210
0.0
220
0.0
230
1.0
 70
    24
 71
     2
 72
     6
 73
     3
 74
     0
 42
0.0000000001
 43
0.0000000001
 40
0.0
 40
0.0
 40
0.0
 40
1.0
 40
1.0
 40
1.0
 10
12.88565500901213
 20
1.849808992438241
 30
0.0
 10
13.02288745203573
 20
2.013356040246912
 30
0.0
 10
13.16011989505934
 20
2.176903088055582
 30
0.0
  0
ARC
  5
242
330
1F
100
AcDbEntity
  8
DEFAULT
100
AcDbCircle
 10
13.73465250263148
 20
1.694814165417
 30
0.0
 40
0.7499982976610524
100
AcDbArc
 50
113.1114806271821
 51
140.0000688491914
  0
ARC
  5
243
330
1F
100
AcDbEntity
  8
DEFAULT
100
AcDbCircle
 10
13.77064399999999
 20
40.56945228930705
 30
0.0
 40
0.2362205042417922
100
AcDbArc
 50
94.6604298632042
 51
180.0
  0
SPLINE
  5
244
330
1F
100
AcDbEntity
  8
DEFAULT
100
AcDbSpline
210
0.0
220
0.0
230
1.0
 70
    24
 71
     2
 72
     6
 73
     3
 74
     0
 42
0.0000000001
 43
0.0000000001
 40
0.0
 40
0.0
 40
0.0
 40
1.0
 40
1.0
 40
1.0
 10
22.906976
 20
53.40639128930708
 30
0.0
 10
23.969476
 20
53.40639128930708
 30
0.0
 10
25.031976
 20
53.40639128930708
 30
0.0
  0
SPLINE
  5
245
330
1F
100
AcDbEntity
  8
DEFAULT
100
AcDbSpline
210
0.0
220
0.0
230
1.0
 70
    24
 71
     2
 72
     6
 73
     3
 74
     0
 42
0.0000000001
 43
0.0000000001
 40
0.0
 40
0.0
 40
0.0
 40
1.0
 40
1.0
 40
1.0
 10
0.5269559999999842
 20
59.85169528930705
 30
0.0
 10
-0.3762855000000087
 20
59.85169528930705
 30
0.0
 10
-1.279527000000002
 20
59.85169528930705
 30
0.0
  0
SPLINE
  5
246
330
1F
100
AcDbEntity
  8
DEFAULT
100
AcDbSpline
210
0.0
220
0.0
230
1.0
 70
     8
 71
     3
 72
     9
 73
     5
 74
     0
 42
0.0000000001
 43
0.0000000001
 40
0.0
 40
0.0
 40
0.0
 40
0.0
 40
0.06495642802323
 40
0.1688846841498991
 40
0.1688846841498991
 40
0.1688846841498991
 40
0.1688846841498991
 10
4.917045254082986
 20
46.83092290744706
 30
0.0
 10
4.986144547501006
 20
46.87785438632706
 30
0.0
 10
5.165808455622205
 20
46.99986312916654
 30
0.0
 10
5.345492877656376
 20
47.12184165983999
 30
0.0
 10
5.456074825891882
 20
47.19689338927451
 30
0.0
  0
SPLINE
  5
247
330
1F
100
AcDbEntity
  8
DEFAULT
100
AcDbSpline
210
0.0
220
0.0
230
1.0
 70
    24
 71
     2
 72
     6
 73
     3
 74
     0
 42
0.0000000001
 43
0.0000000001
 40
0.0
 40
0.0
 40
0.0
 40
1.0
 40
1.0
 40
1.0
 10
0.5269559999999842
 20
60.57043528930707
 30
0.0
 10
-0.3762855000000087
 20
60.57043528930707
 30
0.0
 10
-1.279527000000002
 20
60.57043528930707
 30
0.0
  0
SPLINE
  5
248
330
1F
100
AcDbEntity
  8
DEFAULT
100
AcDbSpline
210
0.0
220
0.0
230
1.0
 70
    24
 71
     2
 72
     6
 73
     3
 74
     0
 42
0.0000000001
 43
0.0000000001
 40
0.0
 40
0.0
 40
0.0
 40
1.0
 40
1.0
 40
1.0
 10
-1.279527000000002
 20
44.18200028930706
 30
0.0
 10
-1.279527000000002
 20
44.03435778930706
 30
0.0
 10
-1.279527000000002
 20
43.88671528930706
 30
0.0
  0
SPLINE
  5
249
330
1F
100
AcDbEntity
  8
DEFAULT
100
AcDbSpline
210
0.0
220
0.0
230
1.0
 70
     8
 71
     3
 72
    24
 73
    20
 74
     0
 42
0.0000000001
 43
0.0000000001
 40
0.0
 40
0.0
 40
0.0
 40
0.0
 40
1.0
 40
2.0
 40
3.0
 40
4.0
 40
5.0
 40
6.0
 40
7.0
 40
8.0
 40
9.0
 40
10.0
 40
11.0
 40
12.0
 40
13.0
 40
14.0
 40
15.0
 40
16.0
 40
17.0
 40
17.0
 40
17.0
 40
17.0
 10
3.750548999999985
 20
54.22827128930705
 30
0.0
 10
3.655874782317916
 20
54.26684018224388
 30
0.0
 10
3.441490775744491
 20
54.24660134882033
 30
0.0
 10
3.210590123834983
 20
54.03881967894627
 30
0.0
 10
3.06158285965035
 20
53.77439834440993
 30
0.0
 10
2.934118085816046
 20
53.50033740638879
 30
0.0
 10
2.827822707346208
 20
53.21706950640898
 30
0.0
 10
2.734851734333354
 20
52.92934845719388
 30
0.0
 10
2.656471165079303
 20
52.63726655112096
 30
0.0
 10
2.592445355921235
 20
52.34172230576804
 30
0.0
 10
2.543556415834111
 20
52.04322616787023
 30
0.0
 10
2.51005621800298
 20
51.74288989262392
 30
0.0
 10
2.498522581717232
 20
51.43958877209333
 30
0.0
 10
2.52276980395937
 20
51.1407298742913
 30
0.0
 10
2.57208809183232
 20
50.83196827654892
 30
0.0
 10
2.827886264435968
 20
50.6240324641529
 30
0.0
 10
3.139951643820957
 20
50.72231689881907
 30
0.0
 10
3.402281092219262
 20
50.86016848935709
 30
0.0
 10
3.584101612720254
 20
50.95104609997647
 30
0.0
 10
3.673039999999993
 20
50.99783228930706
 30
0.0
  0
ARC
  5
24A
330
1F
100
AcDbEntity
  8
DEFAULT
100
AcDbCircle
 10
0.9251979999999946
 20
60.21106528930706
 30
0.0
 40
0.5364174700570183
100
AcDbArc
 50
198.2689352650012
 51
267.7564376689892
  0
LINE
  5
24B
330
1F
100
AcDbEntity
  8
DEFAULT
100
AcDbLine
 10
15.73609247713354
 20
63.47475025565895
 30
0.0
 11
16.01856259996002
 21
64.44311667349707
 31
0.0
  0
ARC
  5
24C
330
1F
100
AcDbEntity
  8
DEFAULT
100
AcDbCircle
 10
20.686402837101
 20
63.07763760170128
 30
0.0
 40
4.863462303234669
100
AcDbArc
 50
161.6619489663619
 51
163.6942664656203
  0
SPLINE
  5
24D
330
1F
100
AcDbEntity
  8
DEFAULT
100
AcDbSpline
210
0.0
220
0.0
230
1.0
 70
     8
 71
     3
 72
     9
 73
     5
 74
     0
 42
0.0000000001
 43
0.0000000001
 40
0.0
 40
0.0
 40
0.0
 40
0.0
 40
1.0
 40
2.0
 40
2.0
 40
2.0
 40
2.0
 10
16.069923
 20
64.60779428930705
 30
0.0
 10
16.08018590440425
 20
64.61264883587513
 30
0.0
 10
16.09906598755747
 20
64.62597472458886
 30
0.0
 10
16.11160684914854
 20
64.64542381621409
 30
0.0
 10
16.11586389826
 20
64.65594856324707
 30
0.0
  0
SPLINE
  5
24E
330
1F
100
AcDbEntity
  8
DEFAULT
100
AcDbSpline
210
0.0
220
0.0
230
1.0
 70
    24
 71
     2
 72
     6
 73
     3
 74
     0
 42
0.0000000001
 43
0.0000000001
 40
0.0
 40
0.0
 40
0.0
 40
1.0
 40
1.0
 40
1.0
 10
16.11586389826
 20
64.65594856324707
 30
0.0
 10
16.18044666970501
 20
64.88170177526956
 30
0.0
 10
16.24502944115001
 20
65.10745498729206
 30
0.0
  0
SPLINE
  5
24F
330
1F
100
AcDbEntity
  8
DEFAULT
100
AcDbSpline
210
0.0
220
0.0
230
1.0
 70
     8
 71
     3
 72
     9
 73
     5
 74
     0
 42
0.0000000001
 43
0.0000000001
 40
0.0
 40
0.0
 40
0.0
 40
0.0
 40
1.0
 40
2.0
 40
2.0
 40
2.0
 40
2.0
 10
16.24502944115001
 20
65.10745498729206
 30
0.0
 10
16.25719806908363
 20
65.14967592572044
 30
0.0
 10
16.25034499320354
 20
65.24248030082482
 30
0.0
 10
16.18635743083995
 20
65.31003990444124
 30
0.0
 10
16.14697440239438
 20
65.32947449718803
 30
0.0
  0
SPLINE
  5
250
330
1F
100
AcDbEntity
  8
DEFAULT
100
AcDbSpline
210
0.0
220
0.0
230
1.0
 70
     8
 71
     3
 72
     9
 73
     5
 74
     0
 42
0.0000000001
 43
0.0000000001
 40
0.0
 40
0.0
 40
0.0
 40
0.0
 40
1.0
 40
2.0
 40
2.0
 40
2.0
 40
2.0
 10
16.14697440239438
 20
65.32947449718803
 30
0.0
 10
16.05251751481352
 20
65.37681452763535
 30
0.0
 10
15.85592646910833
 20
65.45396415125084
 30
0.0
 10
15.64981810945311
 20
65.50531389350841
 30
0.0
 10
15.54480383041
 20
65.51312377795706
 30
0.0
  0
SPLINE
  5
251
330
1F
100
AcDbEntity
  8
DEFAULT
100
AcDbSpline
210
0.0
220
0.0
230
1.0
 70
     8
 71
     3
 72
     9
 73
     5
 74
     0
 42
0.0000000001
 43
0.0000000001
 40
0.0
 40
0.0
 40
0.0
 40
0.0
 40
1.000000051796527
 40
2.0
 40
2.0
 40
2.0
 40
2.0
 10
15.54480383041
 20
65.51312377795706
 30
0.0
 10
15.50828647265622
 20
65.51087791430972
 30
0.0
 10
15.43685266813723
 20
65.48430772389058
 30
0.0
 10
15.39121988635507
 20
65.42329067963927
 30
0.0
 10
15.37868515718502
 20
65.38892002980704
 30
0.0
  0
SPLINE
  5
252
330
1F
100
AcDbEntity
  8
DEFAULT
100
AcDbSpline
210
0.0
220
0.0
230
1.0
 70
    24
 71
     2
 72
     6
 73
     3
 74
     0
 42
0.0000000001
 43
0.0000000001
 40
0.0
 40
0.0
 40
0.0
 40
1.0
 40
1.0
 40
1.0
 10
15.37868515718502
 20
65.38892002980704
 30
0.0
 10
15.29964657859252
 20
65.17297515955705
 30
0.0
 10
15.22060800000001
 20
64.95703028930707
 30
0.0
  0
SPLINE
  5
253
330
1F
100
AcDbEntity
  8
DEFAULT
100
AcDbSpline
210
0.0
220
0.0
230
1.0
 70
     8
 71
     3
 72
     9
 73
     5
 74
     0
 42
0.0000000001
 43
0.0000000001
 40
0.0
 40
0.0
 40
0.0
 40
0.0
 40
1.0
 40
2.0
 40
2.0
 40
2.0
 40
2.0
 10
15.22060800000001
 20
64.95703028930707
 30
0.0
 10
15.21619950698884
 20
64.94488798559702
 30
0.0
 10
15.21256010138758
 20
64.91852250020612
 30
0.0
 10
15.22040956673025
 20
64.89316097933947
 30
0.0
 10
15.22666300000002
 20
64.88179028930706
 30
0.0
  0
ARC
  5
254
330
1F
100
AcDbEntity
  8
DEFAULT
100
AcDbCircle
 10
10.78794841040153
 20
66.29117665706862
 30
0.0
 40
4.65709750182947
100
AcDbArc
 50
340.2618164902792
 51
342.384248757246
  0
LINE
  5
255
330
1F
100
AcDbEntity
  8
DEFAULT
100
AcDbLine
 10
15.17142134354002
 20
64.71836955319706
 30
0.0
 11
14.87518805063361
 21
63.89275615270232
 31
0.0
  0
SPLINE
  5
256
330
1F
100
AcDbEntity
  8
DEFAULT
100
AcDbSpline
210
0.0
220
0.0
230
1.0
 70
    24
 71
     2
 72
     6
 73
     3
 74
     0
 42
0.0000000001
 43
0.0000000001
 40
0.0
 40
0.0
 40
0.0
 40
1.0
 40
1.0
 40
1.0
 10
41.9359597390954
 20
5.058363
 30
0.0
 10
41.76748023909541
 20
5.058363
 30
0.0
 10
41.59900073909542
 20
5.058363
 30
0.0
  0
SPLINE
  5
257
330
1F
100
AcDbEntity
  8
DEFAULT
100
AcDbSpline
210
0.0
220
0.0
230
1.0
 70
    24
 71
     2
 72
     6
 73
     3
 74
     0
 42
0.0000000001
 43
0.0000000001
 40
0.0
 40
0.0
 40
0.0
 40
1.0
 40
1.0
 40
1.0
 10
32.56495873909542
 20
1.574803000000003
 30
0.0
 10
32.56495873909542
 20
1.515748000000002
 30
0.0
 10
32.56495873909542
 20
1.456693000000001
 30
0.0
  0
ARC
  5
258
330
1F
100
AcDbEntity
  8
DEFAULT
100
AcDbCircle
 10
13.59347899999999
 20
39.36865628930705
 30
0.0
 40
0.0590550000000007
100
AcDbArc
 50
90.0
 51
180.0
  0
ARC
  5
259
330
1F
100
AcDbEntity
  8
DEFAULT
100
AcDbCircle
 10
15.73914799999999
 20
39.82141128930705
 30
0.0
 40
0.5364174439713716
100
AcDbArc
 50
342.2528339451154
 51
52.25831389290884
  0
ARC
  5
25A
330
1F
100
AcDbEntity
  8
DEFAULT
100
AcDbCircle
 10
1.043307999999996
 20
60.95910628930706
 30
0.0
 40
0.236220005894928
100
AcDbArc
 50
0.0
 51
85.33955042935209
  0
ARC
  5
25B
330
1F
100
AcDbEntity
  8
DEFAULT
100
AcDbCircle
 10
24.894673
 20
52.42291028930707
 30
0.0
 40
0.5364178681965175
100
AcDbArc
 50
54.24236117128792
 51
124.2612922488398
  0
ARC
  5
25C
330
1F
100
AcDbEntity
  8
DEFAULT
100
AcDbCircle
 10
15.73914799999999
 20
65.02440928930706
 30
0.0
 40
0.5364171883739351
100
AcDbArc
 50
126.2013248711063
 51
196.2749105793425
  0
ARC
  5
25D
330
1F
100
AcDbEntity
  8
DEFAULT
100
AcDbCircle
 10
15.73914799999999
 20
39.82141128930705
 30
0.0
 40
0.5364173880938494
100
AcDbArc
 50
163.7253244177557
 51
233.7986751288932
  0
ARC
  5
25E
330
1F
100
AcDbEntity
  8
DEFAULT
100
AcDbCircle
 10
13.59347899999999
 20
64.57165328930706
 30
0.0
 40
0.0590550000000007
100
AcDbArc
 50
90.0
 51
180.0
  0
ARC
  5
25F
330
1F
100
AcDbEntity
  8
DEFAULT
100
AcDbCircle
 10
1.043307999999996
 20
45.38279728930706
 30
0.0
 40
0.2362198204416024
100
AcDbArc
 50
15.74179396079519
 51
85.33955042935199
  0
SPLINE
  5
260
330
1F
100
AcDbEntity
  8
DEFAULT
100
AcDbSpline
210
0.0
220
0.0
230
1.0
 70
    24
 71
     2
 72
     6
 73
     3
 74
     0
 42
0.0000000001
 43
0.0000000001
 40
0.0
 40
0.0
 40
0.0
 40
1.0
 40
1.0
 40
1.0
 10
15.453715
 20
1.574803000000003
 30
0.0
 10
15.453715
 20
1.515748000000002
 30
0.0
 10
15.453715
 20
1.456693000000001
 30
0.0
  0
LINE
  5
261
330
1F
100
AcDbEntity
  8
DEFAULT
100
AcDbLine
 10
3.334399503601993
 20
47.04438784359705
 30
0.0
 11
1.040821643185978
 21
45.26926760020706
 31
0.0
  0
ARC
  5
262
330
1F
100
AcDbEntity
  8
DEFAULT
100
AcDbCircle
 10
-1.933020078534298
 20
49.11776504262312
 30
0.0
 40
4.863606393421169
100
AcDbArc
 50
305.6620064713931
 51
307.6942664645116
  0
SPLINE
  5
263
330
1F
100
AcDbEntity
  8
DEFAULT
100
AcDbSpline
210
0.0
220
0.0
230
1.0
 70
     8
 71
     3
 72
     9
 73
     5
 74
     0
 42
0.0000000001
 43
0.0000000001
 40
0.0
 40
0.0
 40
0.0
 40
0.0
 40
1.0
 40
2.0
 40
2.0
 40
2.0
 40
2.0
 10
0.9024749999999813
 20
45.16622928930705
 30
0.0
 10
0.8913187922893542
 20
45.16833469058376
 30
0.0
 10
0.8682117096587092
 20
45.1686508981447
 30
0.0
 10
0.8466341060937168
 20
45.16028773993538
 30
0.0
 10
0.8370037983459895
 20
45.15427525578706
 30
0.0
  0
SPLINE
  5
264
330
1F
100
AcDbEntity
  8
DEFAULT
100
AcDbSpline
210
0.0
220
0.0
230
1.0
 70
     8
 71
     3
 72
     9
 73
     5
 74
     0
 42
0.0000000001
 43
0.0000000001
 40
0.0
 40
0.0
 40
0.0
 40
0.0
 40
1.0
 40
2.0
 40
2.0
 40
2.0
 40
2.0
 10
0.8370037983459895
 20
45.15427525578706
 30
0.0
 10
0.7749282858210904
 20
45.10673111346378
 30
0.0
 10
0.6520154606558606
 20
45.00969192915049
 30
0.0
 10
0.5287032409830772
 20
44.91328208676455
 30
0.0
 10
0.4671177688544788
 20
44.86492061116705
 30
0.0
  0
SPLINE
  5
265
330
1F
100
AcDbEntity
  8
DEFAULT
100
AcDbSpline
210
0.0
220
0.0
230
1.0
 70
     8
 71
     3
 72
     9
 73
     5
 74
     0
 42
0.0000000001
 43
0.0000000001
 40
0.0
 40
0.0
 40
0.0
 40
0.0
 40
1.0
 40
2.0
 40
2.0
 40
2.0
 40
2.0
 10
0.4671177688544788
 20
44.86492061116705
 30
0.0
 10
0.4324561655057266
 20
44.83791527112545
 30
0.0
 10
0.3834517136206443
 20
44.75880702364769
 30
0.0
 10
0.395508029391948
 20
44.66653959288935
 30
0.0
 10
0.4159463211392449
 20
44.62766759155723
 30
0.0
  0
ARC
  5
266
330
1F
100
AcDbEntity
  8
DEFAULT
100
AcDbCircle
 10
2.186586896851139
 20
45.55120921894728
 30
0.0
 40
1.997022079467213
100
AcDbArc
 50
207.5459221365772
 51
224.4545278353179
  0
SPLINE
  5
267
330
1F
100
AcDbEntity
  8
DEFAULT
100
AcDbSpline
210
0.0
220
0.0
230
1.0
 70
     8
 71
     3
 72
     9
 73
     5
 74
     0
 42
0.0000000001
 43
0.0000000001
 40
0.0
 40
0.0
 40
0.0
 40
0.0
 40
1.000000294252826
 40
2.0
 40
2.0
 40
2.0
 40
2.0
 10
0.7610995690789935
 20
44.1526088241809
 30
0.0
 10
0.7917688397756422
 20
44.1211478892786
 30
0.0
 10
0.8758147552238995
 20
44.08118346693466
 30
0.0
 10
0.9661922763540645
 20
44.10337213035068
 30
0.0
 10
1.002563951545
 20
44.12798626278706
 30
0.0
  0
SPLINE
  5
268
330
1F
100
AcDbEntity
  8
DEFAULT
100
AcDbSpline
210
0.0
220
0.0
230
1.0
 70
    24
 71
     2
 72
     6
 73
     3
 74
     0
 42
0.0000000001
 43
0.0000000001
 40
0.0
 40
0.0
 40
0.0
 40
1.0
 40
1.0
 40
1.0
 10
1.002563951545
 20
44.12798626278706
 30
0.0
 10
1.193431761654992
 20
44.25623895409456
 30
0.0
 10
1.384299571764984
 20
44.38449164540206
 30
0.0
  0
SPLINE
  5
269
330
1F
100
AcDbEntity
  8
DEFAULT
100
AcDbSpline
210
0.0
220
0.0
230
1.0
 70
     8
 71
     3
 72
     9
 73
     5
 74
     0
 42
0.0000000001
 43
0.0000000001
 40
0.0
 40
0.0
 40
0.0
 40
0.0
 40
0.9999984608052404
 40
2.0
 40
2.0
 40
2.0
 40
2.0
 10
1.384299571764984
 20
44.38449164540206
 30
0.0
 10
1.395065957659568
 20
44.39172430106798
 30
0.0
 10
1.413445797396832
 20
44.4109206140994
 30
0.0
 10
1.422015104576673
 20
44.43603713238188
 30
0.0
 10
1.423636999999985
 20
44.44890628930706
 30
0.0
  0
ARC
  5
26A
330
1F
100
AcDbEntity
  8
DEFAULT
100
AcDbCircle
 10
4.185711472240605
 20
40.70041596660219
 30
0.0
 40
4.656203935569763
100
AcDbArc
 50
124.2618093167497
 51
126.3846388176401
  0
LINE
  5
26B
330
1F
100
AcDbEntity
  8
DEFAULT
100
AcDbLine
 10
1.564383732923005
 20
44.54864620564706
 30
0.0
 11
3.962630971780989
 21
46.18227819293706
 31
0.0
  0
SPLINE
  5
26C
330
1F
100
AcDbEntity
  8
DEFAULT
100
AcDbSpline
210
0.0
220
0.0
230
1.0
 70
    24
 71
     2
 72
     6
 73
     3
 74
     0
 42
0.0000000001
 43
0.0000000001
 40
0.0
 40
0.0
 40
0.0
 40
1.0
 40
1.0
 40
1.0
 10
22.689948
 20
53.17095128930707
 30
0.0
 10
22.689948
 20
53.04572428930706
 30
0.0
 10
22.689948
 20
52.92049728930705
 30
0.0
  0
SPLINE
  5
26D
330
1F
100
AcDbEntity
  8
DEFAULT
100
AcDbSpline
210
0.0
220
0.0
230
1.0
 70
    24
 71
     2
 72
     6
 73
     3
 74
     0
 42
0.0000000001
 43
0.0000000001
 40
0.0
 40
0.0
 40
0.0
 40
1.0
 40
1.0
 40
1.0
 10
22.689948
 20
51.92531828930704
 30
0.0
 10
22.689948
 20
51.80009378930706
 30
0.0
 10
22.689948
 20
51.67486928930707
 30
0.0
  0
ARC
  5
26E
330
1F
100
AcDbEntity
  8
DEFAULT
100
AcDbCircle
 10
16.03442399999999
 20
65.47716528930705
 30
0.0
 40
0.0590549041019562
100
AcDbArc
 50
319.6771567869321
 51
0.0
  0
SPLINE
  5
26F
330
1F
100
AcDbEntity
  8
DEFAULT
100
AcDbSpline
210
0.0
220
0.0
230
1.0
 70
    24
 71
     2
 72
     6
 73
     3
 74
     0
 42
0.0000000001
 43
0.0000000001
 40
0.0
 40
0.0
 40
0.0
 40
1.0
 40
1.0
 40
1.0
 10
15.340906
 20
65.38377928930704
 30
0.0
 10
14.437665
 20
65.38377928930704
 30
0.0
 10
13.53442399999999
 20
65.38377928930704
 30
0.0
  0
SPLINE
  5
270
330
1F
100
AcDbEntity
  8
DEFAULT
100
AcDbSpline
210
0.0
220
0.0
230
1.0
 70
    24
 71
     2
 72
     6
 73
     3
 74
     0
 42
0.0000000001
 43
0.0000000001
 40
0.0
 40
0.0
 40
0.0
 40
1.0
 40
1.0
 40
1.0
 10
13.75145100000002
 20
38.83793128930706
 30
0.0
 10
14.81395100000002
 20
38.83793128930706
 30
0.0
 10
15.87645100000002
 20
38.83793128930706
 30
0.0
  0
SPLINE
  5
271
330
1F
100
AcDbEntity
  8
DEFAULT
100
AcDbSpline
210
0.0
220
0.0
230
1.0
 70
    24
 71
     2
 72
     6
 73
     3
 74
     0
 42
0.0000000001
 43
0.0000000001
 40
0.0
 40
0.0
 40
0.0
 40
1.0
 40
1.0
 40
1.0
 10
15.37480800000002
 20
65.41811028930705
 30
0.0
 10
14.484144
 20
65.41811028930705
 30
0.0
 10
13.59347999999999
 20
65.41811028930705
 30
0.0
  0
SPLINE
  5
272
330
1F
100
AcDbEntity
  8
DEFAULT
100
AcDbSpline
210
0.0
220
0.0
230
1.0
 70
    24
 71
     2
 72
     6
 73
     3
 74
     0
 42
0.0000000001
 43
0.0000000001
 40
0.0
 40
0.0
 40
0.0
 40
1.0
 40
1.0
 40
1.0
 10
13.75145100000002
 20
66.00788928930707
 30
0.0
 10
14.81395100000002
 20
66.00788928930707
 30
0.0
 10
15.87645100000002
 20
66.00788928930707
 30
0.0
  0
SPLINE
  5
273
330
1F
100
AcDbEntity
  8
DEFAULT
100
AcDbSpline
210
0.0
220
0.0
230
1.0
 70
    24
 71
     2
 72
     6
 73
     3
 74
     0
 42
0.0000000001
 43
0.0000000001
 40
0.0
 40
0.0
 40
0.0
 40
1.0
 40
1.0
 40
1.0
 10
1.062500999999997
 20
61.19454528930704
 30
0.0
 10
0.0000009999999975
 20
61.19454528930704
 30
0.0
 10
-1.062499000000003
 20
61.19454528930704
 30
0.0
  0
SPLINE
  5
274
330
1F
100
AcDbEntity
  8
DEFAULT
100
AcDbSpline
210
0.0
220
0.0
230
1.0
 70
    24
 71
     2
 72
     6
 73
     3
 74
     0
 42
0.0000000001
 43
0.0000000001
 40
0.0
 40
0.0
 40
0.0
 40
1.0
 40
1.0
 40
1.0
 10
-1.220470000000006
 20
44.24105528930706
 30
0.0
 10
-0.3298060000000049
 20
44.24105528930706
 30
0.0
 10
0.5608579999999961
 20
44.24105528930706
 30
0.0
  0
SPLINE
  5
275
330
1F
100
AcDbEntity
  8
DEFAULT
100
AcDbSpline
210
0.0
220
0.0
230
1.0
 70
    24
 71
     2
 72
     6
 73
     3
 74
     0
 42
0.0000000001
 43
0.0000000001
 40
0.0
 40
0.0
 40
0.0
 40
1.0
 40
1.0
 40
1.0
 10
0.0000009999999975
 20
59.85169528930705
 30
0.0
 10
0.0000009999999975
 20
60.21106528930706
 30
0.0
 10
0.0000009999999975
 20
60.57043528930707
 30
0.0
  0
SPLINE
  5
276
330
1F
100
AcDbEntity
  8
DEFAULT
100
AcDbSpline
210
0.0
220
0.0
230
1.0
 70
    24
 71
     2
 72
     6
 73
     3
 74
     0
 42
0.0000000001
 43
0.0000000001
 40
0.0
 40
0.0
 40
0.0
 40
1.0
 40
1.0
 40
1.0
 10
0.0000009999999975
 20
44.27538628930706
 30
0.0
 10
0.0000009999999975
 20
44.63475628930706
 30
0.0
 10
0.0000009999999975
 20
44.99412628930706
 30
0.0
  0
SPLINE
  5
277
330
1F
100
AcDbEntity
  8
DEFAULT
100
AcDbSpline
210
0.0
220
0.0
230
1.0
 70
     8
 71
     3
 72
     8
 73
     4
 74
     0
 42
0.0000000001
 43
0.0000000001
 40
0.0
 40
0.0
 40
0.0
 40
0.0
 40
0.8409155661108851
 40
0.8409155661108851
 40
0.8409155661108851
 40
0.8409155661108851
 10
36.83611463645839
 20
20.47360663682799
 30
0.0
 10
37.93947448808423
 20
20.45603526908393
 30
0.0
 10
39.40343069356892
 20
20.23631007802277
 30
0.0
 10
41.1814960910442
 20
19.2489157617711
 30
0.0
  0
SPLINE
  5
278
330
1F
100
AcDbEntity
  8
DEFAULT
100
AcDbSpline
210
0.0
220
0.0
230
1.0
 70
     8
 71
     3
 72
     8
 73
     4
 74
     0
 42
0.0000000001
 43
0.0000000001
 40
0.9408887256975504
 40
0.9408887256975504
 40
0.9408887256975504
 40
0.9408887256975504
 40
1.0
 40
1.0
 40
1.0
 40
1.0
 10
41.82889844511219
 20
18.86325269969115
 30
0.0
 10
41.95908949733889
 20
18.7804522217166
 30
0.0
 10
42.09080532952372
 20
18.69352629823699
 30
0.0
 10
42.22402979485339
 20
18.60227850362399
 30
0.0
  0
LINE
  5
279
330
1F
100
AcDbEntity
  8
DEFAULT
100
AcDbLine
 10
21.52807281611
 20
51.88953454819706
 30
0.0
 11
24.42817432951999
 21
51.97754210102705
 31
0.0
  0
ARC
  5
27A
330
1F
100
AcDbEntity
  8
DEFAULT
100
AcDbCircle
 10
24.57195196276903
 20
47.11676617244511
 30
0.0
 40
4.862901873953907
100
AcDbArc
 50
89.6617182787808
 51
91.69426660490433
  0
SPLINE
  5
27B
330
1F
100
AcDbEntity
  8
DEFAULT
100
AcDbSpline
210
0.0
220
0.0
230
1.0
 70
     8
 71
     3
 72
     9
 73
     5
 74
     0
 42
0.0000000001
 43
0.0000000001
 40
0.0
 40
0.0
 40
0.0
 40
0.0
 40
1.0
 40
2.0
 40
2.0
 40
2.0
 40
2.0
 10
24.60066299999998
 20
51.97958328930706
 30
0.0
 10
24.60954189289909
 20
51.97012832098518
 30
0.0
 10
24.63123270584133
 20
51.95482970694512
 30
0.0
 10
24.65739236661038
 20
51.95012356545188
 30
0.0
 10
24.67035325823001
 20
51.95058946419705
 30
0.0
  0
SPLINE
  5
27C
330
1F
100
AcDbEntity
  8
DEFAULT
100
AcDbSpline
210
0.0
220
0.0
230
1.0
 70
     8
 71
     3
 72
     9
 73
     5
 74
     0
 42
0.0000000001
 43
0.0000000001
 40
0.0
 40
0.0
 40
0.0
 40
0.0
 40
1.0
 40
2.0
 40
2.0
 40
2.0
 40
2.0
 10
24.67035325823001
 20
51.95058946419705
 30
0.0
 10
24.75430488557167
 20
51.95331061171827
 30
0.0
 10
24.92188848902803
 20
51.96150174954782
 30
0.0
 10
25.09026753005627
 20
51.96291165553295
 30
0.0
 10
25.1732241404
 20
51.97412751854706
 30
0.0
  0
SPLINE
  5
27D
330
1F
100
AcDbEntity
  8
DEFAULT
100
AcDbSpline
210
0.0
220
0.0
230
1.0
 70
     8
 71
     3
 72
     9
 73
     5
 74
     0
 42
0.0000000001
 43
0.0000000001
 40
0.0
 40
0.0
 40
0.0
 40
0.0
 40
1.0
 40
2.0
 40
2.0
 40
2.0
 40
2.0
 10
25.1732241404
 20
51.97412751854706
 30
0.0
 10
25.20853239811036
 20
51.98370428366538
 30
0.0
 10
25.27312658212979
 20
52.02414873918976
 30
0.0
 10
25.30549382000355
 20
52.09312103990585
 30
0.0
 10
25.31083234259474
 20
52.12931510520316
 30
0.0
  0
SPLINE
  5
27E
330
1F
100
AcDbEntity
  8
DEFAULT
100
AcDbSpline
210
0.0
220
0.0
230
1.0
 70
     8
 71
     3
 72
     9
 73
     5
 74
     0
 42
0.0000000001
 43
0.0000000001
 40
0.0
 40
0.0
 40
0.0
 40
0.0
 40
1.0
 40
2.0
 40
2.0
 40
2.0
 40
2.0
 10
25.31083234259474
 20
52.12931510520316
 30
0.0
 10
25.32666499139474
 20
52.2337723368358
 30
0.0
 10
25.33929200763701
 20
52.4445843760147
 30
0.0
 10
25.32441313698057
 20
52.65644202682184
 30
0.0
 10
25.29941202714001
 20
52.75876389276705
 30
0.0
  0
SPLINE
  5
27F
330
1F
100
AcDbEntity
  8
DEFAULT
100
AcDbSpline
210
0.0
220
0.0
230
1.0
 70
     8
 71
     3
 72
     9
 73
     5
 74
     0
 42
0.0000000001
 43
0.0000000001
 40
0.0
 40
0.0
 40
0.0
 40
0.0
 40
1.0
 40
2.0
 40
2.0
 40
2.0
 40
2.0
 10
25.29941202714001
 20
52.75876389276705
 30
0.0
 10
25.28599159524755
 20
52.79279994604296
 30
0.0
 10
25.23864758374371
 20
52.85252685956907
 30
0.0
 10
25.16651562866467
 20
52.87707090696155
 30
0.0
 10
25.12995355963001
 20
52.87837103030706
 30
0.0
  0
SPLINE
  5
280
330
1F
100
AcDbEntity
  8
DEFAULT
100
AcDbSpline
210
0.0
220
0.0
230
1.0
 70
    24
 71
     2
 72
     6
 73
     3
 74
     0
 42
0.0000000001
 43
0.0000000001
 40
0.0
 40
0.0
 40
0.0
 40
1.0
 40
1.0
 40
1.0
 10
25.12995355963001
 20
52.87837103030706
 30
0.0
 10
24.90015340893001
 20
52.88680148565207
 30
0.0
 10
24.67035325823001
 20
52.89523194099708
 30
0.0
  0
SPLINE
  5
281
330
1F
100
AcDbEntity
  8
DEFAULT
100
AcDbSpline
210
0.0
220
0.0
230
1.0
 70
     8
 71
     3
 72
     9
 73
     5
 74
     0
 42
0.0000000001
 43
0.0000000001
 40
0.0
 40
0.0
 40
0.0
 40
0.0
 40
1.0
 40
2.0
 40
2.0
 40
2.0
 40
2.0
 10
24.67035325823001
 20
52.89523194099708
 30
0.0
 10
24.65739175013088
 20
52.89570916724877
 30
0.0
 10
24.63123901222367
 20
52.89098229399239
 30
0.0
 10
24.60954279936645
 20
52.87569993805441
 30
0.0
 10
24.600667
 20
52.86624128930707
 30
0.0
  0
ARC
  5
282
330
1F
100
AcDbEntity
  8
DEFAULT
100
AcDbCircle
 10
24.56942119627523
 20
57.52276891284372
 30
0.0
 40
4.65663245371699
100
AcDbArc
 50
268.2618145394534
 51
270.3844551041773
  0
LINE
  5
283
330
1F
100
AcDbEntity
  8
DEFAULT
100
AcDbLine
 10
24.42817432951999
 20
52.86827913074707
 30
0.0
 11
21.52807314892
 21
52.95628667275706
 31
0.0
  0
LINE
  5
284
330
1F
100
AcDbEntity
  8
DEFAULT
100
AcDbLine
 10
14.19158483545
 20
42.85829311736707
 30
0.0
 11
15.17142134354002
 21
40.12745167857706
 31
0.0
  0
ARC
  5
285
330
1F
100
AcDbEntity
  8
DEFAULT
100
AcDbCircle
 10
10.59265758938432
 20
38.48853380765208
 30
0.0
 40
4.863242673773031
100
AcDbArc
 50
17.66185148551657
 51
19.69426658300133
  0
SPLINE
  5
286
330
1F
100
AcDbEntity
  8
DEFAULT
100
AcDbSpline
210
0.0
220
0.0
230
1.0
 70
     8
 71
     3
 72
     9
 73
     5
 74
     0
 42
0.0000000001
 43
0.0000000001
 40
0.0
 40
0.0
 40
0.0
 40
0.0
 40
1.0
 40
2.0
 40
2.0
 40
2.0
 40
2.0
 10
15.22666500000001
 20
39.96403528930706
 30
0.0
 10
15.22043002924271
 20
39.95266971169197
 30
0.0
 10
15.21255837339127
 20
39.92731332772432
 30
0.0
 10
15.21617690268157
 20
39.90097884324034
 30
0.0
 10
15.22062516171501
 20
39.88879680930707
 30
0.0
  0
SPLINE
  5
287
330
1F
100
AcDbEntity
  8
DEFAULT
100
AcDbSpline
210
0.0
220
0.0
230
1.0
 70
    24
 71
     2
 72
     6
 73
     3
 74
     0
 42
0.0000000001
 43
0.0000000001
 40
0.0
 40
0.0
 40
0.0
 40
1.0
 40
1.0
 40
1.0
 10
15.22062516171501
 20
39.88879680930707
 30
0.0
 10
15.2996465808575
 20
39.67284604930707
 30
0.0
 10
15.37866799999999
 20
39.45689528930707
 30
0.0
  0
SPLINE
  5
288
330
1F
100
AcDbEntity
  8
DEFAULT
100
AcDbSpline
210
0.0
220
0.0
230
1.0
 70
    24
 71
     2
 72
     6
 73
     3
 74
     0
 42
0.0000000001
 43
0.0000000001
 40
-1.0
 40
-1.0
 40
-1.0
 40
0.0
 40
0.0
 40
0.0
 10
15.37866799999999
 20
39.45689528930707
 30
0.0
 10
15.3786895873175
 20
39.45688903573456
 30
0.0
 10
15.378711174635
 20
39.45688278216205
 30
0.0
  0
SPLINE
  5
289
330
1F
100
AcDbEntity
  8
DEFAULT
100
AcDbSpline
210
0.0
220
0.0
230
1.0
 70
     8
 71
     3
 72
     9
 73
     5
 74
     0
 42
0.0000000001
 43
0.0000000001
 40
0.0
 40
0.0
 40
0.0
 40
0.0
 40
1.0
 40
2.0
 40
2.0
 40
2.0
 40
2.0
 10
15.378711174635
 20
39.45688278216205
 30
0.0
 10
15.39123813930802
 20
39.42249154804973
 30
0.0
 10
15.43687847683417
 20
39.36150958976609
 30
0.0
 10
15.50828557023537
 20
39.33494232103847
 30
0.0
 10
15.54479403065999
 20
39.33269987299705
 30
0.0
  0
SPLINE
  5
28A
330
1F
100
AcDbEntity
  8
DEFAULT
100
AcDbSpline
210
0.0
220
0.0
230
1.0
 70
     8
 71
     3
 72
     9
 73
     5
 74
     0
 42
0.0000000001
 43
0.0000000001
 40
0.0
 40
0.0
 40
0.0
 40
0.0
 40
1.0
 40
2.0
 40
2.0
 40
2.0
 40
2.0
 10
15.54479403065999
 20
39.33269987299705
 30
0.0
 10
15.64983593581768
 20
39.34053569144388
 30
0.0
 10
15.85592531142179
 20
39.39185622928689
 30
0.0
 10
16.05252076741392
 20
39.46900942056483
 30
0.0
 10
16.14698842106436
 20
39.51635389266606
 30
0.0
  0
SPLINE
  5
28B
330
1F
100
AcDbEntity
  8
DEFAULT
100
AcDbSpline
210
0.0
220
0.0
230
1.0
 70
     8
 71
     3
 72
     9
 73
     5
 74
     0
 42
0.0000000001
 43
0.0000000001
 40
0.0
 40
0.0
 40
0.0
 40
0.0
 40
1.000000144300852
 40
2.0
 40
2.0
 40
2.0
 40
2.0
 10
16.14698842106436
 20
39.51635389266606
 30
0.0
 10
16.18638651813031
 20
39.53579987540411
 30
0.0
 10
16.25036657817002
 20
39.60338261721392
 30
0.0
 10
16.25719208205759
 20
39.69619344284068
 30
0.0
 10
16.24502238689
 20
39.73839124136707
 30
0.0
  0
SPLINE
  5
28C
330
1F
100
AcDbEntity
  8
DEFAULT
100
AcDbSpline
210
0.0
220
0.0
230
1.0
 70
    24
 71
     2
 72
     6
 73
     3
 74
     0
 42
0.0000000001
 43
0.0000000001
 40
0.0
 40
0.0
 40
0.0
 40
1.0
 40
1.0
 40
1.0
 10
16.24502238689
 20
39.73839124136707
 30
0.0
 10
16.182036693445
 20
39.95955176533707
 30
0.0
 10
16.119051
 20
40.18071228930707
 30
0.0
  0
SPLINE
  5
28D
330
1F
100
AcDbEntity
  8
DEFAULT
100
AcDbSpline
210
0.0
220
0.0
230
1.0
 70
    24
 71
     2
 72
     6
 73
     3
 74
     0
 42
0.0000000001
 43
0.0000000001
 40
-1.0
 40
-1.0
 40
-1.0
 40
0.0
 40
0.0
 40
0.0
 10
16.119051
 20
40.18071228930707
 30
0.0
 10
16.1190334927325
 20
40.18070737246956
 30
0.0
 10
16.119015985465
 20
40.18070245563206
 30
0.0
  0
SPLINE
  5
28E
330
1F
100
AcDbEntity
  8
DEFAULT
100
AcDbSpline
210
0.0
220
0.0
230
1.0
 70
     8
 71
     3
 72
     9
 73
     5
 74
     0
 42
0.0000000001
 43
0.0000000001
 40
0.0
 40
0.0
 40
0.0
 40
0.0
 40
1.0
 40
2.0
 40
2.0
 40
2.0
 40
2.0
 10
16.119015985465
 20
40.18070245563206
 30
0.0
 10
16.11548221614582
 20
40.19318212036114
 30
0.0
 10
16.10290513119092
 20
40.21659401918221
 30
0.0
 10
16.0816664662601
 20
40.23250590124924
 30
0.0
 10
16.06992799999999
 20
40.23802428930706
 30
0.0
  0
ARC
  5
28F
330
1F
100
AcDbEntity
  8
DEFAULT
100
AcDbCircle
 10
20.48865349161586
 20
41.70661917144501
 30
0.0
 40
4.656383349564064
100
AcDbArc
 50
196.2618360636587
 51
198.3845945182933
  0
LINE
  5
290
330
1F
100
AcDbEntity
  8
DEFAULT
100
AcDbLine
 10
16.01856259996002
 20
40.40270455827705
 30
0.0
 11
15.20648253352
 21
43.18668417751705
 31
0.0
  0
SPLINE
  5
291
330
1F
100
AcDbEntity
  8
DEFAULT
100
AcDbSpline
210
0.0
220
0.0
230
1.0
 70
    24
 71
     2
 72
     6
 73
     3
 74
     0
 42
0.0000000001
 43
0.0000000001
 40
0.0
 40
0.0
 40
0.0
 40
1.0
 40
1.0
 40
1.0
 10
25.20963299999998
 20
0.3149609999999967
 30
0.0
 10
25.22931849999999
 20
0.3149609999999967
 30
0.0
 10
25.249004
 20
0.3149609999999967
 30
0.0
  0
SPLINE
  5
292
330
1F
100
AcDbEntity
  8
DEFAULT
100
AcDbSpline
210
0.0
220
0.0
230
1.0
 70
    24
 71
     2
 72
     6
 73
     3
 74
     0
 42
0.0000000001
 43
0.0000000001
 40
0.0
 40
0.0
 40
0.0
 40
1.0
 40
1.0
 40
1.0
 10
24.37388
 20
1.456693000000001
 30
0.0
 10
24.8946725
 20
1.456693000000001
 30
0.0
 10
25.415465
 20
1.456693000000001
 30
0.0
  0
SPLINE
  5
293
330
1F
100
AcDbEntity
  8
DEFAULT
100
AcDbSpline
210
0.0
220
0.0
230
1.0
 70
     8
 71
     3
 72
     8
 73
     4
 74
     0
 42
0.0000000001
 43
0.0000000001
 40
0.0
 40
0.0
 40
0.0
 40
0.0
 40
1.0
 40
1.0
 40
1.0
 40
1.0
 10
15.26696007432001
 20
1.575787065499995
 30
0.0
 10
15.27026887290999
 20
1.575139297909999
 30
0.0
 10
15.27362232416
 20
1.574803113729999
 30
0.0
 10
15.27695329463999
 20
1.574803113729999
 30
0.0
  0
SPLINE
  5
294
330
1F
100
AcDbEntity
  8
DEFAULT
100
AcDbSpline
210
0.0
220
0.0
230
1.0
 70
    12
 71
     2
 72
     8
 73
     5
 74
     0
 42
0.0000000001
 43
0.0000000001
 40
0.6084078194389045
 40
0.6084078194389045
 40
0.6084078194389045
 40
1.405008326934524
 40
1.405008326934524
 40
2.405008326934524
 40
2.405008326934524
 40
2.405008326934524
 10
40.73428537797044
 20
5.32978074845785
 30
0.0
 41
1.0
 10
40.14424736834508
 20
6.089454019238924
 30
0.0
 41
0.921721575516506
 10
39.29896073909539
 20
6.183374000000001
 30
0.0
 41
1.0
 10
37.06222673909541
 20
6.43189799999999
 30
0.0
 41
1.0
 10
34.82581973909539
 20
6.683363
 30
0.0
 41
1.0
  0
SPLINE
  5
295
330
1F
100
AcDbEntity
  8
DEFAULT
100
AcDbSpline
210
0.0
220
0.0
230
1.0
 70
    24
 71
     2
 72
     6
 73
     3
 74
     0
 42
0.0000000001
 43
0.0000000001
 40
0.0
 40
0.0
 40
0.0
 40
1.0
 40
1.0
 40
1.0
 10
16.09347899999999
 20
0.3149609999999967
 30
0.0
 10
16.09347899999999
 20
0.1574804999999984
 30
0.0
 10
16.09347899999999
 20
0.0
 30
0.0
  0
ARC
  5
296
330
1F
100
AcDbEntity
  8
DEFAULT
100
AcDbCircle
 10
-1.220472000000001
 20
44.18200028930706
 30
0.0
 40
0.0590550000000005
100
AcDbArc
 50
90.0
 51
180.0
  0
ARC
  5
297
330
1F
100
AcDbEntity
  8
DEFAULT
100
AcDbCircle
 10
1.043307999999996
 20
59.46302428930706
 30
0.0
 40
0.2362200046778422
100
AcDbArc
 50
274.6604495706479
 51
344.2552071581238
  0
ARC
  5
298
330
1F
100
AcDbEntity
  8
DEFAULT
100
AcDbCircle
 10
-1.220472000000001
 20
59.75830928930706
 30
0.0
 40
0.0590550000000005
100
AcDbArc
 50
90.0
 51
180.0
  0
CIRCLE
  5
299
330
1F
100
AcDbEntity
  8
DEFAULT
100
AcDbCircle
 10
11.64467299999999
 20
52.42291028930707
 30
0.0
 40
8.099999999999998
  0
ARC
  5
29A
330
1F
100
AcDbEntity
  8
DEFAULT
100
AcDbCircle
 10
25.012783
 20
53.17095128930707
 30
0.0
 40
0.2362205042417923
100
AcDbArc
 50
0.0
 51
85.33957013679536
  0
SPLINE
  5
29B
330
1F
100
AcDbEntity
  8
DEFAULT
100
AcDbSpline
210
0.0
220
0.0
230
1.0
 70
    24
 71
     2
 72
     6
 73
     3
 74
     0
 42
0.0000000001
 43
0.0000000001
 40
0.0
 40
0.0
 40
0.0
 40
1.0
 40
1.0
 40
1.0
 10
1.062500999999997
 20
45.61823628930706
 30
0.0
 10
0.0000009999999975
 20
45.61823628930706
 30
0.0
 10
-1.062499000000003
 20
45.61823628930706
 30
0.0
  0
ARC
  5
29C
330
1F
100
AcDbEntity
  8
DEFAULT
100
AcDbCircle
 10
13.59347899999999
 20
40.27416728930706
 30
0.0
 40
0.0590550000000007
100
AcDbArc
 50
180.0
 51
270.0
  0
SPLINE
  5
29D
330
1F
100
AcDbEntity
  8
DEFAULT
100
AcDbSpline
210
0.0
220
0.0
230
1.0
 70
    24
 71
     2
 72
     6
 73
     3
 74
     0
 42
0.0000000001
 43
0.0000000001
 40
0.0
 40
0.0
 40
0.0
 40
1.0
 40
1.0
 40
1.0
 10
13.53442399999999
 20
40.18078228930706
 30
0.0
 10
13.53442399999999
 20
39.82141178930706
 30
0.0
 10
13.53442399999999
 20
39.46204128930707
 30
0.0
  0
SPLINE
  5
29E
330
1F
100
AcDbEntity
  8
DEFAULT
100
AcDbSpline
210
0.0
220
0.0
230
1.0
 70
    24
 71
     2
 72
     6
 73
     3
 74
     0
 42
0.0000000001
 43
0.0000000001
 40
0.0
 40
0.0
 40
0.0
 40
1.0
 40
1.0
 40
1.0
 10
43.74900073909539
 20
1.824803000000003
 30
0.0
 10
43.74900073909539
 20
1.699803000000003
 30
0.0
 10
43.74900073909539
 20
1.574803000000003
 30
0.0
  0
SPLINE
  5
29F
330
1F
100
AcDbEntity
  8
DEFAULT
100
AcDbSpline
210
0.0
220
0.0
230
1.0
 70
    24
 71
     2
 72
     6
 73
     3
 74
     0
 42
0.0000000001
 43
0.0000000001
 40
0.0
 40
0.0
 40
0.0
 40
1.0
 40
1.0
 40
1.0
 10
55.6577587390954
 20
1.574803000000003
 30
0.0
 10
56.1421792390954
 20
1.574803000000003
 30
0.0
 10
56.6265997390954
 20
1.574803000000003
 30
0.0
  0
SPLINE
  5
2A0
330
1F
100
AcDbEntity
  8
DEFAULT
100
AcDbSpline
210
0.0
220
0.0
230
1.0
 70
     8
 71
     3
 72
    11
 73
     7
 74
     0
 42
0.0000000001
 43
0.0000000001
 40
0.0
 40
0.0
 40
0.0
 40
0.0
 40
0.3238269159132
 40
0.6105068404741
 40
0.8343663280072
 40
1.0
 40
1.0
 40
1.0
 40
1.0
 10
43.7687518517594
 20
5.358363253039997
 30
0.0
 10
43.7687518517594
 20
5.351956947839994
 30
0.0
 10
43.76769843508039
 20
5.339830799970002
 30
0.0
 10
43.76292964811542
 20
5.323919441909993
 30
0.0
 10
43.75589077811442
 20
5.312228067829992
 30
0.0
 10
43.7483443908804
 20
5.30836325304
 30
0.0
 10
43.7450676408594
 20
5.30836325304
 30
0.0
  0
SPLINE
  5
2A1
330
1F
100
AcDbEntity
  8
DEFAULT
100
AcDbSpline
210
0.0
220
0.0
230
1.0
 70
     8
 71
     3
 72
    11
 73
     7
 74
     0
 42
0.0000000001
 43
0.0000000001
 40
0.0
 40
0.0
 40
0.0
 40
0.0
 40
0.2075532299286
 40
0.4418436459466
 40
0.7053076879961
 40
1.0
 40
1.0
 40
1.0
 40
1.0
 10
43.49790843583041
 20
7.18336325304
 30
0.0
 10
43.51677474296942
 20
7.18336325304
 30
0.0
 10
43.55693262409342
 20
7.185444161429999
 30
0.0
 10
43.62069126838041
 20
7.192246030159993
 30
0.0
 10
43.69206123753942
 20
7.202041154520003
 30
0.0
 10
43.74224457722842
 20
7.209501280349997
 30
0.0
 10
43.7687518513744
 20
7.213363253040001
 30
0.0
  0
ARC
  5
2A2
330
1F
100
AcDbEntity
  8
DEFAULT
100
AcDbCircle
 10
45.5375897390954
 20
-87.55406
 30
0.0
 40
90.0000002339904
100
AcDbArc
 50
83.93237134882352
 51
88.70347303752472
  0
SPLINE
  5
2A3
330
1F
100
AcDbEntity
  8
DEFAULT
100
AcDbSpline
210
0.0
220
0.0
230
1.0
 70
    24
 71
     2
 72
     6
 73
     3
 74
     0
 42
0.0000000001
 43
0.0000000001
 40
0.0
 40
0.0
 40
0.0
 40
1.0
 40
1.0
 40
1.0
 10
46.62944273909541
 20
1.574803000000003
 30
0.0
 10
47.0878842390954
 20
1.574803000000003
 30
0.0
 10
47.54632573909539
 20
1.574803000000003
 30
0.0
  0
SPLINE
  5
2A4
330
1F
100
AcDbEntity
  8
DEFAULT
100
AcDbSpline
210
0.0
220
0.0
230
1.0
 70
     8
 71
     3
 72
    11
 73
     7
 74
     0
 42
0.0000000001
 43
0.0000000001
 40
0.0
 40
0.0
 40
0.0
 40
0.0
 40
1.0
 40
2.0
 40
3.0
 40
4.0
 40
4.0
 40
4.0
 40
4.0
 10
46.55658473909541
 20
2.587302999999991
 30
0.0
 10
46.59037751384976
 20
2.51363699167355
 30
0.0
 10
46.58393943923765
 20
2.351773055514542
 30
0.0
 10
46.58001018783189
 20
2.113999391480334
 30
0.0
 10
46.57452761844205
 20
1.874863769621058
 30
0.0
 10
46.57119617991724
 20
1.715723754649105
 30
0.0
 10
46.56946573909541
 20
1.636096999999992
 30
0.0
  0
SPLINE
  5
2A5
330
1F
100
AcDbEntity
  8
DEFAULT
100
AcDbSpline
210
0.0
220
0.0
230
1.0
 70
     8
 71
     3
 72
     9
 73
     5
 74
     0
 42
0.0000000001
 43
0.0000000001
 40
0.0
 40
0.0
 40
0.0
 40
0.0
 40
1.0
 40
2.0
 40
2.0
 40
2.0
 40
2.0
 10
42.68085273909539
 20
3.923574000000002
 30
0.0
 10
43.36688236045639
 20
3.855253011332636
 30
0.0
 10
44.72084952698806
 20
3.546928495197619
 30
0.0
 10
45.96558446914968
 20
2.93640373635597
 30
0.0
 10
46.55807273909541
 20
2.584968000000003
 30
0.0
  0
SPLINE
  5
2A6
330
1F
100
AcDbEntity
  8
DEFAULT
100
AcDbSpline
210
0.0
220
0.0
230
1.0
 70
     8
 71
     3
 72
     9
 73
     5
 74
     0
 42
0.0000000001
 43
0.0000000001
 40
0.0
 40
0.0
 40
0.0
 40
0.0
 40
1.0
 40
2.0
 40
2.0
 40
2.0
 40
2.0
 10
42.42309973909541
 20
3.923270000000002
 30
0.0
 10
42.46602811634169
 20
3.924880336384447
 30
0.0
 10
42.55191853957673
 20
3.926281142852559
 30
0.0
 10
42.63786127603841
 20
3.926121142916898
 30
0.0
 10
42.68074773909539
 20
3.923585000000003
 30
0.0
  0
SPLINE
  5
2A7
330
1F
100
AcDbEntity
  8
DEFAULT
100
AcDbSpline
210
0.0
220
0.0
230
1.0
 70
    24
 71
     2
 72
     6
 73
     3
 74
     0
 42
0.0000000001
 43
0.0000000001
 40
0.0
 40
0.0
 40
0.0
 40
1.0
 40
1.0
 40
1.0
 10
43.68525073909539
 20
18.59790399999999
 30
0.0
 10
43.68525073909539
 20
18.57760349999999
 30
0.0
 10
43.68525073909539
 20
18.55730299999999
 30
0.0
  0
SPLINE
  5
2A8
330
1F
100
AcDbEntity
  8
DEFAULT
100
AcDbSpline
210
0.0
220
0.0
230
1.0
 70
     8
 71
     3
 72
     9
 73
     5
 74
     0
 42
0.0000000001
 43
0.0000000001
 40
0.8628925539197678
 40
0.8628925539197678
 40
0.8628925539197678
 40
0.8628925539197678
 40
0.9429061878345
 40
0.9554977799096213
 40
0.9554977799096213
 40
0.9554977799096213
 40
0.9554977799096213
 10
14.70252848648197
 20
59.92354491737633
 30
0.0
 10
14.73780048129355
 20
60.04523207305563
 30
0.0
 10
14.77863694824954
 20
60.18606490704316
 30
0.0
 10
14.81948940213711
 20
60.32689310374936
 30
0.0
 10
14.82504443220797
 20
60.34604151836147
 30
0.0
  0
SPLINE
  5
2A9
330
1F
100
AcDbEntity
  8
DEFAULT
100
AcDbSpline
210
0.0
220
0.0
230
1.0
 70
     8
 71
     3
 72
     8
 73
     4
 74
     0
 42
0.0000000001
 43
0.0000000001
 40
0.0952164460820753
 40
0.0952164460820753
 40
0.0952164460820753
 40
0.0952164460820753
 40
0.1245459979593288
 40
0.1245459979593288
 40
0.1245459979593288
 40
0.1245459979593288
 10
13.63159515672582
 20
60.43263650084786
 30
0.0
 10
13.61425789167099
 20
60.38456154971995
 30
0.0
 10
13.59691872682588
 20
60.3364872837226
 30
0.0
 10
13.57957766384332
 20
60.28841370242931
 30
0.0
  0
ARC
  5
2AA
330
1F
100
AcDbEntity
  8
DEFAULT
100
AcDbCircle
 10
11.64467299999999
 20
52.42291028930707
 30
0.0
 40
9.899999999999999
100
AcDbArc
 50
129.3124289116167
 51
50.68758509619914
  0
ARC
  5
2AB
330
1F
100
AcDbEntity
  8
DEFAULT
100
AcDbCircle
 10
0.9251979999999946
 20
44.63475628930706
 30
0.0
 40
0.5364170303387885
100
AcDbArc
 50
270.1627816765758
 51
340.2791905920644
  0
SPLINE
  5
2AC
330
1F
100
AcDbEntity
  8
DEFAULT
100
AcDbSpline
210
0.0
220
0.0
230
1.0
 70
    24
 71
     2
 72
     6
 73
     3
 74
     0
 42
0.0000000001
 43
0.0000000001
 40
0.0
 40
0.0
 40
0.0
 40
1.0
 40
1.0
 40
1.0
 10
1.062500999999997
 20
59.22758528930707
 30
0.0
 10
0.0000009999999975
 20
59.22758528930707
 30
0.0
 10
-1.062499000000003
 20
59.22758528930707
 30
0.0
  0
SPLINE
  5
2AD
330
1F
100
AcDbEntity
  8
DEFAULT
100
AcDbSpline
210
0.0
220
0.0
230
1.0
 70
    24
 71
     2
 72
     6
 73
     3
 74
     0
 42
0.0000000001
 43
0.0000000001
 40
0.0
 40
0.0
 40
0.0
 40
1.0
 40
1.0
 40
1.0
 10
1.279527999999999
 20
44.18200028930706
 30
0.0
 10
1.279527999999999
 20
44.03435778930706
 30
0.0
 10
1.279527999999999
 20
43.88671528930706
 30
0.0
  0
ARC
  5
2AE
330
1F
100
AcDbEntity
  8
DEFAULT
100
AcDbCircle
 10
1.043307999999996
 20
43.88671528930706
 30
0.0
 40
0.2362205042417924
100
AcDbArc
 50
274.6604298632044
 51
0.0
  0
ARC
  5
2AF
330
1F
100
AcDbEntity
  8
DEFAULT
100
AcDbCircle
 10
-1.220472000000001
 20
45.08751228930707
 30
0.0
 40
0.0590550000000005
100
AcDbArc
 50
180.0
 51
270.0
  0
SPLINE
  5
2B0
330
1F
100
AcDbEntity
  8
DEFAULT
100
AcDbSpline
210
0.0
220
0.0
230
1.0
 70
    24
 71
     2
 72
     6
 73
     3
 74
     0
 42
0.0000000001
 43
0.0000000001
 40
0.0
 40
0.0
 40
0.0
 40
1.0
 40
1.0
 40
1.0
 10
13.53442399999999
 20
39.36865628930705
 30
0.0
 10
13.53442399999999
 20
39.22101378930706
 30
0.0
 10
13.53442399999999
 20
39.07337128930706
 30
0.0
  0
SPLINE
  5
2B1
330
1F
100
AcDbEntity
  8
DEFAULT
100
AcDbSpline
210
0.0
220
0.0
230
1.0
 70
    24
 71
     2
 72
     6
 73
     3
 74
     0
 42
0.0000000001
 43
0.0000000001
 40
0.0
 40
0.0
 40
0.0
 40
1.0
 40
1.0
 40
1.0
 10
16.09347899999999
 20
40.56945228930705
 30
0.0
 10
16.09347899999999
 20
40.42180978930705
 30
0.0
 10
16.09347899999999
 20
40.27416728930706
 30
0.0
  0
SPLINE
  5
2B2
330
1F
100
AcDbEntity
  8
DEFAULT
100
AcDbSpline
210
0.0
220
0.0
230
1.0
 70
    24
 71
     2
 72
     6
 73
     3
 74
     0
 42
0.0000000001
 43
0.0000000001
 40
0.0
 40
0.0
 40
0.0
 40
1.0
 40
1.0
 40
1.0
 10
22.906976
 20
51.43943028930705
 30
0.0
 10
23.969476
 20
51.43943028930705
 30
0.0
 10
25.031976
 20
51.43943028930705
 30
0.0
  0
SPLINE
  5
2B3
330
1F
100
AcDbEntity
  8
DEFAULT
100
AcDbSpline
210
0.0
220
0.0
230
1.0
 70
    24
 71
     2
 72
     6
 73
     3
 74
     0
 42
0.0000000001
 43
0.0000000001
 40
0.0
 40
0.0
 40
0.0
 40
1.0
 40
1.0
 40
1.0
 10
-1.220470000000006
 20
59.81736428930706
 30
0.0
 10
-0.3298060000000049
 20
59.81736428930706
 30
0.0
 10
0.5608579999999961
 20
59.81736428930706
 30
0.0
  0
SPLINE
  5
2B4
330
1F
100
AcDbEntity
  8
DEFAULT
100
AcDbSpline
210
0.0
220
0.0
230
1.0
 70
    24
 71
     2
 72
     6
 73
     3
 74
     0
 42
0.0000000001
 43
0.0000000001
 40
0.0
 40
0.0
 40
0.0
 40
1.0
 40
1.0
 40
1.0
 10
-1.279527000000002
 20
59.75830928930706
 30
0.0
 10
-1.279527000000002
 20
59.61066678930706
 30
0.0
 10
-1.279527000000002
 20
59.46302428930706
 30
0.0
  0
SPLINE
  5
2B5
330
1F
100
AcDbEntity
  8
DEFAULT
100
AcDbSpline
210
0.0
220
0.0
230
1.0
 70
    24
 71
     2
 72
     6
 73
     3
 74
     0
 42
0.0000000001
 43
0.0000000001
 40
0.0
 40
0.0
 40
0.0
 40
1.0
 40
1.0
 40
1.0
 10
13.53442399999999
 20
65.77245028930706
 30
0.0
 10
13.53442399999999
 20
65.62480778930706
 30
0.0
 10
13.53442399999999
 20
65.47716528930705
 30
0.0
  0
ARC
  5
2B6
330
1F
100
AcDbEntity
  8
DEFAULT
100
AcDbCircle
 10
25.189948
 20
51.97015428930708
 30
0.0
 40
0.0590552931447625
100
AcDbArc
 50
0.0
 51
37.07713299743973
  0
SPLINE
  5
2B7
330
1F
100
AcDbEntity
  8
DEFAULT
100
AcDbSpline
210
0.0
220
0.0
230
1.0
 70
    24
 71
     2
 72
     6
 73
     3
 74
     0
 42
0.0000000001
 43
0.0000000001
 40
0.0
 40
0.0
 40
0.0
 40
1.0
 40
1.0
 40
1.0
 10
-1.279527000000002
 20
60.57043528930707
 30
0.0
 10
-1.279527000000002
 20
60.21106528930706
 30
0.0
 10
-1.279527000000002
 20
59.85169528930705
 30
0.0
  0
SPLINE
  5
2B8
330
1F
100
AcDbEntity
  8
DEFAULT
100
AcDbSpline
210
0.0
220
0.0
230
1.0
 70
    24
 71
     2
 72
     6
 73
     3
 74
     0
 42
0.0000000001
 43
0.0000000001
 40
0.0
 40
0.0
 40
0.0
 40
1.0
 40
1.0
 40
1.0
 10
-1.279527000000002
 20
45.38279728930706
 30
0.0
 10
-1.279527000000002
 20
45.23515478930707
 30
0.0
 10
-1.279527000000002
 20
45.08751228930707
 30
0.0
  0
SPLINE
  5
2B9
330
1F
100
AcDbEntity
  8
DEFAULT
100
AcDbSpline
210
0.0
220
0.0
230
1.0
 70
    24
 71
     2
 72
     6
 73
     3
 74
     0
 42
0.0000000001
 43
0.0000000001
 40
0.0
 40
0.0
 40
0.0
 40
1.0
 40
1.0
 40
1.0
 10
-1.279527000000002
 20
60.95910628930706
 30
0.0
 10
-1.279527000000002
 20
60.81146378930707
 30
0.0
 10
-1.279527000000002
 20
60.66382128930708
 30
0.0
  0
SPLINE
  5
2BA
330
1F
100
AcDbEntity
  8
DEFAULT
100
AcDbSpline
210
0.0
220
0.0
230
1.0
 70
    24
 71
     2
 72
     6
 73
     3
 74
     0
 42
0.0000000001
 43
0.0000000001
 40
0.0
 40
0.0
 40
0.0
 40
1.0
 40
1.0
 40
1.0
 10
13.75145100000002
 20
40.80489228930706
 30
0.0
 10
14.3401075
 20
40.80489228930706
 30
0.0
 10
14.92876399999999
 20
40.80489228930706
 30
0.0
  0
SPLINE
  5
2BB
330
1F
100
AcDbEntity
  8
DEFAULT
100
AcDbSpline
210
0.0
220
0.0
230
1.0
 70
     8
 71
     3
 72
     9
 73
     5
 74
     0
 42
0.0000000001
 43
0.0000000001
 40
0.0
 40
0.0
 40
0.0
 40
0.0
 40
1.0
 40
2.0
 40
2.0
 40
2.0
 40
2.0
 10
46.5773814254854
 20
1.984682149479994
 30
0.0
 10
46.10672944427689
 20
2.140017533255858
 30
0.0
 10
45.14114579456442
 20
2.378813557081088
 30
0.0
 10
44.14881220041384
 20
2.452366797159698
 30
0.0
 10
43.6531855756714
 20
2.444803113730003
 30
0.0
  0
SPLINE
  5
2BC
330
1F
100
AcDbEntity
  8
DEFAULT
100
AcDbSpline
210
0.0
220
0.0
230
1.0
 70
     8
 71
     3
 72
     9
 73
     5
 74
     0
 42
0.0000000001
 43
0.0000000001
 40
0.0
 40
0.0
 40
0.0
 40
0.0
 40
1.0
 40
2.0
 40
2.0
 40
2.0
 40
2.0
 10
47.5317227390954
 20
2.791983000000002
 30
0.0
 10
47.04516873260461
 20
3.15441940343085
 30
0.0
 10
46.01500553829548
 20
3.810950054106343
 30
0.0
 10
44.84722166298458
 20
4.189124557873939
 30
0.0
 10
44.2450467390954
 20
4.272122999999993
 30
0.0
  0
ARC
  5
2BD
330
1F
100
AcDbEntity
  8
DEFAULT
100
AcDbCircle
 10
32.71845973909539
 20
1.634803190376303
 30
0.0
 40
0.0600005682155926
100
AcDbArc
 50
270.0
 51
359.5615067429646
  0
SPLINE
  5
2BE
330
1F
100
AcDbEntity
  8
DEFAULT
100
AcDbSpline
210
0.0
220
0.0
230
1.0
 70
    24
 71
     2
 72
     6
 73
     3
 74
     0
 42
0.0000000001
 43
0.0000000001
 40
0.0
 40
0.0
 40
0.0
 40
1.0
 40
1.0
 40
1.0
 10
32.77845855018127
 20
1.634344001445214
 30
0.0
 10
32.78141089463834
 20
2.018644750722608
 30
0.0
 10
32.78436323909541
 20
2.402945500000001
 30
0.0
  0
SPLINE
  5
2BF
330
1F
100
AcDbEntity
  8
DEFAULT
100
AcDbSpline
210
0.0
220
0.0
230
1.0
 70
     8
 71
     3
 72
     9
 73
     5
 74
     0
 42
0.0000000001
 43
0.0000000001
 40
0.0
 40
0.0
 40
0.0
 40
0.0
 40
0.999997703594369
 40
2.0
 40
2.0
 40
2.0
 40
2.0
 10
32.78436323909541
 20
2.402945500000001
 30
0.0
 10
32.78520985878451
 20
2.438346468171957
 30
0.0
 10
32.80039464623927
 20
2.510162831119729
 30
0.0
 10
32.85555842095063
 20
2.562402556786694
 30
0.0
 10
32.8900527390954
 20
2.571394999999995
 30
0.0
  0
ARC
  5
2C0
330
1F
100
AcDbEntity
  8
DEFAULT
100
AcDbCircle
 10
41.87337173909539
 20
-65.659356
 30
0.0
 40
70.00000031907848
100
AcDbArc
 50
77.85516270624356
 51
88.26313167518948
  0
ARC
  5
2C1
330
1F
100
AcDbEntity
  8
DEFAULT
100
AcDbCircle
 10
56.76979273909539
 20
1.441068000000001
 30
0.0
 40
0.015625
100
AcDbArc
 50
0.0
 51
90.0
  0
SPLINE
  5
2C2
330
1F
100
AcDbEntity
  8
DEFAULT
100
AcDbSpline
210
0.0
220
0.0
230
1.0
 70
    24
 71
     2
 72
     6
 73
     3
 74
     0
 42
0.0000000001
 43
0.0000000001
 40
0.0
 40
0.0
 40
0.0
 40
1.0
 40
1.0
 40
1.0
 10
42.62400073909539
 20
7.183363
 30
0.0
 10
42.56205373909539
 20
7.183363
 30
0.0
 10
42.50010673909539
 20
7.183363
 30
0.0
  0
SPLINE
  5
2C3
330
1F
100
AcDbEntity
  8
DEFAULT
100
AcDbSpline
210
0.0
220
0.0
230
1.0
 70
     8
 71
     3
 72
    12
 73
     8
 74
     0
 42
0.0000000001
 43
0.0000000001
 40
0.0
 40
0.0
 40
0.0
 40
0.0
 40
0.2019030208471
 40
0.4028010810718
 40
0.6033397257016
 40
0.8032226618697
 40
1.0
 40
1.0
 40
1.0
 40
1.0
 10
55.76128510383539
 20
2.57059094089
 30
0.0
 10
55.77709196358539
 20
2.567380268959994
 30
0.0
 10
55.80791888769541
 20
2.556651602239995
 30
0.0
 10
55.8480524260054
 20
2.528972846960002
 30
0.0
 10
55.8793411203654
 20
2.491745313409993
 30
0.0
 10
55.89950617365538
 20
2.447903409709994
 30
0.0
 10
55.90478504051539
 20
2.416217846169999
 30
0.0
 10
55.9053121173754
 20
2.40050652731999
 30
0.0
  0
ARC
  5
2C4
330
1F
100
AcDbEntity
  8
DEFAULT
100
AcDbCircle
 10
56.6268687390954
 20
1.634802999999991
 30
0.0
 40
0.0599997758533285
100
AcDbArc
 50
270.0
 51
2.000043803911041
  0
ARC
  5
2C5
330
1F
100
AcDbEntity
  8
DEFAULT
100
AcDbCircle
 10
46.57268273909541
 20
1.441068000000001
 30
0.0
 40
0.015625
100
AcDbArc
 50
90.0
 51
180.0
  0
ARC
  5
2C6
330
1F
100
AcDbEntity
  8
DEFAULT
100
AcDbCircle
 10
46.16827873909541
 20
0.0
 30
0.0
 40
1.279527939310224
100
AcDbArc
 50
15.76206956729274
 51
18.5756033351671
  0
CIRCLE
  5
2C7
330
1F
100
AcDbEntity
  8
DEFAULT
100
AcDbCircle
 10
46.16827873909541
 20
0.0
 30
0.0
 40
1.0625
  0
SPLINE
  5
2C8
330
1F
100
AcDbEntity
  8
DEFAULT
100
AcDbSpline
210
0.0
220
0.0
230
1.0
 70
    24
 71
     2
 72
     6
 73
     3
 74
     0
 42
0.0000000001
 43
0.0000000001
 40
0.0
 40
0.0
 40
0.0
 40
1.0
 40
1.0
 40
1.0
 10
43.5490007390954
 20
16.07480299999999
 30
0.0
 10
43.5490007390954
 20
17.29105299999999
 30
0.0
 10
43.5490007390954
 20
18.50730299999999
 30
0.0
  0
SPLINE
  5
2C9
330
1F
100
AcDbEntity
  8
DEFAULT
100
AcDbSpline
210
0.0
220
0.0
230
1.0
 70
    24
 71
     2
 72
     6
 73
     3
 74
     0
 42
0.0000000001
 43
0.0000000001
 40
0.0
 40
0.0
 40
0.0
 40
1.0
 40
1.0
 40
1.0
 10
42.62400073909539
 20
7.310362999999995
 30
0.0
 10
42.62400073909539
 20
7.261862999999998
 30
0.0
 10
42.62400073909539
 20
7.213363000000001
 30
0.0
  0
SPLINE
  5
2CA
330
1F
100
AcDbEntity
  8
DEFAULT
100
AcDbSpline
210
0.0
220
0.0
230
1.0
 70
    24
 71
     2
 72
     6
 73
     3
 74
     0
 42
0.0000000001
 43
0.0000000001
 40
0.0
 40
0.0
 40
0.0
 40
1.0
 40
1.0
 40
1.0
 10
46.55705773909541
 20
1.441068000000001
 30
0.0
 10
46.55705773909541
 20
1.360298
 30
0.0
 10
46.55705773909541
 20
1.279527999999999
 30
0.0
  0
ARC
  5
2CB
330
1F
100
AcDbEntity
  8
DEFAULT
100
AcDbCircle
 10
43.34400073909539
 20
7.310362999999995
 30
0.0
 40
0.0300000000000002
100
AcDbArc
 50
0.0
 51
90.0
  0
SPLINE
  5
2CC
330
1F
100
AcDbEntity
  8
DEFAULT
100
AcDbSpline
210
0.0
220
0.0
230
1.0
 70
     8
 71
     3
 72
    11
 73
     7
 74
     0
 42
0.0000000001
 43
0.0000000001
 40
0.0
 40
0.0
 40
0.0
 40
0.0
 40
0.2420895812031
 40
0.4923957721452
 40
0.7461078415217
 40
1.0
 40
1.0
 40
1.0
 40
1.0
 10
10.21354373706999
 20
7.213363253040001
 30
0.0
 10
10.198109143964
 20
7.209182294900003
 30
0.0
 10
10.16655387812899
 20
7.201255009379992
 30
0.0
 10
10.11817620842999
 20
7.191705734759992
 30
0.0
 10
10.06850993689699
 20
7.185145285339999
 30
0.0
 10
10.03497109354598
 20
7.18336325304
 30
0.0
 10
10.018200649531
 20
7.18336325304
 30
0.0
  0
SPLINE
  5
2CD
330
1F
100
AcDbEntity
  8
DEFAULT
100
AcDbSpline
210
0.0
220
0.0
230
1.0
 70
     8
 71
     3
 72
    22
 73
    18
 74
     0
 42
0.0000000001
 43
0.0000000001
 40
0.0
 40
0.0
 40
0.0
 40
0.0
 40
0.03224395920562
 40
0.06516053164785
 40
0.09997471003698
 40
0.1385729705325
 40
0.1823155546999
 40
0.2325208678284
 40
0.289874924307
 40
0.3542798855111
 40
0.4249033629272
 40
0.5017027446386
 40
0.5854199733651
 40
0.6765973481372
 40
0.7756816683752
 40
0.8832736446482
 40
1.0
 40
1.0
 40
1.0
 40
1.0
 10
43.91001381564239
 20
5.05836325304
 30
0.0
 10
43.9020322098964
 20
5.05836325304
 30
0.0
 10
43.88581111819239
 20
5.056411249039996
 30
0.0
 10
43.86264561836039
 20
5.04693565318
 30
0.0
 10
43.84132999114938
 20
5.031103500429992
 30
0.0
 10
43.82196328633039
 20
5.009307719459997
 30
0.0
 10
43.80429300928837
 20
4.981537021180003
 30
0.0
 10
43.78819301120238
 20
4.947641034079993
 30
0.0
 10
43.77366954312639
 20
4.907574229559998
 30
0.0
 10
43.7608249215274
 20
4.861681220080001
 30
0.0
 10
43.74968624916939
 20
4.810418153629996
 30
0.0
 10
43.7401825600024
 20
4.753979754629995
 30
0.0
 10
43.7322156104584
 20
4.692174490550002
 30
0.0
 10
43.7257256720314
 20
4.624655516399997
 30
0.0
 10
43.72069709753238
 20
4.551089027419991
 30
0.0
 10
43.71714149148137
 20
4.47110722907
 30
0.0
 10
43.71583135881538
 20
4.415591244200002
 30
0.0
 10
43.71540463052439
 20
4.386700184839995
 30
0.0
  0
SPLINE
  5
2CE
330
1F
100
AcDbEntity
  8
DEFAULT
100
AcDbSpline
210
0.0
220
0.0
230
1.0
 70
    24
 71
     2
 72
     6
 73
     3
 74
     0
 42
0.0000000001
 43
0.0000000001
 40
0.0
 40
0.0
 40
0.0
 40
1.0
 40
1.0
 40
1.0
 10
47.44780673909538
 20
0.3149609999999967
 30
0.0
 10
47.44780673909538
 20
0.1574804999999984
 30
0.0
 10
47.44780673909538
 20
0.0
 30
0.0
  0
SPLINE
  5
2CF
330
1F
100
AcDbEntity
  8
DEFAULT
100
AcDbSpline
210
0.0
220
0.0
230
1.0
 70
    24
 71
     2
 72
     6
 73
     3
 74
     0
 42
0.0000000001
 43
0.0000000001
 40
0.0
 40
0.0
 40
0.0
 40
1.0
 40
1.0
 40
1.0
 10
47.4084357390954
 20
0.3149609999999967
 30
0.0
 10
47.42812123909539
 20
0.3149609999999967
 30
0.0
 10
47.44780673909538
 20
0.3149609999999967
 30
0.0
  0
SPLINE
  5
2D0
330
1F
100
AcDbEntity
  8
DEFAULT
100
AcDbSpline
210
0.0
220
0.0
230
1.0
 70
    24
 71
     2
 72
     6
 73
     3
 74
     0
 42
0.0000000001
 43
0.0000000001
 40
0.0
 40
0.0
 40
0.0
 40
1.0
 40
1.0
 40
1.0
 10
56.68683173909541
 20
1.63689699999999
 30
0.0
 10
56.66796573909541
 20
2.17714999999999
 30
0.0
 10
56.6490997390954
 20
2.71740299999999
 30
0.0
  0
SPLINE
  5
2D1
330
1F
100
AcDbEntity
  8
DEFAULT
100
AcDbSpline
210
0.0
220
0.0
230
1.0
 70
     8
 71
     3
 72
    11
 73
     7
 74
     0
 42
0.0000000001
 43
0.0000000001
 40
0.0
 40
0.0
 40
0.0
 40
0.0
 40
0.2644554190053
 40
0.5206854907126
 40
0.7648104430241
 40
1.0
 40
1.0
 40
1.0
 40
1.0
 10
41.56787147587239
 20
5.358363253039997
 30
0.0
 10
41.56787147587239
 20
5.35188806971999
 30
0.0
 10
41.57007437455739
 20
5.339024108609991
 30
0.0
 10
41.57965472801341
 20
5.32245310255999
 30
0.0
 10
41.59426444221641
 20
5.311096531030003
 30
0.0
 10
41.6061476048754
 20
5.30836325304
 30
0.0
 10
41.61190621440439
 20
5.30836325304
 30
0.0
  0
SPLINE
  5
2D2
330
1F
100
AcDbEntity
  8
DEFAULT
100
AcDbSpline
210
0.0
220
0.0
230
1.0
 70
    24
 71
     2
 72
     6
 73
     3
 74
     0
 42
0.0000000001
 43
0.0000000001
 40
0.0
 40
0.0
 40
0.0
 40
1.0
 40
1.0
 40
1.0
 10
32.59448473909539
 20
0.3149609999999967
 30
0.0
 10
32.6141702390954
 20
0.3149609999999967
 30
0.0
 10
32.63385573909541
 20
0.3149609999999967
 30
0.0
  0
ARC
  5
2D3
330
1F
100
AcDbEntity
  8
DEFAULT
100
AcDbCircle
 10
47.39367373909541
 20
0.5448949999999968
 30
0.0
 40
0.2362201456744931
100
AcDbArc
 50
283.2478113805395
 51
359.9999999999999
  0
SPLINE
  5
2D4
330
1F
100
AcDbEntity
  8
DEFAULT
100
AcDbSpline
210
0.0
220
0.0
230
1.0
 70
     8
 71
     2
 72
    18
 73
    15
 74
     0
 42
0.0000000001
 43
0.0000000001
 40
0.0
 40
0.0
 40
0.0
 40
1.0
 40
1.0
 40
2.0
 40
2.0
 40
3.0
 40
3.0
 40
4.0
 40
4.0
 40
5.0
 40
5.0
 40
6.0
 40
6.0
 40
7.0
 40
7.0
 40
7.0
 10
47.5607437390954
 20
2.739077999999992
 30
0.0
 10
47.5603887390954
 20
2.742706499999997
 30
0.0
 10
47.5600337390954
 20
2.746335000000002
 30
0.0
 10
47.55877673909539
 20
2.7515845
 30
0.0
 10
47.55751973909538
 20
2.756833999999998
 30
0.0
 10
47.5554492390954
 20
2.761777499999994
 30
0.0
 10
47.55337873909541
 20
2.76672099999999
 30
0.0
 10
47.55059223909541
 20
2.77123799999999
 30
0.0
 10
47.54780573909541
 20
2.77575499999999
 30
0.0
 10
47.5445372390954
 20
2.779647999999995
 30
0.0
 10
47.5412687390954
 20
2.783541
 30
0.0
 10
47.53768123909541
 20
2.786832499999996
 30
0.0
 10
47.53409373909541
 20
2.790123999999992
 30
0.0
 10
47.53301323909541
 20
2.790973999999991
 30
0.0
 10
47.53193273909541
 20
2.791823999999991
 30
0.0
  0
SPLINE
  5
2D5
330
1F
100
AcDbEntity
  8
DEFAULT
100
AcDbSpline
210
0.0
220
0.0
230
1.0
 70
    24
 71
     2
 72
     6
 73
     3
 74
     0
 42
0.0000000001
 43
0.0000000001
 40
0.0
 40
0.0
 40
0.0
 40
1.0
 40
1.0
 40
1.0
 10
42.62400073909539
 20
6.733362999999997
 30
0.0
 10
42.99900073909539
 20
6.733362999999997
 30
0.0
 10
43.37400073909539
 20
6.733362999999997
 30
0.0
  0
SPLINE
  5
2D6
330
1F
100
AcDbEntity
  8
DEFAULT
100
AcDbSpline
210
0.0
220
0.0
230
1.0
 70
     8
 71
     3
 72
    22
 73
    18
 74
     0
 42
0.0000000001
 43
0.0000000001
 40
0.0
 40
0.0
 40
0.0
 40
0.0
 40
0.1167500873722
 40
0.2243633665626
 40
0.3234661086496
 40
0.4146584866172
 40
0.4983865594995
 40
0.5751927987383
 40
0.6458186264644
 40
0.7102228255037
 40
0.767575789936
 40
0.8177842197205
 40
0.8615342953004
 40
0.9001349047782
 40
0.9349316304662
 40
0.9678090363997
 40
1.0
 40
1.0
 40
1.0
 40
1.0
 10
42.1305688897114
 20
4.386700184839995
 30
0.0
 10
42.1301420744844
 20
4.415597130050003
 30
0.0
 10
42.12883157959239
 20
4.471124282899993
 30
0.0
 10
42.12527472681241
 20
4.551121786989995
 30
0.0
 10
42.12024421980739
 20
4.624701759659999
 30
0.0
 10
42.1137516899734
 20
4.692231530320001
 30
0.0
 10
42.1057815469734
 20
4.754044583039999
 30
0.0
 10
42.09627416415141
 20
4.81048743385
 30
0.0
 10
42.08513135676039
 20
4.861751786580001
 30
0.0
 10
42.0722820771404
 20
4.907643676630002
 30
0.0
 10
42.05775278910438
 20
4.947708784859998
 30
0.0
 10
42.04164464597339
 20
4.981603659089998
 30
0.0
 10
42.02396349888041
 20
5.00937153449
 30
0.0
 10
42.00458680815741
 20
5.031156432060001
 30
0.0
 10
41.98327128438841
 20
5.046966309859997
 30
0.0
 10
41.9601260006114
 20
5.05641742652999
 30
0.0
 10
41.9439281951994
 20
5.05836325304
 30
0.0
 10
41.9359597045934
 20
5.05836325304
 30
0.0
  0
SPLINE
  5
2D7
330
1F
100
AcDbEntity
  8
DEFAULT
100
AcDbSpline
210
0.0
220
0.0
230
1.0
 70
    24
 71
     2
 72
     6
 73
     3
 74
     0
 42
0.0000000001
 43
0.0000000001
 40
0.0
 40
0.0
 40
0.0
 40
1.0
 40
1.0
 40
1.0
 10
47.6065837390954
 20
1.637293
 30
0.0
 10
47.5836632390954
 20
2.188184499999998
 30
0.0
 10
47.5607427390954
 20
2.739075999999997
 30
0.0
  0
SPLINE
  5
2D8
330
1F
100
AcDbEntity
  8
DEFAULT
100
AcDbSpline
210
0.0
220
0.0
230
1.0
 70
    24
 71
     2
 72
     6
 73
     3
 74
     0
 42
0.0000000001
 43
0.0000000001
 40
0.0
 40
0.0
 40
0.0
 40
1.0
 40
1.0
 40
1.0
 10
47.37890873909539
 20
1.574803000000003
 30
0.0
 10
47.37890873909539
 20
1.515748000000002
 30
0.0
 10
47.37890873909539
 20
1.456693000000001
 30
0.0
  0
SPLINE
  5
2D9
330
1F
100
AcDbEntity
  8
DEFAULT
100
AcDbSpline
210
0.0
220
0.0
230
1.0
 70
    24
 71
     2
 72
     6
 73
     3
 74
     0
 42
0.0000000001
 43
0.0000000001
 40
-1.0
 40
-1.0
 40
-1.0
 40
0.0
 40
0.0
 40
0.0
 10
50.78025673909541
 20
20.64980299999999
 30
0.0
 10
50.91455617564854
 20
20.86472753964626
 30
0.0
 10
51.04885561220168
 20
21.07965207929253
 30
0.0
  0
ARC
  5
2DA
330
1F
100
AcDbEntity
  8
DEFAULT
100
AcDbCircle
 10
50.76900055615245
 20
21.25452572378856
 30
0.0
 40
0.3299994605081066
100
AcDbArc
 50
327.999882649501
 51
16.62705623837251
  0
ARC
  5
2DB
330
1F
100
AcDbEntity
  8
DEFAULT
100
AcDbCircle
 10
47.77945218174854
 20
20.36176150731009
 30
0.0
 40
3.450003856198021
100
AcDbArc
 50
16.62711566253641
 51
42.81730653986687
  0
ARC
  5
2DC
330
1F
100
AcDbEntity
  8
DEFAULT
100
AcDbCircle
 10
49.87000055884242
 20
22.2988038823275
 30
0.0
 40
0.5999993510115813
100
AcDbArc
 50
42.81730060376085
 51
86.39895866622012
  0
ARC
  5
2DD
330
1F
100
AcDbEntity
  8
DEFAULT
100
AcDbCircle
 10
42.99874573918736
 20
-86.88514934934047
 30
0.0
 40
109.9999526695194
100
AcDbArc
 50
86.39896361006214
 51
89.99986717795665
  0
ARC
  5
2DE
330
1F
100
AcDbEntity
  8
DEFAULT
100
AcDbCircle
 10
42.99925473916447
 20
-86.88523428151872
 30
0.0
 40
110.0000376016953
100
AcDbArc
 50
90.00013230115323
 51
93.60103361145285
  0
ARC
  5
2DF
330
1F
100
AcDbEntity
  8
DEFAULT
100
AcDbCircle
 10
36.1280005112837
 20
22.2988036886387
 30
0.0
 40
0.5999997491751065
100
AcDbArc
 50
93.60109658613226
 51
137.182724247455
  0
ARC
  5
2E0
330
1F
100
AcDbEntity
  8
DEFAULT
100
AcDbCircle
 10
38.21854653475636
 20
20.36176215693634
 30
0.0
 40
3.450001954752505
100
AcDbArc
 50
137.1826814888848
 51
163.3728863033141
  0
ARC
  5
2E1
330
1F
100
AcDbEntity
  8
DEFAULT
100
AcDbCircle
 10
35.22900091309423
 20
21.25452579006394
 30
0.0
 40
0.3300003636263555
100
AcDbArc
 50
163.3730040238594
 51
212.0000359252203
  0
SPLINE
  5
2E2
330
1F
100
AcDbEntity
  8
DEFAULT
100
AcDbSpline
210
0.0
220
0.0
230
1.0
 70
    24
 71
     2
 72
     6
 73
     3
 74
     0
 42
0.0000000001
 43
0.0000000001
 40
0.0
 40
0.0
 40
0.0
 40
1.0
 40
1.0
 40
1.0
 10
34.94914484263806
 20
21.07965206470084
 30
0.0
 10
35.08344429086674
 20
20.86472753235041
 30
0.0
 10
35.21774373909541
 20
20.64980299999999
 30
0.0
  0
SPLINE
  5
2E3
330
1F
100
AcDbEntity
  8
DEFAULT
100
AcDbSpline
210
0.0
220
0.0
230
1.0
 70
    24
 71
     2
 72
     6
 73
     3
 74
     0
 42
0.0000000001
 43
0.0000000001
 40
0.0
 40
0.0
 40
0.0
 40
1.0
 40
1.0
 40
1.0
 10
43.94900073909538
 20
16.07480299999999
 30
0.0
 10
43.94900073909538
 20
12.00758299999999
 30
0.0
 10
43.94900073909538
 20
7.940362999999991
 30
0.0
  0
SPLINE
  5
2E4
330
1F
100
AcDbEntity
  8
DEFAULT
100
AcDbSpline
210
0.0
220
0.0
230
1.0
 70
     8
 71
     3
 72
    10
 73
     6
 74
     0
 42
0.0000000001
 43
0.0000000001
 40
0.0
 40
0.0
 40
0.0
 40
0.0
 40
0.3077322598062
 40
0.6415592093998
 40
1.0
 40
1.0
 40
1.0
 40
1.0
 10
52.23131379773481
 20
7.189638580579995
 30
0.0
 10
52.2409456986061
 20
7.191540374799999
 30
0.0
 10
52.26091182543691
 20
7.196085536870001
 30
0.0
 10
52.29175861474432
 20
7.204238708129992
 30
0.0
 10
52.31301104252999
 20
7.210250861239999
 30
0.0
 10
52.3240150092693
 20
7.213363253040001
 30
0.0
  0
SPLINE
  5
2E5
330
1F
100
AcDbEntity
  8
DEFAULT
100
AcDbSpline
210
0.0
220
0.0
230
1.0
 70
    24
 71
     2
 72
     6
 73
     3
 74
     0
 42
0.0000000001
 43
0.0000000001
 40
0.0
 40
0.0
 40
0.0
 40
1.0
 40
1.0
 40
1.0
 10
46.57268273909541
 20
1.456693000000001
 30
0.0
 10
47.09347523909541
 20
1.456693000000001
 30
0.0
 10
47.61426773909541
 20
1.456693000000001
 30
0.0
  0
SPLINE
  5
2E6
330
1F
100
AcDbEntity
  8
DEFAULT
100
AcDbSpline
210
0.0
220
0.0
230
1.0
 70
    24
 71
     2
 72
     6
 73
     3
 74
     0
 42
0.0000000001
 43
0.0000000001
 40
0.0
 40
0.0
 40
0.0
 40
1.0
 40
1.0
 40
1.0
 10
32.63385573909541
 20
0.3149609999999967
 30
0.0
 10
32.63385573909541
 20
0.1574804999999984
 30
0.0
 10
32.63385573909541
 20
0.0
 30
0.0
  0
SPLINE
  5
2E7
330
1F
100
AcDbEntity
  8
DEFAULT
100
AcDbSpline
210
0.0
220
0.0
230
1.0
 70
     8
 71
     3
 72
    22
 73
    18
 74
     0
 42
0.0000000001
 43
0.0000000001
 40
0.0
 40
0.0
 40
0.0
 40
0.0
 40
0.03224395920562
 40
0.06516053164785
 40
0.09997471003698
 40
0.1385729705325
 40
0.1823155546999
 40
0.2325208678284
 40
0.289874924307
 40
0.3542798855111
 40
0.4249033629272
 40
0.5017027446386
 40
0.5854199733651
 40
0.6765973481372
 40
0.7756816683752
 40
0.8832736446482
 40
1.0
 40
1.0
 40
1.0
 40
1.0
 10
42.0879876625484
 20
5.05836325304
 30
0.0
 10
42.09596926829438
 20
5.05836325304
 30
0.0
 10
42.11219035999839
 20
5.056411249039996
 30
0.0
 10
42.1353558598304
 20
5.04693565318
 30
0.0
 10
42.15667148704141
 20
5.031103500429992
 30
0.0
 10
42.1760381918604
 20
5.009307719459997
 30
0.0
 10
42.19370846890241
 20
4.981537021180003
 30
0.0
 10
42.20980846698841
 20
4.947641034079993
 30
0.0
 10
42.2243319350644
 20
4.907574229559998
 30
0.0
 10
42.23717655666339
 20
4.861681220080001
 30
0.0
 10
42.2483152290214
 20
4.810418153629996
 30
0.0
 10
42.25781891818839
 20
4.753979754629995
 30
0.0
 10
42.26578586773239
 20
4.692174490550002
 30
0.0
 10
42.27227580615939
 20
4.624655516399997
 30
0.0
 10
42.27730438065841
 20
4.551089027419991
 30
0.0
 10
42.28085998670942
 20
4.47110722907
 30
0.0
 10
42.28217011937541
 20
4.415591244200002
 30
0.0
 10
42.2825968476664
 20
4.386700184839995
 30
0.0
  0
SPLINE
  5
2E8
330
1F
100
AcDbEntity
  8
DEFAULT
100
AcDbSpline
210
0.0
220
0.0
230
1.0
 70
     8
 71
     3
 72
     8
 73
     4
 74
     0
 42
0.0000000001
 43
0.0000000001
 40
0.0
 40
0.0
 40
0.0
 40
0.0
 40
1.0
 40
1.0
 40
1.0
 40
1.0
 10
46.62128781341541
 20
1.575787065499995
 30
0.0
 10
46.62459661200539
 20
1.575139297909999
 30
0.0
 10
46.6279500632554
 20
1.574803113729999
 30
0.0
 10
46.63128103373539
 20
1.574803113729999
 30
0.0
  0
SPLINE
  5
2E9
330
1F
100
AcDbEntity
  8
DEFAULT
100
AcDbSpline
210
0.0
220
0.0
230
1.0
 70
     8
 71
     3
 72
    10
 73
     6
 74
     0
 42
0.0000000001
 43
0.0000000001
 40
0.0
 40
0.0
 40
0.0
 40
0.0
 40
0.3077322598062
 40
0.6415592093998
 40
1.0
 40
1.0
 40
1.0
 40
1.0
 10
2.412373941360592
 20
7.189638580579995
 30
0.0
 10
2.402742040489308
 20
7.191540374799999
 30
0.0
 10
2.382775913658499
 20
7.196085536870001
 30
0.0
 10
2.351929124351081
 20
7.204238708129992
 30
0.0
 10
2.330676696565412
 20
7.210250861239999
 30
0.0
 10
2.319672729826102
 20
7.213363253040001
 30
0.0
  0
SPLINE
  5
2EA
330
1F
100
AcDbEntity
  8
DEFAULT
100
AcDbSpline
210
0.0
220
0.0
230
1.0
 70
    24
 71
     2
 72
     6
 73
     3
 74
     0
 42
0.0000000001
 43
0.0000000001
 40
0.0
 40
0.0
 40
0.0
 40
1.0
 40
1.0
 40
1.0
 10
1.944747999999976
 20
7.340362999999996
 30
0.0
 10
11.64467299999999
 20
7.340362999999996
 30
0.0
 10
21.344598
 20
7.340362999999996
 30
0.0
  0
SPLINE
  5
2EB
330
1F
100
AcDbEntity
  8
DEFAULT
100
AcDbSpline
210
0.0
220
0.0
230
1.0
 70
    24
 71
     2
 72
     6
 73
     3
 74
     0
 42
0.0000000001
 43
0.0000000001
 40
0.0
 40
0.0
 40
0.0
 40
1.0
 40
1.0
 40
1.0
 10
10.01820100000001
 20
7.183363
 30
0.0
 10
6.251273000000005
 20
7.183363
 30
0.0
 10
2.484344999999998
 20
7.183363
 30
0.0
  0
ARC
  5
2EC
330
1F
100
AcDbEntity
  8
DEFAULT
100
AcDbCircle
 10
11.008423
 20
18.55730299999999
 30
0.0
 40
0.0500000000000007
100
AcDbArc
 50
180.0
 51
270.0
  0
ARC
  5
2ED
330
1F
100
AcDbEntity
  8
DEFAULT
100
AcDbCircle
 10
25.234821
 20
2.714978000000002
 30
0.0
 40
0.0599998134574723
100
AcDbArc
 50
2.000043803910955
 51
77.85422116720478
  0
ARC
  5
2EE
330
1F
100
AcDbEntity
  8
DEFAULT
100
AcDbCircle
 10
23.61719000000001
 20
1.195945999999992
 30
0.0
 40
0.7499994176200921
100
AcDbArc
 50
33.18794770287657
 51
83.9324215644768
  0
SPLINE
  5
2EF
330
1F
100
AcDbEntity
  8
DEFAULT
100
AcDbSpline
210
0.0
220
0.0
230
1.0
 70
     8
 71
     3
 72
    14
 73
    10
 74
     0
 42
0.0000000001
 43
0.0000000001
 40
0.0
 40
0.0
 40
0.0
 40
0.0
 40
0.06772835396254
 40
0.1354567079251
 40
0.2709134158502
 40
0.4063701237752
 40
0.5418268317003
 40
0.8127402475505
 40
1.0
 40
1.0
 40
1.0
 40
1.0
 10
10.244672729826
 20
5.05836325304
 30
0.0
 10
10.26602689649301
 20
5.05836325304
 30
0.0
 10
10.30219353506099
 20
5.051821558269992
 30
0.0
 10
10.358610625319
 20
5.022821981859991
 30
0.0
 10
10.40881188180098
 20
4.966252405009996
 30
0.0
 10
10.45050298949599
 20
4.879818512710003
 30
0.0
 10
10.48905546678899
 20
4.747537656669991
 30
0.0
 10
10.51125496881799
 20
4.58257077159999
 30
0.0
 10
10.51768253395799
 20
4.444540282969996
 30
0.0
 10
10.51888388786401
 20
4.386700249779992
 30
0.0
  0
SPLINE
  5
2F0
330
1F
100
AcDbEntity
  8
DEFAULT
100
AcDbSpline
210
0.0
220
0.0
230
1.0
 70
     8
 71
     3
 72
    11
 73
     7
 74
     0
 42
0.0000000001
 43
0.0000000001
 40
0.0
 40
0.0
 40
0.0
 40
0.0
 40
0.2075532299286
 40
0.4418436459466
 40
0.7053076879961
 40
1.0
 40
1.0
 40
1.0
 40
1.0
 10
11.14577930326499
 20
7.18336325304
 30
0.0
 10
11.12691299612599
 20
7.18336325304
 30
0.0
 10
11.08675511500198
 20
7.185444161429999
 30
0.0
 10
11.02299647071499
 20
7.192246030159993
 30
0.0
 10
10.95162650155599
 20
7.202041154520003
 30
0.0
 10
10.90144316186699
 20
7.209501280349997
 30
0.0
 10
10.874935887721
 20
7.213363253040001
 30
0.0
  0
SPLINE
  5
2F1
330
1F
100
AcDbEntity
  8
DEFAULT
100
AcDbSpline
210
0.0
220
0.0
230
1.0
 70
    24
 71
     2
 72
     6
 73
     3
 74
     0
 42
0.0000000001
 43
0.0000000001
 40
0.0
 40
0.0
 40
0.0
 40
1.0
 40
1.0
 40
1.0
 10
10.89467299999999
 20
1.824803000000003
 30
0.0
 10
10.89467299999999
 20
1.699803000000003
 30
0.0
 10
10.89467299999999
 20
1.574803000000003
 30
0.0
  0
SPLINE
  5
2F2
330
1F
100
AcDbEntity
  8
DEFAULT
100
AcDbSpline
210
0.0
220
0.0
230
1.0
 70
    24
 71
     2
 72
     6
 73
     3
 74
     0
 42
0.0000000001
 43
0.0000000001
 40
0.0
 40
0.0
 40
0.0
 40
1.0
 40
1.0
 40
1.0
 10
10.874936
 20
5.358362999999997
 30
0.0
 10
10.874936
 20
6.334362999999996
 30
0.0
 10
10.874936
 20
7.310362999999995
 30
0.0
  0
SPLINE
  5
2F3
330
1F
100
AcDbEntity
  8
DEFAULT
100
AcDbSpline
210
0.0
220
0.0
230
1.0
 70
     8
 71
     3
 72
    13
 73
     9
 74
     0
 42
0.0000000001
 43
0.0000000001
 40
0.0
 40
0.0
 40
0.0
 40
0.0
 40
0.1983372897061
 40
0.382736114032
 40
0.5542088850058
 40
0.7136951690739
 40
0.8620461467553
 40
1.0
 40
1.0
 40
1.0
 40
1.0
 10
20.80501491027961
 20
7.18336325304
 30
0.0
 10
20.80979809082642
 20
7.18336325304
 30
0.0
 10
20.81902899018841
 20
7.183506443070002
 30
0.0
 10
20.83238223900612
 20
7.184122213699993
 30
0.0
 10
20.84477663486091
 20
7.185068733089992
 30
0.0
 10
20.85627174842942
 20
7.18630275052999
 30
0.0
 10
20.86692035756481
 20
7.187795552379995
 30
0.0
 10
20.87372212369952
 20
7.188994124969994
 30
0.0
 10
20.87698605863942
 20
7.189638580579995
 30
0.0
  0
SPLINE
  5
2F4
330
1F
100
AcDbEntity
  8
DEFAULT
100
AcDbSpline
210
0.0
220
0.0
230
1.0
 70
     8
 71
     3
 72
    22
 73
    18
 74
     0
 42
0.0000000001
 43
0.0000000001
 40
0.0
 40
0.0
 40
0.0
 40
0.0
 40
0.03224395920562
 40
0.06516053164785
 40
0.09997471003698
 40
0.1385729705325
 40
0.1823155546999
 40
0.2325208678284
 40
0.289874924307
 40
0.3542798855111
 40
0.4249033629272
 40
0.5017027446386
 40
0.5854199733651
 40
0.6765973481372
 40
0.7756816683752
 40
0.8832736446482
 40
1.0
 40
1.0
 40
1.0
 40
1.0
 10
12.55568607654699
 20
5.05836325304
 30
0.0
 10
12.54770447080101
 20
5.05836325304
 30
0.0
 10
12.531483379097
 20
5.056411249039996
 30
0.0
 10
12.50831787926499
 20
5.04693565318
 30
0.0
 10
12.48700225205398
 20
5.031103500429992
 30
0.0
 10
12.46763554723499
 20
5.009307719459997
 30
0.0
 10
12.44996527019298
 20
4.981537021180003
 30
0.0
 10
12.43386527210698
 20
4.947641034079993
 30
0.0
 10
12.41934180403099
 20
4.907574229559998
 30
0.0
 10
12.40649718243201
 20
4.861681220080001
 30
0.0
 10
12.39535851007399
 20
4.810418153629996
 30
0.0
 10
12.385854820907
 20
4.753979754629995
 30
0.0
 10
12.377887871363
 20
4.692174490550002
 30
0.0
 10
12.37139793293601
 20
4.624655516399997
 30
0.0
 10
12.36636935843698
 20
4.551089027419991
 30
0.0
 10
12.36281375238597
 20
4.47110722907
 30
0.0
 10
12.36150361971998
 20
4.415591244200002
 30
0.0
 10
12.36107689142899
 20
4.386700184839995
 30
0.0
  0
SPLINE
  5
2F5
330
1F
100
AcDbEntity
  8
DEFAULT
100
AcDbSpline
210
0.0
220
0.0
230
1.0
 70
     8
 71
     3
 72
    14
 73
    10
 74
     0
 42
0.0000000001
 43
0.0000000001
 40
0.0
 40
0.0
 40
0.0
 40
0.0
 40
0.06772835396254
 40
0.1354567079251
 40
0.2709134158502
 40
0.4063701237752
 40
0.5418268317003
 40
0.8127402475505
 40
1.0
 40
1.0
 40
1.0
 40
1.0
 10
13.04467327017399
 20
5.05836325304
 30
0.0
 10
13.02331910350698
 20
5.05836325304
 30
0.0
 10
12.987152464939
 20
5.051821558269992
 30
0.0
 10
12.93073537468099
 20
5.022821981859991
 30
0.0
 10
12.88053411819901
 20
4.966252405009996
 30
0.0
 10
12.83884301050399
 20
4.879818512710003
 30
0.0
 10
12.800290533211
 20
4.747537656669991
 30
0.0
 10
12.778091031182
 20
4.58257077159999
 30
0.0
 10
12.771663466042
 20
4.444540282969996
 30
0.0
 10
12.77046211213597
 20
4.386700249779992
 30
0.0
  0
SPLINE
  5
2F6
330
1F
100
AcDbEntity
  8
DEFAULT
100
AcDbSpline
210
0.0
220
0.0
230
1.0
 70
     8
 71
     3
 72
    11
 73
     7
 74
     0
 42
0.0000000001
 43
0.0000000001
 40
0.0
 40
0.0
 40
0.0
 40
0.0
 40
0.2099554840264
 40
0.4464767505974
 40
0.7142005668392
 40
1.0
 40
1.0
 40
1.0
 40
1.0
 10
12.45626890714497
 20
4.30836325304
 30
0.0
 10
12.463681687598
 20
4.30836325304
 30
0.0
 10
12.479633368309
 20
4.313068125499996
 30
0.0
 10
12.49809548193598
 20
4.33129974117
 30
0.0
 10
12.510057265692
 20
4.356988368529997
 30
0.0
 10
12.51295582549999
 20
4.376610725139997
 30
0.0
 10
12.51310484938399
 20
4.386700184839995
 30
0.0
  0
SPLINE
  5
2F7
330
1F
100
AcDbEntity
  8
DEFAULT
100
AcDbSpline
210
0.0
220
0.0
230
1.0
 70
    24
 71
     2
 72
     6
 73
     3
 74
     0
 42
0.0000000001
 43
0.0000000001
 40
0.0
 40
0.0
 40
0.0
 40
1.0
 40
1.0
 40
1.0
 10
12.55568599999999
 20
5.058363
 30
0.0
 10
12.55568599999999
 20
5.183363
 30
0.0
 10
12.55568599999999
 20
5.308363
 30
0.0
  0
SPLINE
  5
2F8
330
1F
100
AcDbEntity
  8
DEFAULT
100
AcDbSpline
210
0.0
220
0.0
230
1.0
 70
    24
 71
     2
 72
     6
 73
     3
 74
     0
 42
0.0000000001
 43
0.0000000001
 40
0.0
 40
0.0
 40
0.0
 40
1.0
 40
1.0
 40
1.0
 10
12.707714
 20
5.058363
 30
0.0
 10
12.707714
 20
5.183363
 30
0.0
 10
12.707714
 20
5.308363
 30
0.0
  0
ARC
  5
2F9
330
1F
100
AcDbEntity
  8
DEFAULT
100
AcDbCircle
 10
24.303431
 20
1.644802999999996
 30
0.0
 40
0.070000154331804
100
AcDbArc
 50
213.1876810034019
 51
270.0
  0
SPLINE
  5
2FA
330
1F
100
AcDbEntity
  8
DEFAULT
100
AcDbSpline
210
0.0
220
0.0
230
1.0
 70
    24
 71
     2
 72
     6
 73
     3
 74
     0
 42
0.0000000001
 43
0.0000000001
 40
0.0
 40
0.0
 40
0.0
 40
1.0
 40
1.0
 40
1.0
 10
12.19467300000001
 20
16.07480299999999
 30
0.0
 10
12.19467300000001
 20
17.29105299999999
 30
0.0
 10
12.19467300000001
 20
18.50730299999999
 30
0.0
  0
CIRCLE
  5
2FB
330
1F
100
AcDbEntity
  8
DEFAULT
100
AcDbCircle
 10
14.81395100000002
 20
0.0
 30
0.0
 40
1.0625
  0
ARC
  5
2FC
330
1F
100
AcDbEntity
  8
DEFAULT
100
AcDbCircle
 10
14.81395100000002
 20
0.0
 30
0.0
 40
1.279527939310224
100
AcDbArc
 50
15.7620695672927
 51
18.57560333516714
  0
SPLINE
  5
2FD
330
1F
100
AcDbEntity
  8
DEFAULT
100
AcDbSpline
210
0.0
220
0.0
230
1.0
 70
    24
 71
     2
 72
     6
 73
     3
 74
     0
 42
0.0000000001
 43
0.0000000001
 40
0.0
 40
0.0
 40
0.0
 40
1.0
 40
1.0
 40
1.0
 10
20.96968700000001
 20
7.310362999999995
 30
0.0
 10
16.49468700000001
 20
7.310362999999995
 30
0.0
 10
12.01968700000002
 20
7.310362999999995
 30
0.0
  0
SPLINE
  5
2FE
330
1F
100
AcDbEntity
  8
DEFAULT
100
AcDbSpline
210
0.0
220
0.0
230
1.0
 70
     8
 71
     3
 72
    10
 73
     6
 74
     0
 42
0.0000000001
 43
0.0000000001
 40
0.0
 40
0.0
 40
0.0
 40
0.0
 40
0.3410481301419
 40
0.6765784100659
 40
1.0
 40
1.0
 40
1.0
 40
1.0
 10
20.96968727017391
 20
7.310363253039995
 30
0.0
 10
20.98613439145173
 20
7.315015201430001
 30
0.0
 10
21.01877224607101
 20
7.324257329689999
 30
0.0
 10
21.0674921141955
 20
7.335914258979997
 30
0.0
 10
21.10044769634412
 20
7.340363253039996
 30
0.0
 10
21.11665665474091
 20
7.340363253039996
 30
0.0
  0
ARC
  5
2FF
330
1F
100
AcDbEntity
  8
DEFAULT
100
AcDbCircle
 10
11.96967299999999
 20
6.733362999999997
 30
0.0
 40
0.049999999999998
100
AcDbArc
 50
270.0
 51
0.0
  0
SPLINE
  5
300
330
1F
100
AcDbEntity
  8
DEFAULT
100
AcDbSpline
210
0.0
220
0.0
230
1.0
 70
     8
 71
     3
 72
    11
 73
     7
 74
     0
 42
0.0000000001
 43
0.0000000001
 40
0.0
 40
0.0
 40
0.0
 40
0.0
 40
0.2420895812031
 40
0.4923957721452
 40
0.7461078415217
 40
1.0
 40
1.0
 40
1.0
 40
1.0
 10
13.07581626293002
 20
7.213363253040001
 30
0.0
 10
13.09125085603601
 20
7.209182294900003
 30
0.0
 10
13.12280612187102
 20
7.201255009379992
 30
0.0
 10
13.17118379157002
 20
7.191705734759992
 30
0.0
 10
13.22085006310301
 20
7.185145285339999
 30
0.0
 10
13.25438890645403
 20
7.18336325304
 30
0.0
 10
13.27115935046901
 20
7.18336325304
 30
0.0
  0
SPLINE
  5
301
330
1F
100
AcDbEntity
  8
DEFAULT
100
AcDbSpline
210
0.0
220
0.0
230
1.0
 70
     8
 71
     3
 72
    11
 73
     7
 74
     0
 42
0.0000000001
 43
0.0000000001
 40
0.0
 40
0.0
 40
0.0
 40
0.0
 40
0.2644554190053
 40
0.5206854907126
 40
0.7648104430241
 40
1.0
 40
1.0
 40
1.0
 40
1.0
 10
13.07581626322302
 20
5.358363253039997
 30
0.0
 10
13.07581626322302
 20
5.35188806971999
 30
0.0
 10
13.07361336453802
 20
5.339024108609991
 30
0.0
 10
13.064033011082
 20
5.32245310255999
 30
0.0
 10
13.049423296879
 20
5.311096531030003
 30
0.0
 10
13.03754013422001
 20
5.30836325304
 30
0.0
 10
13.03178152469103
 20
5.30836325304
 30
0.0
  0
SPLINE
  5
302
330
1F
100
AcDbEntity
  8
DEFAULT
100
AcDbSpline
210
0.0
220
0.0
230
1.0
 70
     8
 71
     3
 72
    12
 73
     8
 74
     0
 42
0.0000000001
 43
0.0000000001
 40
0.0
 40
0.0
 40
0.0
 40
0.0
 40
0.1904218250629
 40
0.261437522579
 40
0.401253888132
 40
0.677453543699
 40
1.0
 40
1.0
 40
1.0
 40
1.0
 10
0.5081703401619961
 20
2.77661712199
 30
0.0
 10
0.5039111796259874
 20
2.776831982529998
 30
0.0
 10
0.4974238824860038
 20
2.775365820389993
 30
0.0
 10
0.4905454223359982
 20
2.78429305697
 30
0.0
 10
0.5049659240839901
 20
2.789909955740001
 30
0.0
 10
0.5176904713989927
 20
2.795619967980002
 30
0.0
 10
0.5311177511819949
 20
2.799506852859992
 30
0.0
 10
0.5382179008329899
 20
2.801450366330002
 30
0.0
  0
SPLINE
  5
303
330
1F
100
AcDbEntity
  8
DEFAULT
100
AcDbSpline
210
0.0
220
0.0
230
1.0
 70
    24
 71
     2
 72
     6
 73
     3
 74
     0
 42
0.0000000001
 43
0.0000000001
 40
0.0
 40
0.0
 40
0.0
 40
1.0
 40
1.0
 40
1.0
 10
43.63525073909541
 20
18.50730299999999
 30
0.0
 10
42.99900073909541
 20
18.50730299999999
 30
0.0
 10
42.3627507390954
 20
18.50730299999999
 30
0.0
  0
ARC
  5
304
330
1F
100
AcDbEntity
  8
DEFAULT
100
AcDbCircle
 10
46.62945173909539
 20
1.634802999999991
 30
0.0
 40
0.0599999668541479
100
AcDbArc
 50
178.7651789988415
 51
270.0
  0
ARC
  5
305
330
1F
100
AcDbEntity
  8
DEFAULT
100
AcDbCircle
 10
47.54663473909541
 20
1.634802999999991
 30
0.0
 40
0.0600003445855202
100
AcDbArc
 50
270.0
 51
2.378430564960792
  0
SPLINE
  5
306
330
1F
100
AcDbEntity
  8
DEFAULT
100
AcDbSpline
210
0.0
220
0.0
230
1.0
 70
    24
 71
     2
 72
     6
 73
     3
 74
     0
 42
0.0000000001
 43
0.0000000001
 40
0.0
 40
0.0
 40
0.0
 40
1.0
 40
1.0
 40
1.0
 10
40.77531973909539
 20
5.308363
 30
0.0
 10
42.9990047390954
 20
5.308363
 30
0.0
 10
45.2226897390954
 20
5.308363
 30
0.0
  0
SPLINE
  5
307
330
1F
100
AcDbEntity
  8
DEFAULT
100
AcDbSpline
210
0.0
220
0.0
230
1.0
 70
    24
 71
     2
 72
     6
 73
     3
 74
     0
 42
0.0000000001
 43
0.0000000001
 40
0.0
 40
0.0
 40
0.0
 40
1.0
 40
1.0
 40
1.0
 10
2.591947999999981
 20
19.02584399999999
 30
0.0
 10
2.592062499999976
 20
19.02592499999999
 30
0.0
 10
2.592176999999971
 20
19.026006
 30
0.0
  0
SPLINE
  5
308
330
1F
100
AcDbEntity
  8
DEFAULT
100
AcDbSpline
210
0.0
220
0.0
230
1.0
 70
     8
 71
     2
 72
    34
 73
    31
 74
     0
 42
0.0000000001
 43
0.0000000001
 40
0.0
 40
0.0
 40
0.0
 40
1.0
 40
1.0
 40
2.0
 40
2.0
 40
3.0
 40
3.0
 40
4.0
 40
4.0
 40
5.0
 40
5.0
 40
6.0
 40
6.0
 40
7.0
 40
7.0
 40
8.0
 40
8.0
 40
9.0
 40
9.0
 40
10.0
 40
10.0
 40
11.0
 40
11.0
 40
12.0
 40
12.0
 40
13.0
 40
13.0
 40
14.0
 40
14.0
 40
15.0
 40
15.0
 40
15.0
 10
6.859187999999996
 20
19.14127799999999
 30
0.0
 10
6.859186499999986
 20
19.13915899999999
 30
0.0
 10
6.859184999999975
 20
19.13703999999998
 30
0.0
 10
6.858959499999976
 20
19.13493249999999
 30
0.0
 10
6.858733999999977
 20
19.132825
 30
0.0
 10
6.858286499999984
 20
19.13075349999999
 30
0.0
 10
6.857838999999991
 20
19.12868199999998
 30
0.0
 10
6.85717549999999
 20
19.12666949999998
 30
0.0
 10
6.856511999999988
 20
19.12465699999998
 30
0.0
 10
6.855638499999976
 20
19.12272649999998
 30
0.0
 10
6.854764999999965
 20
19.12079599999998
 30
0.0
 10
6.853692499999973
 20
19.11896799999999
 30
0.0
 10
6.85261999999998
 20
19.11713999999999
 30
0.0
 10
6.851359999999978
 20
19.11543599999999
 30
0.0
 10
6.850099999999976
 20
19.11373199999998
 30
0.0
 10
6.848666999999985
 20
19.11217099999999
 30
0.0
 10
6.847233999999993
 20
19.11060999999999
 30
0.0
 10
6.845643999999986
 20
19.10920949999999
 30
0.0
 10
6.844053999999979
 20
19.10780899999999
 30
0.0
 10
6.842323999999984
 20
19.10658449999999
 30
0.0
 10
6.840593999999989
 20
19.10535999999999
 30
0.0
 10
6.838744999999982
 20
19.10432499999999
 30
0.0
 10
6.836895999999975
 20
19.10328999999999
 30
0.0
 10
6.834947499999977
 20
19.10245699999999
 30
0.0
 10
6.83299899999998
 20
19.10162399999999
 30
0.0
 10
6.830972999999979
 20
19.10100149999999
 30
0.0
 10
6.828946999999978
 20
19.10037899999999
 30
0.0
 10
6.826866999999986
 20
19.09997449999999
 30
0.0
 10
6.824786999999993
 20
19.09956999999999
 30
0.0
 10
6.822735999999985
 20
19.09938999999999
 30
0.0
 10
6.820684999999976
 20
19.09920999999999
 30
0.0
  0
SPLINE
  5
309
330
1F
100
AcDbEntity
  8
DEFAULT
100
AcDbSpline
210
0.0
220
0.0
230
1.0
 70
    24
 71
     2
 72
     6
 73
     3
 74
     0
 42
0.0000000001
 43
0.0000000001
 40
0.0
 40
0.0
 40
0.0
 40
1.0
 40
1.0
 40
1.0
 10
6.85503299999997
 20
19.22056299999998
 30
0.0
 10
7.062248499452288
 20
19.23142251045046
 30
0.0
 10
7.269463998904605
 20
19.24228202090094
 30
0.0
  0
ARC
  5
30A
330
1F
100
AcDbEntity
  8
DEFAULT
100
AcDbCircle
 10
7.208753923092026
 20
20.40069197501101
 30
0.0
 40
1.159999713399296
100
AcDbArc
 50
273.0000188727368
 51
303.0000567613872
  0
SPLINE
  5
30B
330
1F
100
AcDbEntity
  8
DEFAULT
100
AcDbSpline
210
0.0
220
0.0
230
1.0
 70
    24
 71
     2
 72
     6
 73
     3
 74
     0
 42
0.0000000001
 43
0.0000000001
 40
0.0
 40
0.0
 40
0.0
 40
1.0
 40
1.0
 40
1.0
 10
7.840536011399088
 20
19.42783498244692
 30
0.0
 10
8.18102750569954
 20
19.64895249122345
 30
0.0
 10
8.52151899999999
 20
19.87006999999998
 30
0.0
  0
SPLINE
  5
30C
330
1F
100
AcDbEntity
  8
DEFAULT
100
AcDbSpline
210
0.0
220
0.0
230
1.0
 70
     8
 71
     3
 72
    34
 73
    30
 74
     0
 42
0.0000000001
 43
0.0000000001
 40
0.0
 40
0.0
 40
0.0
 40
0.0
 40
1.0
 40
2.0
 40
3.0
 40
4.0
 40
5.0
 40
6.0
 40
7.0
 40
8.0
 40
9.0
 40
10.0
 40
11.0
 40
12.0
 40
13.0
 40
14.0
 40
15.0
 40
16.0
 40
17.0
 40
18.0
 40
19.0
 40
20.0
 40
21.0
 40
22.0
 40
23.0
 40
24.0
 40
25.0
 40
26.0
 40
27.0
 40
27.0
 40
27.0
 40
27.0
 10
4.08304054357999
 20
19.422660475291
 30
0.0
 10
4.062746547604384
 20
19.41877910654262
 30
0.0
 10
4.022207635480846
 20
19.41075973546947
 30
0.0
 10
3.961565667115686
 20
19.39791490143259
 30
0.0
 10
3.901132406649374
 20
19.38412315621299
 30
0.0
 10
3.840870992150634
 20
19.36960009006904
 30
0.0
 10
3.780830095206291
 20
19.35418713629609
 30
0.0
 10
3.7210908429604
 20
19.33763745549076
 30
0.0
 10
3.661779239685764
 20
19.31960812478836
 30
0.0
 10
3.603016104016554
 20
19.2998608210797
 30
0.0
 10
3.544866334928976
 20
19.27837420374105
 30
0.0
 10
3.487368247742758
 20
19.25520356135119
 30
0.0
 10
3.430440872167118
 20
19.23067004635402
 30
0.0
 10
3.373969659322718
 20
19.20510787097928
 30
0.0
 10
3.317800995928089
 20
19.17889032430368
 30
0.0
 10
3.261686654237089
 20
19.15256027192683
 30
0.0
 10
3.205364370884759
 20
19.12666508552911
 30
0.0
 10
3.148353563879773
 20
19.10232753224381
 30
0.0
 10
3.091322030191868
 20
19.07804760657208
 30
0.0
 10
3.034265490465977
 20
19.05382344871356
 30
0.0
 10
2.97701325987672
 20
19.0300648208361
 30
0.0
 10
2.919327766108388
 20
19.00736322190251
 30
0.0
 10
2.860983716866379
 20
18.98642065761467
 30
0.0
 10
2.801487817686258
 20
18.96876257318738
 30
0.0
 10
2.741210399605599
 20
18.95494180828439
 30
0.0
 10
2.678742170551921
 20
18.94773478876083
 30
0.0
 10
2.619927414623483
 20
18.94535318086999
 30
0.0
 10
2.546841878693449
 20
18.97679095866579
 30
0.0
 10
2.586312367972035
 20
19.02312439524763
 30
0.0
 10
2.602074999999992
 20
19.032022
 30
0.0
  0
SPLINE
  5
30D
330
1F
100
AcDbEntity
  8
DEFAULT
100
AcDbSpline
210
0.0
220
0.0
230
1.0
 70
    24
 71
     2
 72
     6
 73
     3
 74
     0
 42
0.0000000001
 43
0.0000000001
 40
0.0
 40
0.0
 40
0.0
 40
1.0
 40
1.0
 40
1.0
 10
2.826149999999991
 20
18.788242
 30
0.0
 10
2.826188999999992
 20
18.78825299999999
 30
0.0
 10
2.826227999999993
 20
18.78826399999998
 30
0.0
  0
SPLINE
  5
30E
330
1F
100
AcDbEntity
  8
DEFAULT
100
AcDbSpline
210
0.0
220
0.0
230
1.0
 70
    24
 71
     2
 72
     6
 73
     3
 74
     0
 42
0.0000000001
 43
0.0000000001
 40
0.0
 40
0.0
 40
0.0
 40
1.0
 40
1.0
 40
1.0
 10
6.859187999999996
 20
19.14127599999999
 30
0.0
 10
6.846618999999983
 20
19.38110699999999
 30
0.0
 10
6.834049999999969
 20
19.620938
 30
0.0
  0
SPLINE
  5
30F
330
1F
100
AcDbEntity
  8
DEFAULT
100
AcDbSpline
210
0.0
220
0.0
230
1.0
 70
    24
 71
     2
 72
     6
 73
     3
 74
     0
 42
0.0000000001
 43
0.0000000001
 40
0.0
 40
0.0
 40
0.0
 40
1.0
 40
1.0
 40
1.0
 10
2.563334999999974
 20
19.003075
 30
0.0
 10
2.56336049999998
 20
19.00309849999999
 30
0.0
 10
2.563385999999987
 20
19.00312199999999
 30
0.0
  0
SPLINE
  5
310
330
1F
100
AcDbEntity
  8
DEFAULT
100
AcDbSpline
210
0.0
220
0.0
230
1.0
 70
     8
 71
     3
 72
     9
 73
     5
 74
     0
 42
0.0000000001
 43
0.0000000001
 40
0.0
 40
0.0
 40
0.0
 40
0.0
 40
1.0
 40
2.0
 40
2.0
 40
2.0
 40
2.0
 10
4.09560221121999
 20
19.07287579687599
 30
0.0
 10
4.123656972591483
 20
19.12574034293333
 30
0.0
 10
4.11756532221569
 20
19.24884242522286
 30
0.0
 10
4.120231484820586
 20
19.37478864395754
 30
0.0
 10
4.08304054357999
 20
19.422660475291
 30
0.0
  0
SPLINE
  5
311
330
1F
100
AcDbEntity
  8
DEFAULT
100
AcDbSpline
210
0.0
220
0.0
230
1.0
 70
    24
 71
     2
 72
     6
 73
     3
 74
     0
 42
0.0000000001
 43
0.0000000001
 40
0.0
 40
0.0
 40
0.0
 40
1.0
 40
1.0
 40
1.0
 10
6.838284999999992
 20
19.54012399999999
 30
0.0
 10
7.045501004243896
 20
19.55098391902291
 30
0.0
 10
7.252717008487799
 20
19.56184383804583
 30
0.0
  0
ARC
  5
312
330
1F
100
AcDbEntity
  8
DEFAULT
100
AcDbCircle
 10
7.208754595934103
 20
20.40069219363095
 30
0.0
 40
0.8399995579673843
100
AcDbArc
 50
273.0000158765879
 51
302.9999810560531
  0
SPLINE
  5
313
330
1F
100
AcDbEntity
  8
DEFAULT
100
AcDbSpline
210
0.0
220
0.0
230
1.0
 70
    24
 71
     2
 72
     6
 73
     3
 74
     0
 42
0.0000000001
 43
0.0000000001
 40
0.0
 40
0.0
 40
0.0
 40
1.0
 40
1.0
 40
1.0
 10
7.666250911672314
 20
19.69620913601256
 30
0.0
 10
7.905668955836141
 20
19.85168906800627
 30
0.0
 10
8.145086999999968
 20
20.00716899999999
 30
0.0
  0
SPLINE
  5
314
330
1F
100
AcDbEntity
  8
DEFAULT
100
AcDbSpline
210
0.0
220
0.0
230
1.0
 70
     8
 71
     3
 72
    24
 73
    20
 74
     0
 42
0.0000000001
 43
0.0000000001
 40
-17.0
 40
-17.0
 40
-17.0
 40
-17.0
 40
-16.0
 40
-15.0
 40
-14.0
 40
-13.0
 40
-12.0
 40
-11.0
 40
-10.0
 40
-9.0
 40
-8.0
 40
-7.0
 40
-6.0
 40
-5.0
 40
-4.0
 40
-3.0
 40
-2.0
 40
-1.0
 40
0.0
 40
0.0
 40
0.0
 40
0.0
 10
6.792838999999994
 20
19.65882599999999
 30
0.0
 10
6.722681991638616
 20
19.65657896118805
 30
0.0
 10
6.58243417197648
 20
19.65018097266486
 30
0.0
 10
6.372284863508192
 20
19.63667720331858
 30
0.0
 10
6.162254312564393
 20
19.62151386761907
 30
0.0
 10
5.952212714220032
 20
19.6064999189377
 30
0.0
 10
5.742142944330972
 20
19.59188616221839
 30
0.0
 10
5.532024683637708
 20
19.57798701726749
 30
0.0
 10
5.321894242644397
 20
19.56425895489951
 30
0.0
 10
5.111861008482869
 20
19.54913195008704
 30
0.0
 10
4.901818436667959
 20
19.5341273654752
 30
0.0
 10
4.69174800297538
 20
19.519539467076
 30
0.0
 10
4.481721927788108
 20
19.50424240942304
 30
0.0
 10
4.272052852351841
 20
19.48459021344999
 30
0.0
 10
4.062814680406639
 20
19.46074412747397
 30
0.0
 10
3.854381146393088
 20
19.43055184765876
 30
0.0
 10
3.647337547463572
 20
19.39183656261454
 30
0.0
 10
3.442313346701134
 20
19.34356129739045
 30
0.0
 10
3.264011814295408
 20
19.29284151659375
 30
0.0
 10
3.196593999999983
 20
19.27330599999999
 30
0.0
  0
SPLINE
  5
315
330
1F
100
AcDbEntity
  8
DEFAULT
100
AcDbSpline
210
0.0
220
0.0
230
1.0
 70
    12
 71
     3
 72
    27
 73
    23
 74
     0
 42
0.0000000001
 43
0.0000000001
 40
-17.0
 40
-17.0
 40
-17.0
 40
-17.0
 40
-16.0
 40
-15.0
 40
-14.0
 40
-13.0
 40
-12.0
 40
-11.0
 40
-10.0
 40
-9.0
 40
-8.0
 40
-7.0
 40
-6.0
 40
-5.0
 40
-4.0
 40
-3.0
 40
-2.0
 40
-1.0
 40
0.0
 40
0.0
 40
0.0
 40
0.1655289182882165
 40
0.1655289182882165
 40
0.1655289182882165
 40
0.1655289182882165
 10
3.196593999999983
 20
19.27330599999999
 30
0.0
 41
1.0
 10
3.157126216970433
 20
19.26186950449282
 30
0.0
 41
1.0
 10
3.034967314148538
 20
19.22653338164676
 30
0.0
 41
1.0
 10
2.918356684475363
 20
19.18646379560685
 30
0.0
 41
1.0
 10
2.80378196882004
 20
19.14079507989764
 30
0.0
 41
1.0
 10
2.692916918113731
 20
19.08665179609433
 30
0.0
 41
1.0
 10
2.584485839263387
 20
19.02844950588359
 30
0.0
 41
1.0
 10
2.494727202148006
 20
18.93595988263949
 30
0.0
 41
1.0
 10
2.507998551971191
 20
18.79448902192664
 30
0.0
 41
1.0
 10
2.637261917260481
 20
18.75002580581051
 30
0.0
 41
1.0
 10
2.758817177278964
 20
18.76872256882864
 30
0.0
 41
1.0
 10
2.877592723827753
 20
18.80270166672298
 30
0.0
 41
1.0
 10
2.995153056786684
 20
18.8395997562897
 30
0.0
 41
1.0
 10
3.112445041294457
 20
18.87761966849732
 30
0.0
 41
1.0
 10
3.230795268541534
 20
18.91218612445981
 30
0.0
 41
1.0
 10
3.349327335348825
 20
18.94577946498602
 30
0.0
 41
1.0
 10
3.468027216126309
 20
18.98014113440064
 30
0.0
 41
1.0
 10
3.586044967869164
 20
19.01179931498312
 30
0.0
 41
1.0
 10
3.669307094651266
 20
19.0289468819693
 30
0.0
 41
1.0
 10
3.704762999999993
 20
19.03495799999999
 30
0.0
 41
1.0
 10
3.75917704327054
 20
19.04418324001034
 30
0.0
 41
0.9994851325376918
 10
3.813911557624389
 20
19.05126321859429
 30
0.0
 41
0.9994851325376918
 10
3.868881999999964
 20
19.05618699999999
 30
0.0
 41
1.0
  0
SPLINE
  5
316
330
1F
100
AcDbEntity
  8
DEFAULT
100
AcDbSpline
210
0.0
220
0.0
230
1.0
 70
     8
 71
     3
 72
    19
 73
    15
 74
     0
 42
0.0000000001
 43
0.0000000001
 40
-12.0
 40
-12.0
 40
-12.0
 40
-12.0
 40
-11.0
 40
-10.0
 40
-9.0
 40
-8.0
 40
-7.0
 40
-6.0
 40
-5.0
 40
-4.0
 40
-3.0
 40
-2.0
 40
-1.0
 40
0.0
 40
0.0
 40
0.0
 40
0.0
 10
3.868881999999964
 20
19.05618699999999
 30
0.0
 10
3.950920275489615
 20
19.05863520597059
 30
0.0
 10
4.114992000958303
 20
19.06364661630015
 30
0.0
 10
4.361126026043458
 20
19.07042865752196
 30
0.0
 10
4.607260831255338
 20
19.07659748107375
 30
0.0
 10
4.853417973934064
 20
19.08400008814121
 30
0.0
 10
5.099595071669661
 20
19.08265582401742
 30
0.0
 10
5.344694488649544
 20
19.05637084557479
 30
0.0
 10
5.590796644528957
 20
19.04575204967212
 30
0.0
 10
5.837065978144814
 20
19.05045344380966
 30
0.0
 10
6.082857154069764
 20
19.06528266963673
 30
0.0
 10
6.328536642676688
 20
19.08178689008264
 30
0.0
 10
6.574584707532729
 20
19.09148201950339
 30
0.0
 10
6.738656527406683
 20
19.09644425821595
 30
0.0
 10
6.820684999999976
 20
19.09920999999999
 30
0.0
  0
ENDSEC
  0
SECTION
  2
OBJECTS
  0
DICTIONARY
  5
C
330
0
100
AcDbDictionary
281
     1
  3
ACAD_GROUP
350
D
  3
ACAD_LAYOUT
350
1A
  3
ACAD_MLEADERSTYLE
350
318
  3
ACAD_MLINESTYLE
350
17
  3
ACAD_PLOTSETTINGS
350
19
  3
ACAD_PLOTSTYLENAME
350
E
  3
ACAD_SCALELIST
350
3B
  3
ACAD_TABLESTYLE
350
317
  3
ACAD_VISUALSTYLE
350
2A
  0
DICTIONARY
  5
D
102
{ACAD_REACTORS
330
C
102
}
330
C
100
AcDbDictionary
281
     1
  0
DICTIONARY
  5
1A
102
{ACAD_REACTORS
330
C
102
}
330
C
100
AcDbDictionary
281
     1
  3
Layout1
350
1E
  3
Layout2
350
26
  3
Model
350
22
  0
DICTIONARY
  5
318
102
{ACAD_REACTORS
330
C
102
}
330
C
100
AcDbDictionary
281
     1
  0
DICTIONARY
  5
17
102
{ACAD_REACTORS
330
C
102
}
330
C
100
AcDbDictionary
281
     1
  3
Standard
350
18
  0
DICTIONARY
  5
19
102
{ACAD_REACTORS
330
C
102
}
330
C
100
AcDbDictionary
281
     1
  0
ACDBDICTIONARYWDFLT
  5
E
102
{ACAD_REACTORS
330
C
102
}
330
C
100
AcDbDictionary
281
     1
  3
Normal
350
F
100
AcDbDictionaryWithDefault
340
F
  0
DICTIONARY
  5
3B
102
{ACAD_REACTORS
330
C
102
}
330
C
100
AcDbDictionary
281
     1
  3
A0
350
3C
  3
A1
350
3D
  3
A2
350
3E
  3
A3
350
3F
  3
A4
350
40
  3
A5
350
41
  3
A6
350
42
  3
A7
350
43
  3
A8
350
44
  3
A9
350
45
  3
B0
350
46
  3
B1
350
47
  3
B2
350
48
  3
B3
350
49
  3
B4
350
4A
  3
B5
350
4B
  3
B6
350
4C
  3
B7
350
4D
  3
B8
350
4E
  3
B9
350
4F
  3
C0
350
50
  3
C1
350
51
  3
C2
350
52
  3
C3
350
53
  3
C4
350
54
  3
C5
350
55
  3
C6
350
56
  3
C7
350
57
  3
C8
350
58
  3
C9
350
59
  3
D0
350
5A
  3
D1
350
5B
  3
D2
350
5C
  0
DICTIONARY
  5
317
102
{ACAD_REACTORS
330
C
102
}
330
C
100
AcDbDictionary
281
     1
  0
DICTIONARY
  5
2A
102
{ACAD_REACTORS
330
C
102
}
330
C
100
AcDbDictionary
281
     1
  3
2dWireframe
350
2F
  3
3D Hidden
350
31
  3
3dWireframe
350
30
  3
Basic
350
32
  3
Brighten
350
36
  3
ColorChange
350
3A
  3
Conceptual
350
34
  3
Dim
350
35
  3
Facepattern
350
39
  3
Flat
350
2B
  3
FlatWithEdges
350
2C
  3
Gouraud
350
2D
  3
GouraudWithEdges
350
2E
  3
Linepattern
350
38
  3
Realistic
350
33
  3
Thicken
350
37
  0
LAYOUT
  5
1E
102
{ACAD_REACTORS
330
1A
102
}
330
1A
100
AcDbPlotSettings
  1

  2
none_device
  4

  6

 40
0.0
 41
0.0
 42
0.0
 43
0.0
 44
0.0
 45
0.0
 46
0.0
 47
0.0
 48
0.0
 49
0.0
140
0.0
141
0.0
142
1.0
143
1.0
 70
   688
 72
     0
 73
     0
 74
     5
  7

 75
    16
 76
     0
 77
     2
 78
   300
147
1.0
148
0.0
149
0.0
100
AcDbLayout
  1
Layout1
 70
     1
 71
     1
 10
0.0
 20
0.0
 11
12.0
 21
9.0
 12
0.0
 22
0.0
 32
0.0
 14
1.000000000000000E+20
 24
1.000000000000000E+20
 34
1.000000000000000E+20
 15
-1.000000000000000E+20
 25
-1.000000000000000E+20
 35
-1.000000000000000E+20
146
0.0
 13
0.0
 23
0.0
 33
0.0
 16
1.0
 26
0.0
 36
0.0
 17
0.0
 27
1.0
 37
0.0
 76
     0
330
1B
  0
LAYOUT
  5
26
102
{ACAD_REACTORS
330
1A
102
}
330
1A
100
AcDbPlotSettings
  1

  2
none_device
  4

  6

 40
0.0
 41
0.0
 42
0.0
 43
0.0
 44
0.0
 45
0.0
 46
0.0
 47
0.0
 48
0.0
 49
0.0
140
0.0
141
0.0
142
1.0
143
1.0
 70
   688
 72
     0
 73
     0
 74
     5
  7

 75
    16
 76
     0
 77
     2
 78
   300
147
1.0
148
0.0
149
0.0
100
AcDbLayout
  1
Layout2
 70
     1
 71
     2
 10
0.0
 20
0.0
 11
0.0
 21
0.0
 12
0.0
 22
0.0
 32
0.0
 14
0.0
 24
0.0
 34
0.0
 15
0.0
 25
0.0
 35
0.0
146
0.0
 13
0.0
 23
0.0
 33
0.0
 16
1.0
 26
0.0
 36
0.0
 17
0.0
 27
1.0
 37
0.0
 76
     0
330
23
  0
LAYOUT
  5
22
102
{ACAD_REACTORS
330
1A
102
}
330
1A
100
AcDbPlotSettings
  1

  2
none_device
  4

  6

 40
0.0
 41
0.0
 42
0.0
 43
0.0
 44
0.0
 45
0.0
 46
0.0
 47
0.0
 48
0.0
 49
0.0
140
0.0
141
0.0
142
1.0
143
1.0
 70
  1712
 72
     0
 73
     0
 74
     0
  7

 75
     0
 76
     0
 77
     2
 78
   300
147
1.0
148
0.0
149
0.0
100
AcDbLayout
  1
Model
 70
     1
 71
     0
 10
0.0
 20
0.0
 11
12.0
 21
9.0
 12
0.0
 22
0.0
 32
0.0
 14
-1.279528000000001
 24
-1.279528000000001
 34
0.0
 15
56.78541888476988
 25
66.00788978177847
 35
0.0
146
0.0
 13
0.0
 23
0.0
 33
0.0
 16
1.0
 26
0.0
 36
0.0
 17
0.0
 27
1.0
 37
0.0
 76
     0
330
1F
331
29
  0
MLINESTYLE
  5
18
102
{ACAD_REACTORS
330
17
102
}
330
17
100
AcDbMlineStyle
  2
Standard
 70
     0
  3

 62
   256
 51
90.0
 52
90.0
 71
     2
 49
0.5
 62
   256
  6
BYLAYER
 49
-0.5
 62
   256
  6
BYLAYER
  0
ACDBPLACEHOLDER
  5
F
102
{ACAD_REACTORS
330
E
102
}
330
E
  0
SCALE
  5
3C
102
{ACAD_REACTORS
330
3B
102
}
330
3B
100
AcDbScale
 70
     0
300
1:1
140
1.0
141
1.0
290
     1
  0
SCALE
  5
3D
102
{ACAD_REACTORS
330
3B
102
}
330
3B
100
AcDbScale
 70
     0
300
1:2
140
1.0
141
2.0
290
     0
  0
SCALE
  5
3E
102
{ACAD_REACTORS
330
3B
102
}
330
3B
100
AcDbScale
 70
     0
300
1:4
140
1.0
141
4.0
290
     0
  0
SCALE
  5
3F
102
{ACAD_REACTORS
330
3B
102
}
330
3B
100
AcDbScale
 70
     0
300
1:5
140
1.0
141
5.0
290
     0
  0
SCALE
  5
40
102
{ACAD_REACTORS
330
3B
102
}
330
3B
100
AcDbScale
 70
     0
300
1:8
140
1.0
141
8.0
290
     0
  0
SCALE
  5
41
102
{ACAD_REACTORS
330
3B
102
}
330
3B
100
AcDbScale
 70
     0
300
1:10
140
1.0
141
10.0
290
     0
  0
SCALE
  5
42
102
{ACAD_REACTORS
330
3B
102
}
330
3B
100
AcDbScale
 70
     0
300
1:16
140
1.0
141
16.0
290
     0
  0
SCALE
  5
43
102
{ACAD_REACTORS
330
3B
102
}
330
3B
100
AcDbScale
 70
     0
300
1:20
140
1.0
141
20.0
290
     0
  0
SCALE
  5
44
102
{ACAD_REACTORS
330
3B
102
}
330
3B
100
AcDbScale
 70
     0
300
1:30
140
1.0
141
30.0
290
     0
  0
SCALE
  5
45
102
{ACAD_REACTORS
330
3B
102
}
330
3B
100
AcDbScale
 70
     0
300
1:40
140
1.0
141
40.0
290
     0
  0
SCALE
  5
46
102
{ACAD_REACTORS
330
3B
102
}
330
3B
100
AcDbScale
 70
     0
300
1:50
140
1.0
141
50.0
290
     0
  0
SCALE
  5
47
102
{ACAD_REACTORS
330
3B
102
}
330
3B
100
AcDbScale
 70
     0
300
1:100
140
1.0
141
100.0
290
     0
  0
SCALE
  5
48
102
{ACAD_REACTORS
330
3B
102
}
330
3B
100
AcDbScale
 70
     0
300
2:1
140
2.0
141
1.0
290
     0
  0
SCALE
  5
49
102
{ACAD_REACTORS
330
3B
102
}
330
3B
100
AcDbScale
 70
     0
300
4:1
140
4.0
141
1.0
290
     0
  0
SCALE
  5
4A
102
{ACAD_REACTORS
330
3B
102
}
330
3B
100
AcDbScale
 70
     0
300
8:1
140
8.0
141
1.0
290
     0
  0
SCALE
  5
4B
102
{ACAD_REACTORS
330
3B
102
}
330
3B
100
AcDbScale
 70
     0
300
10:1
140
10.0
141
1.0
290
     0
  0
SCALE
  5
4C
102
{ACAD_REACTORS
330
3B
102
}
330
3B
100
AcDbScale
 70
     0
300
100:1
140
100.0
141
1.0
290
     0
  0
SCALE
  5
4D
102
{ACAD_REACTORS
330
3B
102
}
330
3B
100
AcDbScale
 70
     0
300
1/128" = 1'-0"
140
0.0078125
141
12.0
290
     0
  0
SCALE
  5
4E
102
{ACAD_REACTORS
330
3B
102
}
330
3B
100
AcDbScale
 70
     0
300
1/64" = 1'-0"
140
0.015625
141
12.0
290
     0
  0
SCALE
  5
4F
102
{ACAD_REACTORS
330
3B
102
}
330
3B
100
AcDbScale
 70
     0
300
1/32" = 1'-0"
140
0.03125
141
12.0
290
     0
  0
SCALE
  5
50
102
{ACAD_REACTORS
330
3B
102
}
330
3B
100
AcDbScale
 70
     0
300
1/16" = 1'-0"
140
0.0625
141
12.0
290
     0
  0
SCALE
  5
51
102
{ACAD_REACTORS
330
3B
102
}
330
3B
100
AcDbScale
 70
     0
300
3/32" = 1'-0"
140
0.09375
141
12.0
290
     0
  0
SCALE
  5
52
102
{ACAD_REACTORS
330
3B
102
}
330
3B
100
AcDbScale
 70
     0
300
1/8" = 1'-0"
140
0.125
141
12.0
290
     0
  0
SCALE
  5
53
102
{ACAD_REACTORS
330
3B
102
}
330
3B
100
AcDbScale
 70
     0
300
3/16" = 1'-0"
140
0.1875
141
12.0
290
     0
  0
SCALE
  5
54
102
{ACAD_REACTORS
330
3B
102
}
330
3B
100
AcDbScale
 70
     0
300
1/4" = 1'-0"
140
0.25
141
12.0
290
     0
  0
SCALE
  5
55
102
{ACAD_REACTORS
330
3B
102
}
330
3B
100
AcDbScale
 70
     0
300
3/8" = 1'-0"
140
0.375
141
12.0
290
     0
  0
SCALE
  5
56
102
{ACAD_REACTORS
330
3B
102
}
330
3B
100
AcDbScale
 70
     0
300
1/2" = 1'-0"
140
0.5
141
12.0
290
     0
  0
SCALE
  5
57
102
{ACAD_REACTORS
330
3B
102
}
330
3B
100
AcDbScale
 70
     0
300
3/4" = 1'-0"
140
0.75
141
12.0
290
     0
  0
SCALE
  5
58
102
{ACAD_REACTORS
330
3B
102
}
330
3B
100
AcDbScale
 70
     0
300
1" = 1'-0"
140
1.0
141
12.0
290
     0
  0
SCALE
  5
59
102
{ACAD_REACTORS
330
3B
102
}
330
3B
100
AcDbScale
 70
     0
300
1-1/2" = 1'-0"
140
1.5
141
12.0
290
     0
  0
SCALE
  5
5A
102
{ACAD_REACTORS
330
3B
102
}
330
3B
100
AcDbScale
 70
     0
300
3" = 1'-0"
140
3.0
141
12.0
290
     0
  0
SCALE
  5
5B
102
{ACAD_REACTORS
330
3B
102
}
330
3B
100
AcDbScale
 70
     0
300
6" = 1'-0"
140
6.0
141
12.0
290
     0
  0
SCALE
  5
5C
102
{ACAD_REACTORS
330
3B
102
}
330
3B
100
AcDbScale
 70
     0
300
1'-0" = 1'-0"
140
12.0
141
12.0
290
     0
  0
VISUALSTYLE
  5
2F
102
{ACAD_REACTORS
330
2A
102
}
330
2A
100
AcDbVisualStyle
  2
2dWireframe
 70
     4
 71
     0
 72
     2
 73
     0
 90
        0
 40
-0.6
 41
-30.0
 62
     5
 63
     7
421
 16777215
 74
     1
 91
        4
 64
     7
 65
   257
 75
     1
175
     1
 42
1.0
 92
        0
 66
   257
 43
1.0
 76
     1
 77
     6
 78
     2
 67
     7
 79
     5
170
     0
171
     0
290
     0
174
     0
 93
        1
 44
0.0
173
     0
291
     0
 45
0.0
1001
ACAD
1000
AcDbSavedByObjectVersion
1070
     0
  0
VISUALSTYLE
  5
31
102
{ACAD_REACTORS
330
2A
102
}
330
2A
100
AcDbVisualStyle
  2
3D Hidden
 70
     6
 71
     1
 72
     2
 73
     2
 90
        0
 40
-0.6
 41
-30.0
 62
     5
 63
     7
421
 16777215
 74
     2
 91
        2
 64
     7
 65
   257
 75
     2
175
     1
 42
40.0
 92
        0
 66
   257
 43
1.0
 76
     1
 77
     6
 78
     2
 67
     7
 79
     3
170
     0
171
     0
290
     0
174
     0
 93
        1
 44
0.0
173
     0
291
     0
 45
0.0
1001
ACAD
1000
AcDbSavedByObjectVersion
1070
     0
  0
VISUALSTYLE
  5
30
102
{ACAD_REACTORS
330
2A
102
}
330
2A
100
AcDbVisualStyle
  2
3dWireframe
 70
     5
 71
     0
 72
     2
 73
     0
 90
        0
 40
-0.6
 41
-30.0
 62
     5
 63
     7
421
 16777215
 74
     1
 91
        4
 64
     7
 65
   257
 75
     1
175
     1
 42
1.0
 92
        0
 66
   257
 43
1.0
 76
     1
 77
     6
 78
     2
 67
     7
 79
     5
170
     0
171
     0
290
     0
174
     0
 93
        1
 44
0.0
173
     0
291
     0
 45
0.0
1001
ACAD
1000
AcDbSavedByObjectVersion
1070
     0
  0
VISUALSTYLE
  5
32
102
{ACAD_REACTORS
330
2A
102
}
330
2A
100
AcDbVisualStyle
  2
Basic
 70
     7
 71
     1
 72
     0
 73
     1
 90
        0
 40
-0.6
 41
-30.0
 62
     5
 63
     7
421
 16777215
 74
     0
 91
        4
 64
     7
 65
   257
 75
     1
175
     1
 42
1.0
 92
        8
 66
     7
 43
1.0
 76
     1
 77
     6
 78
     2
 67
     7
 79
     5
170
     0
171
     0
290
     0
174
     0
 93
        1
 44
0.0
173
     0
291
     1
 45
0.0
1001
ACAD
1000
AcDbSavedByObjectVersion
1070
     0
  0
VISUALSTYLE
  5
36
102
{ACAD_REACTORS
330
2A
102
}
330
2A
100
AcDbVisualStyle
  2
Brighten
 70
    12
 71
     2
 72
     2
 73
     0
 90
        0
 40
-0.6
 41
-30.0
 62
     5
 63
     7
421
 16777215
 74
     1
 91
        4
 64
     7
 65
   257
 75
     1
175
     1
 42
1.0
 92
        8
 66
     7
 43
1.0
 76
     1
 77
     6
 78
     2
 67
     7
 79
     5
170
     0
171
     0
290
     0
174
     0
 93
        1
 44
50.0
173
     0
291
     1
 45
0.0
1001
ACAD
1000
AcDbSavedByObjectVersion
1070
     0
  0
VISUALSTYLE
  5
3A
102
{ACAD_REACTORS
330
2A
102
}
330
2A
100
AcDbVisualStyle
  2
ColorChange
 70
    16
 71
     2
 72
     2
 73
     3
 90
        0
 40
-0.6
 41
-30.0
 62
     5
 63
     8
421
  8421504
 74
     1
 91
        4
 64
     7
 65
   257
 75
     1
175
     1
 42
1.0
 92
        8
 66
     8
424
  8421504
 43
1.0
 76
     1
 77
     6
 78
     2
 67
     7
 79
     5
170
     0
171
     0
290
     0
174
     0
 93
        1
 44
0.0
173
     0
291
     1
 45
0.0
1001
ACAD
1000
AcDbSavedByObjectVersion
1070
     0
  0
VISUALSTYLE
  5
34
102
{ACAD_REACTORS
330
2A
102
}
330
2A
100
AcDbVisualStyle
  2
Conceptual
 70
     9
 71
     3
 72
     2
 73
     0
 90
        0
 40
-0.6
 41
-30.0
 62
     5
 63
     7
421
 16777215
 74
     2
 91
        2
 64
     7
 65
   257
 75
     1
175
     1
 42
40.0
 92
        8
 66
     7
 43
1.0
 76
     1
 77
     6
 78
     2
 67
     7
 79
     3
170
     0
171
     0
290
     0
174
     0
 93
        1
 44
0.0
173
     0
291
     0
 45
0.0
1001
ACAD
1000
AcDbSavedByObjectVersion
1070
     0
  0
VISUALSTYLE
  5
35
102
{ACAD_REACTORS
330
2A
102
}
330
2A
100
AcDbVisualStyle
  2
Dim
 70
    11
 71
     2
 72
     2
 73
     0
 90
        0
 40
-0.6
 41
-30.0
 62
     5
 63
     7
421
 16777215
 74
     1
 91
        4
 64
     7
 65
   257
 75
     1
175
     1
 42
1.0
 92
        8
 66
     7
 43
1.0
 76
     1
 77
     6
 78
     2
 67
     7
 79
     5
170
     0
171
     0
290
     0
174
     0
 93
        1
 44
-50.0
173
     0
291
     1
 45
0.0
1001
ACAD
1000
AcDbSavedByObjectVersion
1070
     0
  0
VISUALSTYLE
  5
39
102
{ACAD_REACTORS
330
2A
102
}
330
2A
100
AcDbVisualStyle
  2
Facepattern
 70
    15
 71
     2
 72
     2
 73
     0
 90
        0
 40
-0.6
 41
-30.0
 62
     5
 63
     7
421
 16777215
 74
     1
 91
        4
 64
     7
 65
   257
 75
     1
175
     1
 42
1.0
 92
        8
 66
     7
 43
1.0
 76
     1
 77
     6
 78
     2
 67
     7
 79
     5
170
     0
171
     0
290
     0
174
     0
 93
        1
 44
0.0
173
     0
291
     1
 45
0.0
1001
ACAD
1000
AcDbSavedByObjectVersion
1070
     0
  0
VISUALSTYLE
  5
2B
102
{ACAD_REACTORS
330
2A
102
}
330
2A
100
AcDbVisualStyle
  2
Flat
 70
     0
 71
     2
 72
     1
 73
     1
 90
        2
 40
-0.6
 41
30.0
 62
     5
 63
     7
421
 16777215
 74
     0
 91
        4
 64
     7
 65
   257
 75
     1
175
     1
 42
1.0
 92
        8
 66
     7
 43
1.0
 76
     1
 77
     6
 78
     2
 67
     7
 79
     5
170
     0
171
     0
290
     0
174
     0
 93
       13
 44
0.0
173
     0
291
     1
 45
0.0
1001
ACAD
1000
AcDbSavedByObjectVersion
1070
     0
  0
VISUALSTYLE
  5
2C
102
{ACAD_REACTORS
330
2A
102
}
330
2A
100
AcDbVisualStyle
  2
FlatWithEdges
 70
     1
 71
     2
 72
     1
 73
     1
 90
        2
 40
-0.6
 41
30.0
 62
     5
 63
     7
421
 16777215
 74
     1
 91
        4
 64
     7
 65
   257
 75
     1
175
     1
 42
1.0
 92
        0
 66
   257
 43
1.0
 76
     1
 77
     6
 78
     2
 67
     7
 79
     5
170
     0
171
     0
290
     0
174
     0
 93
       13
 44
0.0
173
     0
291
     1
 45
0.0
1001
ACAD
1000
AcDbSavedByObjectVersion
1070
     0
  0
VISUALSTYLE
  5
2D
102
{ACAD_REACTORS
330
2A
102
}
330
2A
100
AcDbVisualStyle
  2
Gouraud
 70
     2
 71
     2
 72
     2
 73
     1
 90
        2
 40
-0.6
 41
30.0
 62
     5
 63
     7
421
 16777215
 74
     0
 91
        4
 64
     7
 65
   257
 75
     1
175
     1
 42
1.0
 92
        0
 66
     7
 43
1.0
 76
     1
 77
     6
 78
     2
 67
     7
 79
     5
170
     0
171
     0
290
     0
174
     0
 93
       13
 44
0.0
173
     0
291
     1
 45
0.0
1001
ACAD
1000
AcDbSavedByObjectVersion
1070
     0
  0
VISUALSTYLE
  5
2E
102
{ACAD_REACTORS
330
2A
102
}
330
2A
100
AcDbVisualStyle
  2
GouraudWithEdges
 70
     3
 71
     2
 72
     2
 73
     1
 90
        2
 40
-0.6
 41
30.0
 62
     5
 63
     7
421
 16777215
 74
     1
 91
        4
 64
     7
 65
   257
 75
     1
175
     1
 42
1.0
 92
        0
 66
   257
 43
1.0
 76
     1
 77
     6
 78
     2
 67
     7
 79
     5
170
     0
171
     0
290
     0
174
     0
 93
       13
 44
0.0
173
     0
291
     1
 45
0.0
1001
ACAD
1000
AcDbSavedByObjectVersion
1070
     0
  0
VISUALSTYLE
  5
38
102
{ACAD_REACTORS
330
2A
102
}
330
2A
100
AcDbVisualStyle
  2
Linepattern
 70
    14
 71
     2
 72
     2
 73
     0
 90
        0
 40
-0.6
 41
-30.0
 62
     5
 63
     7
421
 16777215
 74
     1
 91
        4
 64
     7
 65
   257
 75
     7
175
     7
 42
1.0
 92
        8
 66
     7
 43
1.0
 76
     1
 77
     6
 78
     2
 67
     7
 79
     5
170
     0
171
     0
290
     0
174
     0
 93
        1
 44
0.0
173
     0
291
     1
 45
0.0
1001
ACAD
1000
AcDbSavedByObjectVersion
1070
     0
  0
VISUALSTYLE
  5
33
102
{ACAD_REACTORS
330
2A
102
}
330
2A
100
AcDbVisualStyle
  2
Realistic
 70
     8
 71
     2
 72
     2
 73
     0
 90
        0
 40
-0.6
 41
-30.0
 62
     5
 63
     7
421
 16777215
 74
     1
 91
        0
 64
     7
 65
   257
 75
     1
175
     1
 42
1.0
 92
        8
 66
     8
424
  7895160
 43
1.0
 76
     1
 77
     6
 78
     2
 67
     7
 79
     5
170
     0
171
     0
290
     0
174
     0
 93
       13
 44
0.0
173
     0
291
     0
 45
0.0
1001
ACAD
1000
AcDbSavedByObjectVersion
1070
     0
  0
VISUALSTYLE
  5
37
102
{ACAD_REACTORS
330
2A
102
}
330
2A
100
AcDbVisualStyle
  2
Thicken
 70
    13
 71
     2
 72
     2
 73
     0
 90
        0
 40
-0.6
 41
-30.0
 62
     5
 63
     7
421
 16777215
 74
     1
 91
        4
 64
     7
 65
   257
 75
     1
175
     1
 42
1.0
 92
       12
 66
     7
 43
1.0
 76
     1
 77
     6
 78
     2
 67
     7
 79
     5
170
     0
171
     0
290
     0
174
     0
 93
        1
 44
0.0
173
     0
291
     1
 45
0.0
1001
ACAD
1000
AcDbSavedByObjectVersion
1070
     0
  0
ENDSEC
  0
EOF
